999
DXF file: C:\Users\sesa63760\Dev\_Creo\CAD\MCADID0003774_3D-CAD\drw0001_2.dxf
999
Pro/ENGINEER 2019471 by Parametric Technology Corporation
  0
SECTION
  2
HEADER
  9
$ACADVER
  1
AC1024
  9
$DWGCODEPAGE
  3
ANSI_1252
  9
$EXTMAX
 10
72.2817779407
 20
102.2270859447
 30
0.0
  9
$EXTMIN
 10
0.0
 20
0.0
 30
0.0
  9
$LIMMIN
 10
0.0
 20
0.0
  9
$LIMMAX
 10
72.2817779407
 20
102.2270859447
  9
$VIEWCTR
 10
36.1408889704
 20
51.1135429724
  9
$VIEWSIZE
 40
102.2270859447
  9
$CLAYER
  8
0
  9
$LTSCALE
 40
6.6636915282
  9
$CELTYPE
  6
BYLAYER
  9
$DIMSCALE
 40
1.0
  9
$DIMASZ
 40
0.8604973564
  9
$DIMEXO
 40
1.0
  9
$DIMDLI
 40
4.6040050559
  9
$DIMEXE
 40
1.0
  9
$DIMCEN
 40
1.0904222501
  9
$DIMLFAC
 40
1.0
  9
$DIMBLK
  1
_FILLED
  9
$DIMALT
 70
0
  9
$DIMALTF
 40
0.0393700787
  9
$DIMTXT
 40
1.204696299
  9
$DIMTOL
 70
1
  9
$DIMLIM
 70
0
  9
$DIMTFAC
 40
1.0
  9
$DIMTP
 40
0.01
  9
$DIMTM
 40
0.01
  9
$DIMGAP
 40
0.625
  9
$DIMDSEP
 70
46
  9
$AUNITS
 70
0
  9
$PDMODE
 70
3
  9
$PDSIZE
 40
0.3125
  9
$HANDSEED
  5
27E
  9
$TILEMODE
 70
1
  9
$MEASUREMENT
 70
1
  9
$INSUNITS
 70
4
  0
ENDSEC
  0
SECTION
  2
CLASSES
  0
CLASS
  1
ACDBDICTIONARYWDFLT
  2
AcDbDictionaryWithDefault
  3
AutoCAD 2000
 90
0
 91
1
280
0
281
0
  0
CLASS
  1
ACDBPLACEHOLDER
  2
AcDbPlaceHolder
  3
AutoCAD 2000
 90
0
 91
1
280
0
281
0
  0
CLASS
  1
LAYOUT
  2
AcDbLayout
  3
AutoCAD 2000
 90
0
 91
0
280
0
281
0
  0
ENDSEC
  0
SECTION
  2
TABLES
  0
TABLE
  2
VPORT
  5
8
100
AcDbSymbolTable
 70
2
  0
VPORT
  5
1F4
100
AcDbSymbolTableRecord
100
AcDbViewportTableRecord
  2
*ACTIVE
 70
0
 10
0.0
 20
0.0
 11
1.0
 21
1.0
 12
36.1408889704
 22
51.1135429724
 13
0.0
 23
0.0
 14
1.0
 24
1.0
 15
0.0
 25
0.0
 16
0.0
 26
0.0
 36
1.0
 17
0.0
 27
0.0
 37
0.0
 40
102.2270859447
 41
0.7070707071
 42
50.0
 43
0.0
 44
0.0
 50
0.0
 51
0.0
 71
0
 72
100
 73
1
 74
1
 75
0
 76
0
 77
0
 78
0
  0
ENDTAB
  0
TABLE
  2
LTYPE
  5
5
100
AcDbSymbolTable
 70
6
  0
LTYPE
  5
14
100
AcDbSymbolTableRecord
100
AcDbLinetypeTableRecord
  2
BYBLOCK
 70
0
  3

 72
65
 73
0
 40
0.0
  0
LTYPE
  5
15
100
AcDbSymbolTableRecord
100
AcDbLinetypeTableRecord
  2
BYLAYER
 70
0
  3

 72
65
 73
0
 40
0.0
  0
LTYPE
  5
16
100
AcDbSymbolTableRecord
100
AcDbLinetypeTableRecord
  2
CONTINUOUS
 70
64
  3
Solid line
 72
65
 73
0
 40
0.0
  0
LTYPE
  5
1F5
100
AcDbSymbolTableRecord
100
AcDbLinetypeTableRecord
  2
CENTER
 70
64
  3
____ _ ____ _ ____ _ ____ _ ____ _ ____ _ ____
 72
65
 73
4
 40
0.6
 49
0.375
 74
0
 49
-0.075
 74
0
 49
0.075
 74
0
 49
-0.075
 74
0
  0
LTYPE
  5
1F6
100
AcDbSymbolTableRecord
100
AcDbLinetypeTableRecord
  2
HIDDEN
 70
64
  3
- - - - - - - - - - - - - - - - - - - -
 72
65
 73
2
 40
0.2
 49
0.1
 74
0
 49
-0.1
 74
0
  0
LTYPE
  5
1F7
100
AcDbSymbolTableRecord
100
AcDbLinetypeTableRecord
  2
PHANTOM
 70
64
  3
_____ _ _ _____ _ _ _____ _ _ _____
 72
65
 73
6
 40
0.8
 49
0.45
 74
0
 49
-0.05
 74
0
 49
0.1
 74
0
 49
-0.05
 74
0
 49
0.1
 74
0
 49
-0.05
 74
0
  0
LTYPE
  5
1F8
100
AcDbSymbolTableRecord
100
AcDbLinetypeTableRecord
  2
DOT
 70
64
  3
. . . . . . . . . . . . . . . . . . . .
 72
65
 73
2
 40
0.2
 49
0.1
 74
0
 49
-0.1
 74
0
  0
LTYPE
  5
1F9
100
AcDbSymbolTableRecord
100
AcDbLinetypeTableRecord
  2
DASHED
 70
64
  3
- - - - - - - - - - - - - - - - - - - -
 72
65
 73
2
 40
0.2
 49
0.1
 74
0
 49
-0.1
 74
0
  0
ENDTAB
  0
TABLE
  2
LAYER
  5
2
100
AcDbSymbolTable
 70
36
  0
LAYER
  5
10
100
AcDbSymbolTableRecord
100
AcDbLayerTableRecord
  2
0
 70
0
 62
7
  6
CONTINUOUS
370
-3
390
F
  0
LAYER
  5
1FA
100
AcDbSymbolTableRecord
100
AcDbLayerTableRecord
  2
DEFAULT_1
 70
0
 62
7
  6
CENTER
370
-3
390
F
  0
LAYER
  5
1FB
100
AcDbSymbolTableRecord
100
AcDbLayerTableRecord
  2
DEFAULT_2
 70
0
 62
7
  6
HIDDEN
370
-3
390
F
  0
LAYER
  5
1FC
100
AcDbSymbolTableRecord
100
AcDbLayerTableRecord
  2
DEFAULT_3
 70
0
 62
7
  6
PHANTOM
370
-3
390
F
  0
LAYER
  5
1FD
100
AcDbSymbolTableRecord
100
AcDbLayerTableRecord
  2
00_COMPONENTS
 70
0
 62
7
  6
CONTINUOUS
370
-3
390
F
  0
LAYER
  5
1FE
100
AcDbSymbolTableRecord
100
AcDbLayerTableRecord
  2
01_1_DEFAULT_DATUMS
 70
0
 62
7
  6
CONTINUOUS
370
-3
390
F
  0
LAYER
  5
1FF
100
AcDbSymbolTableRecord
100
AcDbLayerTableRecord
  2
01_PLANES
 70
0
 62
7
  6
CONTINUOUS
370
-3
390
F
  0
LAYER
  5
200
100
AcDbSymbolTableRecord
100
AcDbLayerTableRecord
  2
02_COORD_SYS
 70
0
 62
7
  6
CONTINUOUS
370
-3
390
F
  0
LAYER
  5
201
100
AcDbSymbolTableRecord
100
AcDbLayerTableRecord
  2
03_AXES
 70
0
 62
7
  6
CONTINUOUS
370
-3
390
F
  0
LAYER
  5
202
100
AcDbSymbolTableRecord
100
AcDbLayerTableRecord
  2
04_POINTS
 70
0
 62
7
  6
CONTINUOUS
370
-3
390
F
  0
LAYER
  5
203
100
AcDbSymbolTableRecord
100
AcDbLayerTableRecord
  2
05_CURVES
 70
0
 62
7
  6
CONTINUOUS
370
-3
390
F
  0
LAYER
  5
204
100
AcDbSymbolTableRecord
100
AcDbLayerTableRecord
  2
06_SURFS
 70
0
 62
7
  6
CONTINUOUS
370
-3
390
F
  0
LAYER
  5
205
100
AcDbSymbolTableRecord
100
AcDbLayerTableRecord
  2
07_COSMETICS
 70
0
 62
7
  6
CONTINUOUS
370
-3
390
F
  0
LAYER
  5
206
100
AcDbSymbolTableRecord
100
AcDbLayerTableRecord
  2
10_NOTES
 70
0
 62
7
  6
CONTINUOUS
370
-3
390
F
  0
LAYER
  5
207
100
AcDbSymbolTableRecord
100
AcDbLayerTableRecord
  2
11_NOTES_PUB
 70
0
 62
7
  6
CONTINUOUS
370
-3
390
F
  0
LAYER
  5
208
100
AcDbSymbolTableRecord
100
AcDbLayerTableRecord
  2
13_REF_GTOL
 70
0
 62
7
  6
CONTINUOUS
370
-3
390
F
  0
LAYER
  5
209
100
AcDbSymbolTableRecord
100
AcDbLayerTableRecord
  2
16_MISC
 70
0
 62
7
  6
CONTINUOUS
370
-3
390
F
  0
LAYER
  5
20A
100
AcDbSymbolTableRecord
100
AcDbLayerTableRecord
  2
17_NO_PRINT
 70
0
 62
7
  6
CONTINUOUS
370
-3
390
F
  0
LAYER
  5
20B
100
AcDbSymbolTableRecord
100
AcDbLayerTableRecord
  2
18_DATUM_CAMS_JOINTS
 70
0
 62
7
  6
CONTINUOUS
370
-3
390
F
  0
LAYER
  5
20C
100
AcDbSymbolTableRecord
100
AcDbLayerTableRecord
  2
19_DATUM_FUNCTIONAL
 70
0
 62
7
  6
CONTINUOUS
370
-3
390
F
  0
LAYER
  5
20D
100
AcDbSymbolTableRecord
100
AcDbLayerTableRecord
  2
20_DATUM_KINEMATIC_SCHEME
 70
0
 62
7
  6
CONTINUOUS
370
-3
390
F
  0
LAYER
  5
20E
100
AcDbSymbolTableRecord
100
AcDbLayerTableRecord
  2
INTFCLR_10573
 70
0
 62
7
  6
CONTINUOUS
370
-3
390
F
  0
LAYER
  5
20F
100
AcDbSymbolTableRecord
100
AcDbLayerTableRecord
  2
INTFCLR_10574
 70
0
 62
7
  6
CONTINUOUS
370
-3
390
F
  0
ENDTAB
  0
TABLE
  2
STYLE
  5
3
100
AcDbSymbolTable
 70
1
  0
STYLE
  5
11
100
AcDbSymbolTableRecord
100
AcDbTextStyleTableRecord
  2
STANDARD
 70
0
 40
0.0
 41
1.0
 50
0.0
 71
0
 42
0.2
  3
ARIAL.TTF
  4

  0
STYLE
  5
210
100
AcDbSymbolTableRecord
100
AcDbTextStyleTableRecord
  2
TEXTSTYLE_1
 70
0
 40
0.0
 41
0.8
 50
0.0
 71
0
 42
0.2
  3
gdt
  4

  0
ENDTAB
  0
TABLE
  2
VIEW
  5
6
100
AcDbSymbolTable
 70
0
  0
ENDTAB
  0
TABLE
  2
UCS
  5
7
100
AcDbSymbolTable
 70
0
  0
ENDTAB
  0
TABLE
  2
APPID
  5
9
100
AcDbSymbolTable
 70
1
  0
APPID
  5
211
100
AcDbSymbolTableRecord
100
AcDbRegAppTableRecord
  2
ACAD
 70
0
  0
ENDTAB
  0
TABLE
  2
BLOCK_RECORD
  5
1
100
AcDbSymbolTable
 70
0
  0
BLOCK_RECORD
  5
212
100
AcDbSymbolTableRecord
100
AcDbBlockTableRecord
  2
*Model_Space
  0
BLOCK_RECORD
  5
213
100
AcDbSymbolTableRecord
100
AcDbBlockTableRecord
  2
*Paper_Space
  0
BLOCK_RECORD
  5
214
100
AcDbSymbolTableRecord
100
AcDbBlockTableRecord
  2
_FILLED
  0
ENDTAB
  0
TABLE
  2
DIMSTYLE
  5
A
100
AcDbSymbolTable
 70
1
100
AcDbDimStyleTable
 71
0
  0
DIMSTYLE
105
215
100
AcDbSymbolTableRecord
100
AcDbDimStyleTableRecord
  2
STANDARD
 70
0
  3

  4

 40
1.0
 41
0.8604973564
 42
1.0
 43
0.38
 44
1.0
 45
0.0
 46
0.0
 47
0.01
 48
0.01
140
1.204696299
141
0.09
142
0.0
143
25.4
144
1.0
145
0.0
146
1.0
147
0.625
 71
1
 72
0
 73
0
 74
0
 75
0
 76
0
 77
1
 78
8
 79
2
170
0
171
1
172
0
173
0
174
0
175
0
176
0
177
0
178
0
270
2
179
2
271
2
272
2
273
2
274
2
275
0
280
0
281
0
282
0
283
1
284
8
285
0
286
0
287
3
288
0
340
11
278
46
341
214
342
214
343
214
344
214
  0
ENDTAB
  0
ENDSEC
  0
SECTION
  2
BLOCKS
  0
BLOCK
  5
20
100
AcDbEntity
  8
0
100
AcDbBlockBegin
  2
*Model_Space
 70
0
 10
0.0
 20
0.0
 30
0.0
  3
*Model_Space
  1

  0
ENDBLK
  5
21
100
AcDbEntity
  8
0
100
AcDbBlockEnd
  0
BLOCK
  5
1C
100
AcDbEntity
  8
0
100
AcDbBlockBegin
  2
*Paper_Space
 70
0
 10
0.0
 20
0.0
 30
0.0
  3
*Paper_Space
  1

  0
ENDBLK
  5
1D
100
AcDbEntity
  8
0
100
AcDbBlockEnd
  0
BLOCK
  5
216
100
AcDbEntity
  8
0
100
AcDbBlockBegin
  2
_FILLED
 70
64
 10
0.0
 20
0.0
  3
_FILLED
  1

  0
SOLID
  5
217
100
AcDbEntity
  8
0
  6
BYBLOCK
 62
0
100
AcDbTrace
 10
0.0
 20
0.0
 11
-1.0
 21
0.25
 12
-1.0
 22
-0.25
 13
-1.0
 23
-0.25
  0
ENDBLK
  5
218
100
AcDbEntity
  8
0
  6
BYBLOCK
 62
0
100
AcDbBlockEnd
  0
ENDSEC
  0
SECTION
  2
ENTITIES
  0
LINE
  5
219
100
AcDbEntity
  8
0
100
AcDbLine
 62
7
  6
BYLAYER
 10
42.1413887791
 20
6.8193098947
 11
31.1413887791
 21
6.8193098947
  0
LINE
  5
21A
100
AcDbEntity
  8
0
100
AcDbLine
 62
7
  6
BYLAYER
 10
43.1413887791
 20
7.8193098947
 11
30.1413887791
 21
7.8193098947
  0
LINE
  5
21B
100
AcDbEntity
  8
0
100
AcDbLine
 62
7
  6
BYLAYER
 10
31.3413887791
 20
93.0324011934
 11
30.6413887791
 21
92.628256005
  0
LINE
  5
21C
100
AcDbEntity
  8
0
100
AcDbLine
 62
7
  6
BYLAYER
 10
30.1413887791
 20
14.9193098947
 11
43.1413887791
 21
14.9193098947
  0
LINE
  5
21D
100
AcDbEntity
  8
0
100
AcDbLine
 62
7
  6
BYLAYER
 10
30.7399169166
 20
15.5178380321
 11
42.5428606417
 21
15.5178380321
  0
LINE
  5
21E
100
AcDbEntity
  8
0
100
AcDbLine
 62
7
  6
BYLAYER
 10
42.1913887791
 20
16.3663661696
 11
31.0913887791
 21
16.3663661696
  0
LINE
  5
21F
100
AcDbEntity
  8
0
100
AcDbLine
 62
7
  6
BYLAYER
 10
30.1413887791
 20
7.8193098947
 11
31.1413887791
 21
6.8193098947
  0
LINE
  5
220
100
AcDbEntity
  8
0
100
AcDbLine
 62
7
  6
BYLAYER
 10
46.0413887791
 20
18.8193098947
 11
27.2413887791
 21
18.8193098947
  0
LINE
  5
221
100
AcDbEntity
  8
0
100
AcDbLine
 62
7
  6
BYLAYER
 10
30.6413887791
 20
85.5324011934
 11
30.1413887791
 21
85.0324011934
  0
LINE
  5
222
100
AcDbEntity
  8
0
100
AcDbLine
 62
7
  6
BYLAYER
 10
27.2413887791
 20
21.3193098947
 11
46.0413887791
 21
21.3193098947
  0
LINE
  5
223
100
AcDbEntity
  8
0
100
AcDbLine
 62
7
  6
BYLAYER
 10
25.6717336645
 20
22.2255506977
 11
27.2413887791
 21
21.3193098947
  0
LINE
  5
224
100
AcDbEntity
  8
0
100
AcDbLine
 62
7
  6
BYLAYER
 10
27.1828101354
 20
25.6778885385
 11
46.0999674229
 21
25.6778885385
  0
LINE
  5
225
100
AcDbEntity
  8
0
100
AcDbLine
 62
7
  6
BYLAYER
 10
46.0999674229
 20
25.960731251
 11
27.1828101354
 21
25.960731251
  0
LINE
  5
226
100
AcDbEntity
  8
0
100
AcDbLine
 62
7
  6
BYLAYER
 10
25.6717336645
 20
27.4718077218
 11
27.1828101354
 21
25.960731251
  0
LINE
  5
227
100
AcDbEntity
  8
0
100
AcDbLine
 62
7
  6
BYLAYER
 10
49.6413887791
 20
32.3716750895
 11
52.2993889984
 21
32.4180706559
  0
LINE
  5
228
100
AcDbEntity
  8
0
100
AcDbLine
 62
7
  6
BYLAYER
 10
49.6413887791
 20
29.5216750895
 11
23.6413887791
 21
29.5216750895
  0
LINE
  5
229
100
AcDbEntity
  8
0
100
AcDbLine
 62
7
  6
BYLAYER
 10
23.6413887791
 20
32.3716750895
 11
20.9833885598
 21
32.4180706559
  0
LINE
  5
22A
100
AcDbEntity
  8
0
100
AcDbLine
 62
7
  6
BYLAYER
 10
43.1413887791
 20
14.9193098947
 11
42.5428606417
 21
15.5178380321
  0
LINE
  5
22B
100
AcDbEntity
  8
0
100
AcDbLine
 62
7
  6
BYLAYER
 10
19.8913887791
 20
85.0324011934
 11
19.8913887791
 21
74.5324011934
  0
LINE
  5
22C
100
AcDbEntity
  8
0
100
AcDbLine
 62
7
  6
BYLAYER
 10
20.2413887791
 20
32.4318950635
 11
20.2413887791
 21
32.6324011934
  0
LINE
  5
22D
100
AcDbEntity
  8
0
100
AcDbLine
 62
7
  6
BYLAYER
 10
18.7008555805
 20
36.0523422647
 11
18.6411602871
 21
32.6324011934
  0
LINE
  5
22E
100
AcDbEntity
  8
0
100
AcDbLine
 62
7
  6
BYLAYER
 10
19.8326093503
 20
72.2324011934
 11
19.2097062587
 21
36.5463069767
  0
LINE
  5
22F
100
AcDbEntity
  8
0
100
AcDbLine
 62
7
  6
BYLAYER
 10
23.6413887791
 20
32.3716750895
 11
49.6413887791
 21
32.3716750895
  0
LINE
  5
230
100
AcDbEntity
  8
0
100
AcDbLine
 62
7
  6
BYLAYER
 10
53.0413887791
 20
32.4318950635
 11
20.2413887791
 21
32.4318950635
  0
LINE
  5
231
100
AcDbEntity
  8
0
100
AcDbLine
 62
7
  6
BYLAYER
 10
54.6415375785
 20
32.6324011934
 11
18.6418456806
 21
32.6324011934
  0
LINE
  5
232
100
AcDbEntity
  8
0
100
AcDbLine
 62
7
  6
BYLAYER
 10
23.2413887791
 20
72.2324011934
 11
23.2413887791
 21
74.5324011934
  0
LINE
  5
233
100
AcDbEntity
  8
0
100
AcDbLine
 62
7
  6
BYLAYER
 10
23.6413887791
 20
29.5216750895
 11
23.6413887791
 21
32.3716750895
  0
LINE
  5
234
100
AcDbEntity
  8
0
100
AcDbLine
 62
7
  6
BYLAYER
 10
19.2097062587
 20
36.5463069767
 11
19.1572015567
 21
36.5417134105
  0
LINE
  5
235
100
AcDbEntity
  8
0
100
AcDbLine
 62
7
  6
BYLAYER
 10
18.7008555805
 20
36.0523422647
 11
54.5819219778
 21
36.0523422647
  0
LINE
  5
236
100
AcDbEntity
  8
0
100
AcDbLine
 62
7
  6
BYLAYER
 10
54.1255760016
 20
36.5417134105
 11
19.157867301
 21
36.5417134105
  0
LINE
  5
237
100
AcDbEntity
  8
0
100
AcDbLine
 62
7
  6
BYLAYER
 10
19.2097062587
 20
36.5463069767
 11
54.0730712996
 21
36.5463069767
  0
LINE
  5
238
100
AcDbEntity
  8
0
100
AcDbLine
 62
7
  6
BYLAYER
 10
54.0730712996
 20
36.5463069767
 11
54.1255760016
 21
36.5417134105
  0
LINE
  5
239
100
AcDbEntity
  8
0
100
AcDbLine
 62
7
  6
BYLAYER
 10
24.3795377524
 20
85.0324011934
 11
24.3795377524
 21
74.5324011934
  0
LINE
  5
23A
100
AcDbEntity
  8
0
100
AcDbLine
 62
7
  6
BYLAYER
 10
25.6717336645
 20
29.5216750895
 11
25.6717336645
 21
27.4718077218
  0
LINE
  5
23B
100
AcDbEntity
  8
0
100
AcDbLine
 62
7
  6
BYLAYER
 10
25.6717336645
 20
24.1668120676
 11
25.6717336645
 21
22.2255506977
  0
LINE
  5
23C
100
AcDbEntity
  8
0
100
AcDbLine
 62
7
  6
BYLAYER
 10
27.2413887791
 20
21.3193098947
 11
27.2413887791
 21
18.8193098947
  0
LINE
  5
23D
100
AcDbEntity
  8
0
100
AcDbLine
 62
7
  6
BYLAYER
 10
52.1226538908
 20
40.3867670899
 11
54.0060125042
 21
40.3867670899
  0
LINE
  5
23E
100
AcDbEntity
  8
0
100
AcDbLine
 62
7
  6
BYLAYER
 10
47.6110438938
 20
24.1668120676
 11
46.0999674229
 21
25.6778885385
  0
LINE
  5
23F
100
AcDbEntity
  8
0
100
AcDbLine
 62
7
  6
BYLAYER
 10
30.1413887791
 20
14.9193098947
 11
30.1413887791
 21
7.8193098947
  0
LINE
  5
240
100
AcDbEntity
  8
0
100
AcDbLine
 62
7
  6
BYLAYER
 10
30.6413887791
 20
92.628256005
 11
30.6413887791
 21
85.5324011934
  0
LINE
  5
241
100
AcDbEntity
  8
0
100
AcDbLine
 62
7
  6
BYLAYER
 10
31.0913887791
 20
18.8193098947
 11
31.0913887791
 21
16.3663661696
  0
LINE
  5
242
100
AcDbEntity
  8
0
100
AcDbLine
 62
7
  6
BYLAYER
 10
31.1565612218
 20
29.5216750895
 11
31.1565612218
 21
27.4718077218
  0
LINE
  5
243
100
AcDbEntity
  8
0
100
AcDbLine
 62
7
  6
BYLAYER
 10
31.1565612218
 20
24.1668120676
 11
31.1565612218
 21
22.2255506977
  0
LINE
  5
244
100
AcDbEntity
  8
0
100
AcDbLine
 62
7
  6
BYLAYER
 10
31.3413887791
 20
95.0324011934
 11
31.3413887791
 21
93.0324011934
  0
LINE
  5
245
100
AcDbEntity
  8
0
100
AcDbLine
 62
7
  6
BYLAYER
 10
32.1532398059
 20
85.0324011934
 11
32.1532398059
 21
74.5324011934
  0
LINE
  5
246
100
AcDbEntity
  8
0
100
AcDbLine
 62
7
  6
BYLAYER
 10
34.7413887791
 20
74.5324011934
 11
34.7413887791
 21
85.0324011934
  0
LINE
  5
247
100
AcDbEntity
  8
0
100
AcDbLine
 62
7
  6
BYLAYER
 10
38.5413887791
 20
74.5324011934
 11
38.5413887791
 21
85.0324011934
  0
LINE
  5
248
100
AcDbEntity
  8
0
100
AcDbLine
 62
7
  6
BYLAYER
 10
41.1295377524
 20
85.0324011934
 11
41.1295377524
 21
74.5324011934
  0
LINE
  5
249
100
AcDbEntity
  8
0
100
AcDbLine
 62
7
  6
BYLAYER
 10
41.9413887791
 20
95.0324011934
 11
41.9413887791
 21
93.0324011934
  0
LINE
  5
24A
100
AcDbEntity
  8
0
100
AcDbLine
 62
7
  6
BYLAYER
 10
42.1262163364
 20
29.5216750895
 11
42.1262163364
 21
27.4718077218
  0
LINE
  5
24B
100
AcDbEntity
  8
0
100
AcDbLine
 62
7
  6
BYLAYER
 10
42.1262163364
 20
24.1668120676
 11
42.1262163364
 21
22.2255506977
  0
LINE
  5
24C
100
AcDbEntity
  8
0
100
AcDbLine
 62
7
  6
BYLAYER
 10
42.1913887791
 20
16.3663661696
 11
42.1913887791
 21
18.8193098947
  0
LINE
  5
24D
100
AcDbEntity
  8
0
100
AcDbLine
 62
7
  6
BYLAYER
 10
42.6413887791
 20
92.628256005
 11
42.6413887791
 21
85.5324011934
  0
LINE
  5
24E
100
AcDbEntity
  8
0
100
AcDbLine
 62
7
  6
BYLAYER
 10
43.1413887791
 20
7.8193098947
 11
43.1413887791
 21
14.9193098947
  0
LINE
  5
24F
100
AcDbEntity
  8
0
100
AcDbLine
 62
7
  6
BYLAYER
 10
46.0413887791
 20
18.8193098947
 11
46.0413887791
 21
21.3193098947
  0
LINE
  5
250
100
AcDbEntity
  8
0
100
AcDbLine
 62
7
  6
BYLAYER
 10
47.6110438937
 20
29.5216750895
 11
47.6110438937
 21
27.4718077218
  0
LINE
  5
251
100
AcDbEntity
  8
0
100
AcDbLine
 62
7
  6
BYLAYER
 10
47.6110438937
 20
24.1668120676
 11
47.6110438937
 21
22.2255506977
  0
LINE
  5
252
100
AcDbEntity
  8
0
100
AcDbLine
 62
7
  6
BYLAYER
 10
48.9032398059
 20
85.0324011934
 11
48.9032398059
 21
74.5324011934
  0
LINE
  5
253
100
AcDbEntity
  8
0
100
AcDbLine
 62
7
  6
BYLAYER
 10
49.6413887791
 20
32.3716750895
 11
49.6413887791
 21
29.5216750895
  0
LINE
  5
254
100
AcDbEntity
  8
0
100
AcDbLine
 62
7
  6
BYLAYER
 10
27.1828101354
 20
25.6778885385
 11
25.6717336645
 21
24.1668120677
  0
LINE
  5
255
100
AcDbEntity
  8
0
100
AcDbLine
 62
7
  6
BYLAYER
 10
50.0413887791
 20
72.2324011934
 11
50.0413887791
 21
74.5324011934
  0
LINE
  5
256
100
AcDbEntity
  8
0
100
AcDbLine
 62
7
  6
BYLAYER
 10
53.5696344334
 20
65.3867670899
 11
51.6292904291
 21
65.3867670899
  0
LINE
  5
257
100
AcDbEntity
  8
0
100
AcDbLine
 62
7
  6
BYLAYER
 10
53.3696668111
 20
65.3867670899
 11
53.8060434343
 21
40.3867670899
  0
LINE
  5
258
100
AcDbEntity
  8
0
100
AcDbLine
 62
7
  6
BYLAYER
 10
53.450168208
 20
72.2324011934
 11
53.5696591957
 21
65.3867670899
  0
LINE
  5
259
100
AcDbEntity
  8
0
100
AcDbLine
 62
7
  6
BYLAYER
 10
54.0060358189
 20
40.3867670899
 11
54.0730712996
 21
36.5463069767
  0
LINE
  5
25A
100
AcDbEntity
  8
0
100
AcDbLine
 62
7
  6
BYLAYER
 10
54.5819219778
 20
36.0523422647
 11
54.6416172712
 21
32.6324011934
  0
LINE
  5
25B
100
AcDbEntity
  8
0
100
AcDbLine
 62
7
  6
BYLAYER
 10
53.0413887791
 20
32.6324011934
 11
53.0413887791
 21
32.4318950635
  0
LINE
  5
25C
100
AcDbEntity
  8
0
100
AcDbLine
 62
7
  6
BYLAYER
 10
53.3913887791
 20
85.0324011934
 11
53.3913887791
 21
74.5324011934
  0
LINE
  5
25D
100
AcDbEntity
  8
0
100
AcDbLine
 62
7
  6
BYLAYER
 10
30.7399169166
 20
15.5178380321
 11
30.1413887791
 21
14.9193098947
  0
LINE
  5
25E
100
AcDbEntity
  8
0
100
AcDbLine
 62
7
  6
BYLAYER
 10
19.832873881
 20
72.2324011934
 11
53.4499036773
 21
72.2324011934
  0
LINE
  5
25F
100
AcDbEntity
  8
0
100
AcDbLine
 62
7
  6
BYLAYER
 10
46.0999674229
 20
25.960731251
 11
47.6110438938
 21
27.4718077218
  0
LINE
  5
260
100
AcDbEntity
  8
0
100
AcDbLine
 62
7
  6
BYLAYER
 10
53.3913887791
 20
74.5324011934
 11
19.8913887791
 21
74.5324011934
  0
LINE
  5
261
100
AcDbEntity
  8
0
100
AcDbLine
 62
7
  6
BYLAYER
 10
42.6413887791
 20
85.5324011934
 11
43.1413887791
 21
85.0324011934
  0
LINE
  5
262
100
AcDbEntity
  8
0
100
AcDbLine
 62
7
  6
BYLAYER
 10
46.0413887791
 20
21.3193098947
 11
47.6110438938
 21
22.2255506977
  0
LINE
  5
263
100
AcDbEntity
  8
0
100
AcDbLine
 62
7
  6
BYLAYER
 10
42.1413887791
 20
6.8193098947
 11
43.1413887791
 21
7.8193098947
  0
LINE
  5
264
100
AcDbEntity
  8
0
100
AcDbLine
 62
7
  6
BYLAYER
 10
19.8913887791
 20
85.0324011934
 11
53.3913887791
 21
85.0324011934
  0
LINE
  5
265
100
AcDbEntity
  8
0
100
AcDbLine
 62
7
  6
BYLAYER
 10
42.6413887791
 20
85.5324011934
 11
30.6413887791
 21
85.5324011934
  0
LINE
  5
266
100
AcDbEntity
  8
0
100
AcDbLine
 62
7
  6
BYLAYER
 10
30.6413887791
 20
92.628256005
 11
42.6413887791
 21
92.628256005
  0
LINE
  5
267
100
AcDbEntity
  8
0
100
AcDbLine
 62
7
  6
BYLAYER
 10
41.9413887791
 20
93.0324011934
 11
42.6413887791
 21
92.628256005
  0
LINE
  5
268
100
AcDbEntity
  8
0
100
AcDbLine
 62
7
  6
BYLAYER
 10
41.9413887791
 20
93.0324011934
 11
31.3413887791
 21
93.0324011934
  0
LINE
  5
269
100
AcDbEntity
  8
0
100
AcDbLine
 62
7
  6
BYLAYER
 10
31.3416222834
 20
95.0324011934
 11
41.9411552749
 21
95.0324011934
  0
ARC
  5
26A
100
AcDbEntity
  8
0
100
AcDbCircle
 62
7
  6
BYLAYER
 10
29.8913887791
 20
16.3663661696
 40
1.2
100
AcDbArc
 50
315.0
 51
360.0
  0
ARC
  5
26B
100
AcDbEntity
  8
0
100
AcDbCircle
 62
7
  6
BYLAYER
 10
43.3913887791
 20
16.3663661696
 40
1.2
100
AcDbArc
 50
180.0
 51
225.0
  0
ARC
  5
26C
100
AcDbEntity
  8
0
100
AcDbCircle
 62
7
  6
BYLAYER
 10
19.2007794281
 20
36.0436160614
 40
0.5
100
AcDbArc
 50
95.0
 51
179.0
  0
ARC
  5
26D
100
AcDbEntity
  8
0
100
AcDbCircle
 62
7
  6
BYLAYER
 10
54.0819981302
 20
36.0436160614
 40
0.5
100
AcDbArc
 50
1.0
 51
85.0
  0
ARC
  5
26E
100
AcDbEntity
  8
0
100
AcDbCircle
 62
7
  6
BYLAYER
 10
27.0413887791
 20
25.8193098947
 40
0.2
100
AcDbArc
 50
315.0
 51
45.0
  0
ARC
  5
26F
100
AcDbEntity
  8
0
100
AcDbCircle
 62
7
  6
BYLAYER
 10
46.2413887792
 20
25.8193098947
 40
0.2
100
AcDbArc
 50
135.0
 51
225.0
  0
SPLINE
  5
270
100
AcDbEntity
  8
0
100
AcDbSpline
 62
7
  6
BYLAYER
 70
0
 71
3
 72
14
 73
10
 74
0
 42
0.0000001
 43
0.0000001
 44
0.0000000001
 40
0.0
 40
0.0
 40
0.0
 40
0.0
 40
0.0792575747
 40
0.1690124917
 40
0.2726063727
 40
0.3913317731
 40
0.5253060221
 40
0.6736113356
 40
1.0
 40
1.0
 40
1.0
 40
1.0
 10
52.1226538908
 20
40.3867670899
 30
0.0
 10
52.0556708692
 20
40.3867670899
 30
0.0
 10
51.9123525712
 20
40.4151279538
 30
0.0
 10
51.707570151
 20
40.5255577065
 30
0.0
 10
51.5071508192
 20
40.6996143532
 30
0.0
 10
51.3173328142
 20
40.9350278337
 30
0.0
 10
51.1466810744
 20
41.2293411426
 30
0.0
 10
50.9543186558
 20
41.7076964893
 30
0.0
 10
50.8874460939
 20
42.1109889328
 30
0.0
 10
50.8815523013
 20
42.3867670899
 30
0.0
  0
SPLINE
  5
271
100
AcDbEntity
  8
0
100
AcDbSpline
 62
7
  6
BYLAYER
 70
0
 71
3
 72
15
 73
11
 74
0
 42
0.0000001
 43
0.0000001
 44
0.0000000001
 40
0.0
 40
0.0
 40
0.0
 40
0.0
 40
0.1669917917
 40
0.3269213161
 40
0.47464057
 40
0.6078355286
 40
0.7258089394
 40
0.8290443342
 40
0.91930388
 40
1.0
 40
1.0
 40
1.0
 40
1.0
 10
50.4303035484
 20
63.3867670899
 30
0.0
 10
50.4272586078
 20
63.5276816956
 30
0.0
 10
50.4428990048
 20
63.8044638711
 30
0.0
 10
50.5252506869
 20
64.1979886671
 30
0.0
 10
50.6559727722
 20
64.5479215274
 30
0.0
 10
50.8214157316
 20
64.842735912
 30
0.0
 10
51.0090146992
 20
65.0775677249
 30
0.0
 10
51.2093556837
 20
65.2506145563
 30
0.0
 10
51.4163269663
 20
65.359401772
 30
0.0
 10
51.5611797977
 20
65.3867670899
 30
0.0
 10
51.6292904291
 20
65.3867670899
 30
0.0
  0
SPLINE
  5
272
100
AcDbEntity
  8
0
100
AcDbSpline
 62
7
  6
BYLAYER
 70
0
 71
3
 72
9
 73
5
 74
0
 42
0.0000001
 43
0.0000001
 44
0.0000000001
 40
0.0
 40
0.0
 40
0.0
 40
0.0
 40
0.5
 40
1.0
 40
1.0
 40
1.0
 40
1.0
 10
50.8815523013
 20
42.3867670899
 30
0.0
 10
50.8067518684
 20
45.8867758292
 30
0.0
 10
50.65628675
 20
52.8867747998
 30
0.0
 10
50.5059327903
 20
59.8867761621
 30
0.0
 10
50.4303035484
 20
63.3867670899
 30
0.0
  0
SPLINE
  5
273
100
AcDbEntity
  8
0
100
AcDbSpline
 62
7
  6
BYLAYER
 70
0
 71
3
 72
19
 73
15
 74
0
 42
0.0000001
 43
0.0000001
 44
0.0000000001
 40
0.0
 40
0.0
 40
0.0
 40
0.0
 40
0.1379132369
 40
0.2668121499
 40
0.3277688772
 40
0.3865907842
 40
0.4437517035
 40
0.5
 40
0.5562482965
 40
0.6134092158
 40
0.6722311228
 40
0.7331878501
 40
0.8620867631
 40
1.0
 40
1.0
 40
1.0
 40
1.0
 10
31.1565612218
 20
27.4718077218
 30
0.0
 10
30.9491351746
 20
27.2643816745
 30
0.0
 10
30.5309841122
 20
26.879296293
 30
0.0
 10
29.9595294106
 20
26.4740759678
 30
0.0
 10
29.4873736039
 20
26.2335675947
 30
0.0
 10
29.1337959828
 20
26.1017977631
 30
0.0
 10
28.7753270508
 20
26.0206021027
 30
0.0
 10
28.4141474432
 20
25.9929052262
 30
0.0
 10
28.0529678355
 20
26.0206021027
 30
0.0
 10
27.6944989036
 20
26.1017977631
 30
0.0
 10
27.3409212825
 20
26.2335675947
 30
0.0
 10
26.8687654758
 20
26.4740759678
 30
0.0
 10
26.2973107742
 20
26.879296293
 30
0.0
 10
25.8791597118
 20
27.2643816745
 30
0.0
 10
25.6717336645
 20
27.4718077218
 30
0.0
  0
SPLINE
  5
274
100
AcDbEntity
  8
0
100
AcDbSpline
 62
7
  6
BYLAYER
 70
0
 71
3
 72
15
 73
11
 74
0
 42
0.0000001
 43
0.0000001
 44
0.0000000001
 40
0.0
 40
0.0
 40
0.0
 40
0.0
 40
0.1250147044
 40
0.2500256211
 40
0.3750192854
 40
0.5
 40
0.6249807146
 40
0.7499743789
 40
0.8749852956
 40
1.0
 40
1.0
 40
1.0
 40
1.0
 10
42.1262163364
 20
27.4718077218
 30
0.0
 10
41.6992554578
 20
27.2583272825
 30
0.0
 10
40.8300553401
 20
26.8606424376
 30
0.0
 10
39.4761406684
 20
26.3865643406
 30
0.0
 10
38.0743599895
 20
26.0750421658
 30
0.0
 10
36.6413887791
 20
25.9656125907
 30
0.0
 10
35.2084175687
 20
26.0750421658
 30
0.0
 10
33.8066368899
 20
26.3865643406
 30
0.0
 10
32.4527222182
 20
26.8606424376
 30
0.0
 10
31.5835221005
 20
27.2583272825
 30
0.0
 10
31.1565612218
 20
27.4718077218
 30
0.0
  0
SPLINE
  5
275
100
AcDbEntity
  8
0
100
AcDbSpline
 62
7
  6
BYLAYER
 70
0
 71
3
 72
19
 73
15
 74
0
 42
0.0000001
 43
0.0000001
 44
0.0000000001
 40
0.0
 40
0.0
 40
0.0
 40
0.0
 40
0.1379132369
 40
0.2668121499
 40
0.3277688772
 40
0.3865907842
 40
0.4437517035
 40
0.5
 40
0.5562482965
 40
0.6134092158
 40
0.6722311228
 40
0.7331878501
 40
0.8620867631
 40
1.0
 40
1.0
 40
1.0
 40
1.0
 10
47.6110438937
 20
27.4718077218
 30
0.0
 10
47.4036178465
 20
27.2643816745
 30
0.0
 10
46.9854667841
 20
26.879296293
 30
0.0
 10
46.4140120825
 20
26.4740759678
 30
0.0
 10
45.9418562758
 20
26.2335675947
 30
0.0
 10
45.5882786547
 20
26.1017977631
 30
0.0
 10
45.2298097228
 20
26.0206021027
 30
0.0
 10
44.8686301151
 20
25.9929052262
 30
0.0
 10
44.5074505074
 20
26.0206021027
 30
0.0
 10
44.1489815755
 20
26.1017977631
 30
0.0
 10
43.7954039544
 20
26.2335675947
 30
0.0
 10
43.3232481477
 20
26.4740759678
 30
0.0
 10
42.7517934461
 20
26.879296293
 30
0.0
 10
42.3336423837
 20
27.2643816745
 30
0.0
 10
42.1262163364
 20
27.4718077218
 30
0.0
  0
SPLINE
  5
276
100
AcDbEntity
  8
0
100
AcDbSpline
 62
7
  6
BYLAYER
 70
0
 71
3
 72
19
 73
15
 74
0
 42
0.0000001
 43
0.0000001
 44
0.0000000001
 40
0.0
 40
0.0
 40
0.0
 40
0.0
 40
0.1379132369
 40
0.2668121499
 40
0.3277688772
 40
0.3865907842
 40
0.4437517035
 40
0.5
 40
0.5562482965
 40
0.6134092158
 40
0.6722311228
 40
0.7331878501
 40
0.8620867631
 40
1.0
 40
1.0
 40
1.0
 40
1.0
 10
42.1262163364
 20
24.1668120676
 30
0.0
 10
42.3336423837
 20
24.3742381149
 30
0.0
 10
42.7517934461
 20
24.7593234964
 30
0.0
 10
43.3232481477
 20
25.1645438217
 30
0.0
 10
43.7954039544
 20
25.4050521947
 30
0.0
 10
44.1489815755
 20
25.5368220264
 30
0.0
 10
44.5074505074
 20
25.6180176868
 30
0.0
 10
44.8686301151
 20
25.6457145633
 30
0.0
 10
45.2298097228
 20
25.6180176868
 30
0.0
 10
45.5882786547
 20
25.5368220264
 30
0.0
 10
45.9418562758
 20
25.4050521947
 30
0.0
 10
46.4140120825
 20
25.1645438217
 30
0.0
 10
46.9854667841
 20
24.7593234964
 30
0.0
 10
47.4036178465
 20
24.3742381149
 30
0.0
 10
47.6110438937
 20
24.1668120676
 30
0.0
  0
SPLINE
  5
277
100
AcDbEntity
  8
0
100
AcDbSpline
 62
7
  6
BYLAYER
 70
0
 71
3
 72
15
 73
11
 74
0
 42
0.0000001
 43
0.0000001
 44
0.0000000001
 40
0.0
 40
0.0
 40
0.0
 40
0.0
 40
0.1250147044
 40
0.2500256211
 40
0.3750192854
 40
0.5
 40
0.6249807146
 40
0.7499743789
 40
0.8749852956
 40
1.0
 40
1.0
 40
1.0
 40
1.0
 10
31.1565612218
 20
24.1668120676
 30
0.0
 10
31.5835221005
 20
24.380292507
 30
0.0
 10
32.4527222182
 20
24.7779773518
 30
0.0
 10
33.8066368899
 20
25.2520554489
 30
0.0
 10
35.2084175687
 20
25.5635776237
 30
0.0
 10
36.6413887791
 20
25.6730071987
 30
0.0
 10
38.0743599895
 20
25.5635776237
 30
0.0
 10
39.4761406684
 20
25.2520554489
 30
0.0
 10
40.8300553401
 20
24.7779773518
 30
0.0
 10
41.6992554578
 20
24.380292507
 30
0.0
 10
42.1262163364
 20
24.1668120676
 30
0.0
  0
SPLINE
  5
278
100
AcDbEntity
  8
0
100
AcDbSpline
 62
7
  6
BYLAYER
 70
0
 71
3
 72
19
 73
15
 74
0
 42
0.0000001
 43
0.0000001
 44
0.0000000001
 40
0.0
 40
0.0
 40
0.0
 40
0.0
 40
0.1379132369
 40
0.2668121499
 40
0.3277688772
 40
0.3865907842
 40
0.4437517035
 40
0.5
 40
0.5562482965
 40
0.6134092158
 40
0.6722311228
 40
0.7331878501
 40
0.8620867631
 40
1.0
 40
1.0
 40
1.0
 40
1.0
 10
25.6717336645
 20
24.1668120676
 30
0.0
 10
25.8791597118
 20
24.3742381149
 30
0.0
 10
26.2973107742
 20
24.7593234964
 30
0.0
 10
26.8687654758
 20
25.1645438217
 30
0.0
 10
27.3409212825
 20
25.4050521947
 30
0.0
 10
27.6944989036
 20
25.5368220264
 30
0.0
 10
28.0529678355
 20
25.6180176868
 30
0.0
 10
28.4141474432
 20
25.6457145633
 30
0.0
 10
28.7753270508
 20
25.6180176868
 30
0.0
 10
29.1337959828
 20
25.5368220264
 30
0.0
 10
29.4873736039
 20
25.4050521947
 30
0.0
 10
29.9595294106
 20
25.1645438217
 30
0.0
 10
30.5309841122
 20
24.7593234964
 30
0.0
 10
30.9491351746
 20
24.3742381149
 30
0.0
 10
31.1565612218
 20
24.1668120676
 30
0.0
  0
SPLINE
  5
279
100
AcDbEntity
  8
0
100
AcDbSpline
 62
7
  6
BYLAYER
 70
0
 71
3
 72
15
 73
11
 74
0
 42
0.0000001
 43
0.0000001
 44
0.0000000001
 40
0.0
 40
0.0
 40
0.0
 40
0.0
 40
0.1308321166
 40
0.2572557787
 40
0.3797985916
 40
0.5
 40
0.6202014084
 40
0.7427442213
 40
0.8691678834
 40
1.0
 40
1.0
 40
1.0
 40
1.0
 10
31.1565612218
 20
22.2255506977
 30
0.0
 10
30.9373155168
 20
22.0989691309
 30
0.0
 10
30.4964281821
 20
21.8661823274
 30
0.0
 10
29.8125035137
 20
21.5925857308
 30
0.0
 10
29.1172003183
 20
21.4176735484
 30
0.0
 10
28.4141474432
 20
21.3569679286
 30
0.0
 10
27.7110945681
 20
21.4176735484
 30
0.0
 10
27.0157913726
 20
21.5925857308
 30
0.0
 10
26.3318667043
 20
21.8661823274
 30
0.0
 10
25.8909793696
 20
22.0989691309
 30
0.0
 10
25.6717336645
 20
22.2255506977
 30
0.0
  0
SPLINE
  5
27A
100
AcDbEntity
  8
0
100
AcDbSpline
 62
7
  6
BYLAYER
 70
0
 71
3
 72
15
 73
11
 74
0
 42
0.0000001
 43
0.0000001
 44
0.0000000001
 40
0.0
 40
0.0
 40
0.0
 40
0.0
 40
0.1250022065
 40
0.2500063241
 40
0.3750042929
 40
0.5
 40
0.6249957071
 40
0.7499936759
 40
0.8749977935
 40
1.0
 40
1.0
 40
1.0
 40
1.0
 10
42.1262163364
 20
22.2255506977
 30
0.0
 10
41.6804356902
 20
22.0968649096
 30
0.0
 10
40.7824778847
 20
21.8606951217
 30
0.0
 10
39.416267525
 20
21.5890842395
 30
0.0
 10
38.033663247
 20
21.4167087049
 30
0.0
 10
36.6413887791
 20
21.3572547201
 30
0.0
 10
35.2491143113
 20
21.4167087049
 30
0.0
 10
33.8665100333
 20
21.5890842395
 30
0.0
 10
32.5002996736
 20
21.8606951217
 30
0.0
 10
31.6023418681
 20
22.0968649096
 30
0.0
 10
31.1565612218
 20
22.2255506977
 30
0.0
  0
SPLINE
  5
27B
100
AcDbEntity
  8
0
100
AcDbSpline
 62
7
  6
BYLAYER
 70
0
 71
3
 72
15
 73
11
 74
0
 42
0.0000001
 43
0.0000001
 44
0.0000000001
 40
0.0
 40
0.0
 40
0.0
 40
0.0
 40
0.1308321166
 40
0.2572557787
 40
0.3797985916
 40
0.5
 40
0.6202014084
 40
0.7427442213
 40
0.8691678834
 40
1.0
 40
1.0
 40
1.0
 40
1.0
 10
47.6110438937
 20
22.2255506977
 30
0.0
 10
47.3917981887
 20
22.0989691309
 30
0.0
 10
46.950910854
 20
21.8661823274
 30
0.0
 10
46.2669861856
 20
21.5925857308
 30
0.0
 10
45.5716829902
 20
21.4176735484
 30
0.0
 10
44.8686301151
 20
21.3569679286
 30
0.0
 10
44.16557724
 20
21.4176735484
 30
0.0
 10
43.4702740446
 20
21.5925857308
 30
0.0
 10
42.7863493762
 20
21.8661823274
 30
0.0
 10
42.3454620415
 20
22.0989691309
 30
0.0
 10
42.1262163364
 20
22.2255506977
 30
0.0
  0
ENDSEC
  0
SECTION
  2
OBJECTS
  0
DICTIONARY
  5
C
100
AcDbDictionary
280
0
281
1
  3
ACAD_GROUP
350
D
  3
ACAD_MLINESTYLE
350
17
  3
ACAD_LAYOUT
350
1A
  3
ACAD_PLOTSETTINGS
350
19
  3
ACAD_PLOTSTYLENAME
350
E
  0
DICTIONARY
  5
D
102
{ACAD_REACTORS
330
C
102
}
100
AcDbDictionary
280
0
281
1
  0
ACDBDICTIONARYWDFLT
  5
E
102
{ACAD_REACTORS
330
C
102
}
100
AcDbDictionary
281
1
  3
Normal
350
F
100
AcDbDictionaryWithDefault
340
F
  0
DICTIONARY
  5
17
102
{ACAD_REACTORS
330
C
102
}
100
AcDbDictionary
280
0
281
1
  3
Standard
350
18
  0
DICTIONARY
  5
19
102
{ACAD_REACTORS
330
C
102
}
100
AcDbDictionary
281
1
  0
DICTIONARY
  5
1A
102
{ACAD_REACTORS
330
C
102
}
100
AcDbDictionary
281
1
  3
Model
350
27C
  3
Layout1
350
27D
  0
ACDBPLACEHOLDER
  5
F
102
{ACAD_REACTORS
330
E
102
}
  0
MLINESTYLE
  5
18
102
{ACAD_REACTORS
330
17
102
}
100
AcDbMlineStyle
  2
STANDARD
 70
0
  3

 62
256
 51
90.0
 52
90.0
 71
2
 49
0.5
 62
256
  6
BYLAYER
 49
-0.5
 62
256
  6
BYLAYER
  0
LAYOUT
  5
27C
102
{ACAD_REACTORS
330
1A
102
}
100
AcDbPlotSettings
  1

  2
none_device
  4

  6

 40
0.0
 41
0.0
 42
0.0
 43
0.0
 44
210.0
 45
297.0
 46
0.0
 47
0.0
 48
0.0
 49
0.0
140
0.0
141
0.0
142
1.0
143
1.0
 70
1024
 72
1
 73
0
 74
0
  7

 75
0
147
1.0
148
0.0
149
0.0
100
AcDbLayout
  1
Model
 70
0
 71
0
 10
0.0
 20
0.0
 11
210.0
 21
297.0
 12
0.0
 22
0.0
 32
0.0
 14
0.0
 24
0.0
 34
0.0
 15
0.0
 25
0.0
 35
0.0
146
0.0
 13
0.0
 23
0.0
 33
0.0
 16
1.0
 26
0.0
 36
0.0
 17
0.0
 27
1.0
 37
0.0
 76
0
330
212
345
0
346
0
  0
LAYOUT
  5
27D
102
{ACAD_REACTORS
330
1A
102
}
100
AcDbPlotSettings
  1

  2
none_device
  4

  6

 40
0.0
 41
0.0
 42
0.0
 43
0.0
 44
210.0
 45
297.0
 46
0.0
 47
0.0
 48
0.0
 49
0.0
140
0.0
141
0.0
142
1.0
143
1.0
 70
0
 72
1
 73
0
 74
0
  7

 75
0
147
1.0
148
0.0
149
0.0
100
AcDbLayout
  1
Layout1
 70
0
 71
1
 10
0.0
 20
0.0
 11
210.0
 21
297.0
 12
0.0
 22
0.0
 32
0.0
 14
0.0
 24
0.0
 34
0.0
 15
0.0
 25
0.0
 35
0.0
146
0.0
 13
0.0
 23
0.0
 33
0.0
 16
1.0
 26
0.0
 36
0.0
 17
0.0
 27
1.0
 37
0.0
 76
0
330
213
345
0
346
0
  0
ENDSEC
  0
EOF
