999
DXF file: C:\Users\sesa63760\Dev\_Creo\CAD\MCADID0002982_3D-CAD\drw0001_1.dxf
999
Pro/ENGINEER 2019471 by Parametric Technology Corporation
  0
SECTION
  2
HEADER
  9
$ACADVER
  1
AC1024
  9
$DWGCODEPAGE
  3
ANSI_1252
  9
$EXTMAX
 10
126.0271984076
 20
178.2384663193
 30
0.0
  9
$EXTMIN
 10
0.0
 20
0.0
 30
0.0
  9
$LIMMIN
 10
0.0
 20
0.0
  9
$LIMMAX
 10
126.0271984076
 20
178.2384663193
  9
$VIEWCTR
 10
63.0135992038
 20
89.1192331597
  9
$VIEWSIZE
 40
178.2384663193
  9
$CLAYER
  8
0
  9
$LTSCALE
 40
11.6185074341
  9
$CELTYPE
  6
BYLAYER
  9
$DIMSCALE
 40
1.0
  9
$DIMASZ
 40
1.5003237906
  9
$DIMEXO
 40
1.0
  9
$DIMDLI
 40
8.027332409
  9
$DIMEXE
 40
1.0
  9
$DIMCEN
 40
1.9012103074
  9
$DIMLFAC
 40
1.0
  9
$DIMBLK
  1
_FILLED
  9
$DIMALT
 70
0
  9
$DIMALTF
 40
0.0393700787
  9
$DIMTXT
 40
2.1004533068
  9
$DIMTOL
 70
1
  9
$DIMLIM
 70
0
  9
$DIMTFAC
 40
1.0
  9
$DIMTP
 40
0.01
  9
$DIMTM
 40
0.01
  9
$DIMGAP
 40
0.625
  9
$DIMDSEP
 70
46
  9
$AUNITS
 70
0
  9
$PDMODE
 70
3
  9
$PDSIZE
 40
0.3125
  9
$HANDSEED
  5
265
  9
$TILEMODE
 70
1
  9
$MEASUREMENT
 70
1
  9
$INSUNITS
 70
4
  0
ENDSEC
  0
SECTION
  2
CLASSES
  0
CLASS
  1
ACDBDICTIONARYWDFLT
  2
AcDbDictionaryWithDefault
  3
AutoCAD 2000
 90
0
 91
1
280
0
281
0
  0
CLASS
  1
ACDBPLACEHOLDER
  2
AcDbPlaceHolder
  3
AutoCAD 2000
 90
0
 91
1
280
0
281
0
  0
CLASS
  1
LAYOUT
  2
AcDbLayout
  3
AutoCAD 2000
 90
0
 91
0
280
0
281
0
  0
ENDSEC
  0
SECTION
  2
TABLES
  0
TABLE
  2
VPORT
  5
8
100
AcDbSymbolTable
 70
2
  0
VPORT
  5
1F4
100
AcDbSymbolTableRecord
100
AcDbViewportTableRecord
  2
*ACTIVE
 70
0
 10
0.0
 20
0.0
 11
1.0
 21
1.0
 12
63.0135992038
 22
89.1192331597
 13
0.0
 23
0.0
 14
1.0
 24
1.0
 15
0.0
 25
0.0
 16
0.0
 26
0.0
 36
1.0
 17
0.0
 27
0.0
 37
0.0
 40
178.2384663193
 41
0.7070707071
 42
50.0
 43
0.0
 44
0.0
 50
0.0
 51
0.0
 71
0
 72
100
 73
1
 74
1
 75
0
 76
0
 77
0
 78
0
  0
ENDTAB
  0
TABLE
  2
LTYPE
  5
5
100
AcDbSymbolTable
 70
6
  0
LTYPE
  5
14
100
AcDbSymbolTableRecord
100
AcDbLinetypeTableRecord
  2
BYBLOCK
 70
0
  3

 72
65
 73
0
 40
0.0
  0
LTYPE
  5
15
100
AcDbSymbolTableRecord
100
AcDbLinetypeTableRecord
  2
BYLAYER
 70
0
  3

 72
65
 73
0
 40
0.0
  0
LTYPE
  5
16
100
AcDbSymbolTableRecord
100
AcDbLinetypeTableRecord
  2
CONTINUOUS
 70
64
  3
Solid line
 72
65
 73
0
 40
0.0
  0
LTYPE
  5
1F5
100
AcDbSymbolTableRecord
100
AcDbLinetypeTableRecord
  2
CENTER
 70
64
  3
____ _ ____ _ ____ _ ____ _ ____ _ ____ _ ____
 72
65
 73
4
 40
0.6
 49
0.375
 74
0
 49
-0.075
 74
0
 49
0.075
 74
0
 49
-0.075
 74
0
  0
LTYPE
  5
1F6
100
AcDbSymbolTableRecord
100
AcDbLinetypeTableRecord
  2
HIDDEN
 70
64
  3
- - - - - - - - - - - - - - - - - - - -
 72
65
 73
2
 40
0.2
 49
0.1
 74
0
 49
-0.1
 74
0
  0
LTYPE
  5
1F7
100
AcDbSymbolTableRecord
100
AcDbLinetypeTableRecord
  2
PHANTOM
 70
64
  3
_____ _ _ _____ _ _ _____ _ _ _____
 72
65
 73
6
 40
0.8
 49
0.45
 74
0
 49
-0.05
 74
0
 49
0.1
 74
0
 49
-0.05
 74
0
 49
0.1
 74
0
 49
-0.05
 74
0
  0
LTYPE
  5
1F8
100
AcDbSymbolTableRecord
100
AcDbLinetypeTableRecord
  2
DOT
 70
64
  3
. . . . . . . . . . . . . . . . . . . .
 72
65
 73
2
 40
0.2
 49
0.1
 74
0
 49
-0.1
 74
0
  0
LTYPE
  5
1F9
100
AcDbSymbolTableRecord
100
AcDbLinetypeTableRecord
  2
DASHED
 70
64
  3
- - - - - - - - - - - - - - - - - - - -
 72
65
 73
2
 40
0.2
 49
0.1
 74
0
 49
-0.1
 74
0
  0
ENDTAB
  0
TABLE
  2
LAYER
  5
2
100
AcDbSymbolTable
 70
36
  0
LAYER
  5
10
100
AcDbSymbolTableRecord
100
AcDbLayerTableRecord
  2
0
 70
0
 62
7
  6
CONTINUOUS
370
-3
390
F
  0
LAYER
  5
1FA
100
AcDbSymbolTableRecord
100
AcDbLayerTableRecord
  2
DEFAULT_1
 70
0
 62
7
  6
CENTER
370
-3
390
F
  0
LAYER
  5
1FB
100
AcDbSymbolTableRecord
100
AcDbLayerTableRecord
  2
DEFAULT_2
 70
0
 62
7
  6
HIDDEN
370
-3
390
F
  0
LAYER
  5
1FC
100
AcDbSymbolTableRecord
100
AcDbLayerTableRecord
  2
DEFAULT_3
 70
0
 62
7
  6
PHANTOM
370
-3
390
F
  0
LAYER
  5
1FD
100
AcDbSymbolTableRecord
100
AcDbLayerTableRecord
  2
00_COMPONENTS
 70
0
 62
7
  6
CONTINUOUS
370
-3
390
F
  0
LAYER
  5
1FE
100
AcDbSymbolTableRecord
100
AcDbLayerTableRecord
  2
01_1_DEFAULT_DATUMS
 70
0
 62
7
  6
CONTINUOUS
370
-3
390
F
  0
LAYER
  5
1FF
100
AcDbSymbolTableRecord
100
AcDbLayerTableRecord
  2
01_PLANES
 70
0
 62
7
  6
CONTINUOUS
370
-3
390
F
  0
LAYER
  5
200
100
AcDbSymbolTableRecord
100
AcDbLayerTableRecord
  2
02_COORD_SYS
 70
0
 62
7
  6
CONTINUOUS
370
-3
390
F
  0
LAYER
  5
201
100
AcDbSymbolTableRecord
100
AcDbLayerTableRecord
  2
03_AXES
 70
0
 62
7
  6
CONTINUOUS
370
-3
390
F
  0
LAYER
  5
202
100
AcDbSymbolTableRecord
100
AcDbLayerTableRecord
  2
04_POINTS
 70
0
 62
7
  6
CONTINUOUS
370
-3
390
F
  0
LAYER
  5
203
100
AcDbSymbolTableRecord
100
AcDbLayerTableRecord
  2
05_CURVES
 70
0
 62
7
  6
CONTINUOUS
370
-3
390
F
  0
LAYER
  5
204
100
AcDbSymbolTableRecord
100
AcDbLayerTableRecord
  2
06_SURFS
 70
0
 62
7
  6
CONTINUOUS
370
-3
390
F
  0
LAYER
  5
205
100
AcDbSymbolTableRecord
100
AcDbLayerTableRecord
  2
07_COSMETICS
 70
0
 62
7
  6
CONTINUOUS
370
-3
390
F
  0
LAYER
  5
206
100
AcDbSymbolTableRecord
100
AcDbLayerTableRecord
  2
10_NOTES
 70
0
 62
7
  6
CONTINUOUS
370
-3
390
F
  0
LAYER
  5
207
100
AcDbSymbolTableRecord
100
AcDbLayerTableRecord
  2
11_NOTES_PUB
 70
0
 62
7
  6
CONTINUOUS
370
-3
390
F
  0
LAYER
  5
208
100
AcDbSymbolTableRecord
100
AcDbLayerTableRecord
  2
13_REF_GTOL
 70
0
 62
7
  6
CONTINUOUS
370
-3
390
F
  0
LAYER
  5
209
100
AcDbSymbolTableRecord
100
AcDbLayerTableRecord
  2
16_MISC
 70
0
 62
7
  6
CONTINUOUS
370
-3
390
F
  0
LAYER
  5
20A
100
AcDbSymbolTableRecord
100
AcDbLayerTableRecord
  2
17_NO_PRINT
 70
0
 62
7
  6
CONTINUOUS
370
-3
390
F
  0
LAYER
  5
20B
100
AcDbSymbolTableRecord
100
AcDbLayerTableRecord
  2
18_DATUM_CAMS_JOINTS
 70
0
 62
7
  6
CONTINUOUS
370
-3
390
F
  0
LAYER
  5
20C
100
AcDbSymbolTableRecord
100
AcDbLayerTableRecord
  2
19_DATUM_FUNCTIONAL
 70
0
 62
7
  6
CONTINUOUS
370
-3
390
F
  0
LAYER
  5
20D
100
AcDbSymbolTableRecord
100
AcDbLayerTableRecord
  2
20_DATUM_KINEMATIC_SCHEME
 70
0
 62
7
  6
CONTINUOUS
370
-3
390
F
  0
ENDTAB
  0
TABLE
  2
STYLE
  5
3
100
AcDbSymbolTable
 70
1
  0
STYLE
  5
11
100
AcDbSymbolTableRecord
100
AcDbTextStyleTableRecord
  2
STANDARD
 70
0
 40
0.0
 41
1.0
 50
0.0
 71
0
 42
0.2
  3
ARIAL.TTF
  4

  0
STYLE
  5
20E
100
AcDbSymbolTableRecord
100
AcDbTextStyleTableRecord
  2
TEXTSTYLE_1
 70
0
 40
0.0
 41
0.8
 50
0.0
 71
0
 42
0.2
  3
gdt
  4

  0
ENDTAB
  0
TABLE
  2
VIEW
  5
6
100
AcDbSymbolTable
 70
0
  0
ENDTAB
  0
TABLE
  2
UCS
  5
7
100
AcDbSymbolTable
 70
0
  0
ENDTAB
  0
TABLE
  2
APPID
  5
9
100
AcDbSymbolTable
 70
1
  0
APPID
  5
20F
100
AcDbSymbolTableRecord
100
AcDbRegAppTableRecord
  2
ACAD
 70
0
  0
ENDTAB
  0
TABLE
  2
BLOCK_RECORD
  5
1
100
AcDbSymbolTable
 70
0
  0
BLOCK_RECORD
  5
210
100
AcDbSymbolTableRecord
100
AcDbBlockTableRecord
  2
*Model_Space
  0
BLOCK_RECORD
  5
211
100
AcDbSymbolTableRecord
100
AcDbBlockTableRecord
  2
*Paper_Space
  0
BLOCK_RECORD
  5
212
100
AcDbSymbolTableRecord
100
AcDbBlockTableRecord
  2
_FILLED
  0
ENDTAB
  0
TABLE
  2
DIMSTYLE
  5
A
100
AcDbSymbolTable
 70
1
100
AcDbDimStyleTable
 71
0
  0
DIMSTYLE
105
213
100
AcDbSymbolTableRecord
100
AcDbDimStyleTableRecord
  2
STANDARD
 70
0
  3

  4

 40
1.0
 41
1.5003237906
 42
1.0
 43
0.38
 44
1.0
 45
0.0
 46
0.0
 47
0.01
 48
0.01
140
2.1004533068
141
0.09
142
0.0
143
25.4
144
1.0
145
0.0
146
1.0
147
0.625
 71
1
 72
0
 73
0
 74
0
 75
0
 76
0
 77
1
 78
8
 79
2
170
0
171
1
172
0
173
0
174
0
175
0
176
0
177
0
178
0
270
2
179
2
271
2
272
2
273
2
274
2
275
0
280
0
281
0
282
0
283
1
284
8
285
0
286
0
287
3
288
0
340
11
278
46
341
212
342
212
343
212
344
212
  0
ENDTAB
  0
ENDSEC
  0
SECTION
  2
BLOCKS
  0
BLOCK
  5
20
100
AcDbEntity
  8
0
100
AcDbBlockBegin
  2
*Model_Space
 70
0
 10
0.0
 20
0.0
 30
0.0
  3
*Model_Space
  1

  0
ENDBLK
  5
21
100
AcDbEntity
  8
0
100
AcDbBlockEnd
  0
BLOCK
  5
1C
100
AcDbEntity
  8
0
100
AcDbBlockBegin
  2
*Paper_Space
 70
0
 10
0.0
 20
0.0
 30
0.0
  3
*Paper_Space
  1

  0
ENDBLK
  5
1D
100
AcDbEntity
  8
0
100
AcDbBlockEnd
  0
BLOCK
  5
214
100
AcDbEntity
  8
0
100
AcDbBlockBegin
  2
_FILLED
 70
64
 10
0.0
 20
0.0
  3
_FILLED
  1

  0
SOLID
  5
215
100
AcDbEntity
  8
0
  6
BYBLOCK
 62
0
100
AcDbTrace
 10
0.0
 20
0.0
 11
-1.0
 21
0.25
 12
-1.0
 22
-0.25
 13
-1.0
 23
-0.25
  0
ENDBLK
  5
216
100
AcDbEntity
  8
0
  6
BYBLOCK
 62
0
100
AcDbBlockEnd
  0
ENDSEC
  0
SECTION
  2
ENTITIES
  0
LINE
  5
217
100
AcDbEntity
  8
0
100
AcDbLine
 62
7
  6
BYLAYER
 10
14.6102029081
 20
67.2905234662
 11
14.6102029081
 21
62.1057331174
  0
LINE
  5
218
100
AcDbEntity
  8
0
100
AcDbLine
 62
7
  6
BYLAYER
 10
17.7217029081
 20
67.8090025011
 11
17.7217029081
 21
68.6385689569
  0
LINE
  5
219
100
AcDbEntity
  8
0
100
AcDbLine
 62
7
  6
BYLAYER
 10
25.6036956557
 20
65.7313595271
 11
25.6036956557
 21
66.5609259829
  0
LINE
  5
21A
100
AcDbEntity
  8
0
100
AcDbLine
 62
7
  6
BYLAYER
 10
30.3582029081
 20
67.2905234662
 11
30.3582029081
 21
62.1057331174
  0
LINE
  5
21B
100
AcDbEntity
  8
0
100
AcDbLine
 62
7
  6
BYLAYER
 10
37.5709240173
 20
82.9483019367
 11
37.5709240173
 21
83.7778683926
  0
LINE
  5
21C
100
AcDbEntity
  8
0
100
AcDbLine
 62
7
  6
BYLAYER
 10
42.6896763623
 20
82.0669187821
 11
42.6896763623
 21
82.8964852379
  0
LINE
  5
21D
100
AcDbEntity
  8
0
100
AcDbLine
 62
7
  6
BYLAYER
 10
47.9880644882
 20
76.9340991412
 11
47.9880644882
 21
77.763665597
  0
LINE
  5
21E
100
AcDbEntity
  8
0
100
AcDbLine
 62
7
  6
BYLAYER
 10
48.7064879689
 20
77.3488929904
 11
48.7064879689
 21
76.5193265346
  0
LINE
  5
21F
100
AcDbEntity
  8
0
100
AcDbLine
 62
7
  6
BYLAYER
 10
74.9286204852
 20
115.7157642025
 11
52.4780736536
 21
102.754012317
  0
LINE
  5
220
100
AcDbEntity
  8
0
100
AcDbLine
 62
7
  6
BYLAYER
 10
48.7064879689
 20
76.5193265346
 11
47.9880644882
 21
76.9340991412
  0
LINE
  5
221
100
AcDbEntity
  8
0
100
AcDbLine
 62
7
  6
BYLAYER
 10
37.622154423
 20
82.9187247173
 11
37.5709240173
 21
82.9483019367
  0
LINE
  5
222
100
AcDbEntity
  8
0
100
AcDbLine
 62
7
  6
BYLAYER
 10
37.5709240173
 20
83.7778683926
 11
38.289347498
 21
83.363095786
  0
LINE
  5
223
100
AcDbEntity
  8
0
100
AcDbLine
 62
7
  6
BYLAYER
 10
47.9880644882
 20
77.763665597
 11
48.7064879689
 21
77.3488929904
  0
LINE
  5
224
100
AcDbEntity
  8
0
100
AcDbLine
 62
7
  6
BYLAYER
 10
52.4780736536
 20
92.3844638735
 11
52.4780736536
 21
102.754012317
  0
LINE
  5
225
100
AcDbEntity
  8
0
100
AcDbLine
 62
7
  6
BYLAYER
 10
38.289347498
 20
83.363095786
 11
18.8855422963
 21
70.4395658868
  0
LINE
  5
226
100
AcDbEntity
  8
0
100
AcDbLine
 62
7
  6
BYLAYER
 10
102.2284988921
 20
121.1077138226
 11
83.9090412457
 21
110.5310331532
  0
LINE
  5
227
100
AcDbEntity
  8
0
100
AcDbLine
 62
7
  6
BYLAYER
 10
54.0945264853
 20
93.3177177802
 11
37.5709240173
 21
83.7778683926
  0
LINE
  5
228
100
AcDbEntity
  8
0
100
AcDbLine
 62
7
  6
BYLAYER
 10
100.163076251
 20
116.0785700646
 11
87.2317498441
 21
108.6127098477
  0
LINE
  5
229
100
AcDbEntity
  8
0
100
AcDbLine
 62
7
  6
BYLAYER
 10
57.4172350838
 20
91.3993944747
 11
42.6896763623
 21
82.8964852379
  0
LINE
  5
22A
100
AcDbEntity
  8
0
100
AcDbLine
 62
7
  6
BYLAYER
 10
42.6896763623
 20
82.0669187821
 11
58.1356709793
 21
90.9846147006
  0
LINE
  5
22B
100
AcDbEntity
  8
0
100
AcDbLine
 62
7
  6
BYLAYER
 10
87.9501857396
 20
108.1979300737
 11
100.163076251
 21
115.2490036088
  0
LINE
  5
22C
100
AcDbEntity
  8
0
100
AcDbLine
 62
7
  6
BYLAYER
 10
89.2970901001
 20
107.4203120706
 11
66.8465432686
 21
94.4585601852
  0
LINE
  5
22D
100
AcDbEntity
  8
0
100
AcDbLine
 62
7
  6
BYLAYER
 10
47.179823117
 20
80.3041564467
 11
61.9073818385
 21
88.8070656835
  0
LINE
  5
22E
100
AcDbEntity
  8
0
100
AcDbLine
 62
7
  6
BYLAYER
 10
89.2970901001
 20
104.6204267284
 11
104.6532230057
 21
113.4862412734
  0
LINE
  5
22F
100
AcDbEntity
  8
0
100
AcDbLine
 62
7
  6
BYLAYER
 10
66.8465432686
 20
83.8815878737
 11
65.2300904369
 21
84.8148262385
  0
LINE
  5
230
100
AcDbEntity
  8
0
100
AcDbLine
 62
7
  6
BYLAYER
 10
65.2300904369
 20
85.2503480968
 11
64.5296149789
 21
85.654758642
  0
LINE
  5
231
100
AcDbEntity
  8
0
100
AcDbLine
 62
7
  6
BYLAYER
 10
60.4884704849
 20
87.9878617216
 11
56.7167596257
 21
90.1654107387
  0
LINE
  5
232
100
AcDbEntity
  8
0
100
AcDbLine
 62
7
  6
BYLAYER
 10
57.4351955212
 20
90.5801974204
 11
61.2069063804
 21
88.4026484033
  0
LINE
  5
233
100
AcDbEntity
  8
0
100
AcDbLine
 62
7
  6
BYLAYER
 10
54.0945264853
 20
93.3177177802
 11
65.2300904369
 21
86.888742378
  0
LINE
  5
234
100
AcDbEntity
  8
0
100
AcDbLine
 62
7
  6
BYLAYER
 10
65.2300904369
 20
84.8148262385
 11
65.2300904369
 21
86.888742378
  0
LINE
  5
235
100
AcDbEntity
  8
0
100
AcDbLine
 62
7
  6
BYLAYER
 10
66.8465432686
 20
94.4585601852
 11
66.8465432686
 21
83.8815878737
  0
LINE
  5
236
100
AcDbEntity
  8
0
100
AcDbLine
 62
7
  6
BYLAYER
 10
113.3640628437
 20
114.6787384204
 11
90.9314208255
 21
101.727323822
  0
LINE
  5
237
100
AcDbEntity
  8
0
100
AcDbLine
 62
7
  6
BYLAYER
 10
65.2300904369
 20
86.888742378
 11
48.7064879689
 21
77.3488929904
  0
LINE
  5
238
100
AcDbEntity
  8
0
100
AcDbLine
 62
7
  6
BYLAYER
 10
113.3640628437
 20
113.8491719646
 11
91.3251315778
 21
101.1250650182
  0
LINE
  5
239
100
AcDbEntity
  8
0
100
AcDbLine
 62
7
  6
BYLAYER
 10
65.2300904369
 20
86.0591759222
 11
48.7064879689
 21
76.5193265346
  0
LINE
  5
23A
100
AcDbEntity
  8
0
100
AcDbLine
 62
7
  6
BYLAYER
 10
25.6036956557
 20
66.5609259829
 11
47.9880644882
 21
77.763665597
  0
LINE
  5
23B
100
AcDbEntity
  8
0
100
AcDbLine
 62
7
  6
BYLAYER
 10
47.9880644882
 20
76.9340991412
 11
25.6036956557
 21
65.7313595271
  0
LINE
  5
23C
100
AcDbEntity
  8
0
100
AcDbLine
 62
7
  6
BYLAYER
 10
88.097956816
 20
96.1510239673
 11
66.8465432686
 21
83.8815878737
  0
LINE
  5
23D
100
AcDbEntity
  8
0
100
AcDbLine
 62
7
  6
BYLAYER
 10
52.4780736536
 20
102.754012317
 11
66.8465432686
 21
94.4585601852
  0
LINE
  5
23E
100
AcDbEntity
  8
0
100
AcDbLine
 62
7
  6
BYLAYER
 10
87.709646946
 20
96.2713944421
 11
84.835953023
 21
97.9304848685
  0
LINE
  5
23F
100
AcDbEntity
  8
0
100
AcDbLine
 62
7
  6
BYLAYER
 10
89.2970901001
 20
102.6872113936
 11
89.2970901001
 21
107.4203120706
  0
LINE
  5
240
100
AcDbEntity
  8
0
100
AcDbLine
 62
7
  6
BYLAYER
 10
90.8845930757
 20
101.7706868578
 11
88.0108991527
 21
103.4297772842
  0
LINE
  5
241
100
AcDbEntity
  8
0
100
AcDbLine
 62
7
  6
BYLAYER
 10
89.2970901001
 20
107.4203120706
 11
74.9286204852
 21
115.7157642025
  0
LINE
  5
242
100
AcDbEntity
  8
0
100
AcDbLine
 62
7
  6
BYLAYER
 10
100.163076251
 20
116.0785700646
 11
100.163076251
 21
115.2490036088
  0
LINE
  5
243
100
AcDbEntity
  8
0
100
AcDbLine
 62
7
  6
BYLAYER
 10
113.3640628437
 20
114.6787384204
 11
102.2284988921
 21
121.1077138226
  0
LINE
  5
244
100
AcDbEntity
  8
0
100
AcDbLine
 62
7
  6
BYLAYER
 10
113.3640628437
 20
113.8491719646
 11
113.3640628437
 21
114.6787384204
  0
ARC
  5
245
100
AcDbEntity
  8
0
100
AcDbCircle
 62
7
  6
BYLAYER
 10
23.2663834934
 20
70.406429331
 40
5.2267873322
100
AcDbArc
 50
292.4490519321
 51
296.562867289
  0
SPLINE
  5
246
100
AcDbEntity
  8
0
100
AcDbSpline
 62
7
  6
BYLAYER
 70
0
 71
3
 72
11
 73
7
 74
0
 42
0.0000001
 43
0.0000001
 44
0.0000000001
 40
0.0
 40
0.0
 40
0.0
 40
0.0
 40
0.2897026209
 40
0.5490908265
 40
0.782219764
 40
1.0
 40
1.0
 40
1.0
 40
1.0
 10
91.542174694
 20
100.3172158385
 30
0.0
 10
91.542174694
 20
100.4780873567
 30
0.0
 10
91.5177845123
 20
100.7840321371
 30
0.0
 10
91.3938873371
 20
101.2043869004
 30
0.0
 10
91.1852703232
 20
101.5454797243
 30
0.0
 10
90.9893148257
 20
101.7102040539
 30
0.0
 10
90.8845876598
 20
101.7706774892
 30
0.0
  0
SPLINE
  5
247
100
AcDbEntity
  8
0
100
AcDbSpline
 62
7
  6
BYLAYER
 70
0
 71
3
 72
9
 73
5
 74
0
 42
0.0000001
 43
0.0000001
 44
0.0000000001
 40
0.0
 40
0.0
 40
0.0
 40
0.0
 40
0.2378825145
 40
1.0
 40
1.0
 40
1.0
 40
1.0
 10
84.1783714047
 20
99.3839558878
 30
0.0
 10
84.1783714047
 20
99.4495779623
 30
0.0
 10
84.1875526435
 20
99.7254141103
 30
0.0
 10
84.2304943921
 20
99.9996741539
 30
0.0
 10
84.2778408135
 20
100.2045105652
 30
0.0
  0
SPLINE
  5
248
100
AcDbEntity
  8
0
100
AcDbSpline
 62
7
  6
BYLAYER
 70
0
 71
3
 72
17
 73
13
 74
0
 42
0.0000001
 43
0.0000001
 44
0.0000000001
 40
0.0
 40
0.0
 40
0.0
 40
0.0
 40
0.1418097261
 40
0.2893171538
 40
0.4361166303
 40
0.5759288964
 40
0.7034588091
 40
0.8154898977
 40
0.8657545463
 40
0.9126502026
 40
0.9570080163
 40
1.0
 40
1.0
 40
1.0
 40
1.0
 10
84.2778408135
 20
100.2045105652
 30
0.0
 10
84.3364088344
 20
100.4578953587
 30
0.0
 10
84.502017951
 20
100.964862046
 30
0.0
 10
84.8629635484
 20
101.6815753311
 30
0.0
 10
85.3222490481
 20
102.3354754982
 30
0.0
 10
85.851204163
 20
102.8853154502
 30
0.0
 10
86.4169724883
 20
103.2969071103
 30
0.0
 10
86.9108758283
 20
103.5110174808
 30
0.0
 10
87.2899304786
 20
103.579655742
 30
0.0
 10
87.5509901319
 20
103.5812172824
 30
0.0
 10
87.7942912128
 20
103.5337195633
 30
0.0
 10
87.942616609
 20
103.4691949107
 30
0.0
 10
88.0108918245
 20
103.4297646635
 30
0.0
  0
SPLINE
  5
249
100
AcDbEntity
  8
0
100
AcDbSpline
 62
7
  6
BYLAYER
 70
0
 71
3
 72
12
 73
8
 74
0
 42
0.0000001
 43
0.0000001
 44
0.0000000001
 40
0.0
 40
0.0
 40
0.0
 40
0.0
 40
0.108159078
 40
0.2183609506
 40
0.4513555336
 40
0.7104292963
 40
1.0
 40
1.0
 40
1.0
 40
1.0
 10
30.3581715477
 20
62.1057331185
 30
0.0
 10
30.3581566838
 20
61.9566737449
 30
0.0
 10
30.3322622678
 20
61.6551147879
 30
0.0
 10
30.1755985558
 20
61.0505655708
 30
0.0
 10
29.7735094635
 20
60.309227948
 30
0.0
 10
29.0244992931
 20
59.522573759
 30
0.0
 10
28.397591636
 20
59.0907803766
 30
0.0
 10
28.0519848839
 20
58.8912454163
 30
0.0
  0
SPLINE
  5
24A
100
AcDbEntity
  8
0
100
AcDbSpline
 62
7
  6
BYLAYER
 70
0
 71
3
 72
9
 73
5
 74
0
 42
0.0000001
 43
0.0000001
 44
0.0000000001
 40
0.0
 40
0.0
 40
0.0
 40
0.0
 40
0.2482370633
 40
1.0
 40
1.0
 40
1.0
 40
1.0
 10
30.3581755436
 20
67.2905234673
 30
0.0
 10
30.3581818527
 20
67.352692531
 30
0.0
 10
30.3493603817
 20
67.6030846942
 30
0.0
 10
30.3043145361
 20
67.8519820461
 30
0.0
 10
30.2524262955
 20
68.0329638862
 30
0.0
  0
SPLINE
  5
24B
100
AcDbEntity
  8
0
100
AcDbSpline
 62
7
  6
BYLAYER
 70
0
 71
3
 72
10
 73
6
 74
0
 42
0.0000001
 43
0.0000001
 44
0.0000000001
 40
0.0
 40
0.0
 40
0.0
 40
0.0
 40
0.5229097061
 40
0.7685378072
 40
1.0
 40
1.0
 40
1.0
 40
1.0
 10
20.6929185534
 20
71.7172820847
 30
0.0
 10
20.0041801203
 20
71.6243574186
 30
0.0
 10
18.9988175267
 20
71.4068450994
 30
0.0
 10
17.7520235398
 20
70.9420318196
 30
0.0
 10
17.1828344379
 20
70.6588241583
 30
0.0
 10
16.9164209323
 20
70.5050111673
 30
0.0
  0
SPLINE
  5
24C
100
AcDbEntity
  8
0
100
AcDbSpline
 62
7
  6
BYLAYER
 70
0
 71
3
 72
11
 73
7
 74
0
 42
0.0000001
 43
0.0000001
 44
0.0000000001
 40
0.0
 40
0.0
 40
0.0
 40
0.0
 40
0.2177827477
 40
0.4509152641
 40
0.7103063952
 40
1.0
 40
1.0
 40
1.0
 40
1.0
 10
105.5831350302
 20
114.7824057052
 30
0.0
 10
105.583118507
 20
114.6614758015
 30
0.0
 10
105.538455324
 20
114.4094167131
 30
0.0
 10
105.3473594478
 20
114.0582157993
 30
0.0
 10
105.0452820196
 20
113.7407564092
 30
0.0
 10
104.792532407
 20
113.5666711136
 30
0.0
 10
104.6532230057
 20
113.4862412734
 30
0.0
  0
SPLINE
  5
24D
100
AcDbEntity
  8
0
100
AcDbSpline
 62
7
  6
BYLAYER
 70
0
 71
3
 72
9
 73
5
 74
0
 42
0.0000001
 43
0.0000001
 44
0.0000000001
 40
0.0
 40
0.0
 40
0.0
 40
0.0
 40
0.245389201
 40
1.0
 40
1.0
 40
1.0
 40
1.0
 10
105.5011941235
 20
114.3665884694
 30
0.0
 10
105.4945313862
 20
114.3831980808
 30
0.0
 10
105.4658960032
 20
114.4502846021
 30
0.0
 10
105.4314359421
 20
114.5148492515
 30
0.0
 10
105.4027645012
 20
114.5618239947
 30
0.0
  0
SPLINE
  5
24E
100
AcDbEntity
  8
0
100
AcDbSpline
 62
7
  6
BYLAYER
 70
0
 71
3
 72
15
 73
11
 74
0
 42
0.0000001
 43
0.0000001
 44
0.0000000001
 40
0.0
 40
0.0
 40
0.0
 40
0.0
 40
0.0960054499
 40
0.2066983786
 40
0.3312477944
 40
0.4660970785
 40
0.606109221
 40
0.7454487628
 40
0.8783758239
 40
1.0
 40
1.0
 40
1.0
 40
1.0
 10
105.4027645012
 20
114.5618239947
 30
0.0
 10
105.3079703088
 20
114.7171329956
 30
0.0
 10
105.0396532999
 20
115.0129552005
 30
0.0
 10
104.506635891
 20
115.3535324382
 30
0.0
 10
103.8486478586
 20
115.6076878213
 30
0.0
 10
103.1042452758
 20
115.7607272752
 30
0.0
 10
102.3177270096
 20
115.8041461572
 30
0.0
 10
101.5365466266
 20
115.7351965405
 30
0.0
 10
100.8084136883
 20
115.5582021538
 30
0.0
 10
100.3627008553
 20
115.3642562398
 30
0.0
 10
100.163076251
 20
115.2490036088
 30
0.0
  0
SPLINE
  5
24F
100
AcDbEntity
  8
0
100
AcDbSpline
 62
7
  6
BYLAYER
 70
0
 71
3
 72
11
 73
7
 74
0
 42
0.0000001
 43
0.0000001
 44
0.0000000001
 40
0.0
 40
0.0
 40
0.0
 40
0.0
 40
0.2177830968
 40
0.450915839
 40
0.7103069095
 40
1.0
 40
1.0
 40
1.0
 40
1.0
 10
84.8359603512
 20
97.9304974892
 30
0.0
 10
84.7312355857
 20
97.9909780509
 30
0.0
 10
84.5352685672
 20
98.1556916609
 30
0.0
 10
84.3266570777
 20
98.4967973772
 30
0.0
 10
84.2027609072
 20
98.9171485706
 30
0.0
 10
84.1783714047
 20
99.2230897996
 30
0.0
 10
84.1783714047
 20
99.3839558878
 30
0.0
  0
SPLINE
  5
250
100
AcDbEntity
  8
0
100
AcDbSpline
 62
7
  6
BYLAYER
 70
0
 71
3
 72
11
 73
7
 74
0
 42
0.0000001
 43
0.0000001
 44
0.0000000001
 40
0.0
 40
0.0
 40
0.0
 40
0.0
 40
0.2127351915
 40
0.4439207838
 40
0.7052016069
 40
1.0
 40
1.0
 40
1.0
 40
1.0
 10
87.7096523619
 20
96.2714038107
 30
0.0
 10
87.827009696
 20
96.2036372376
 30
0.0
 10
88.1023490403
 20
96.1105438381
 30
0.0
 10
88.5585360168
 20
96.1243532233
 30
0.0
 10
89.0412591117
 20
96.2770239301
 30
0.0
 10
89.3508336487
 20
96.4542055976
 30
0.0
 10
89.5057484338
 20
96.5603565253
 30
0.0
  0
SPLINE
  5
251
100
AcDbEntity
  8
0
100
AcDbSpline
 62
7
  6
BYLAYER
 70
0
 71
3
 72
12
 73
8
 74
0
 42
0.0000001
 43
0.0000001
 44
0.0000000001
 40
0.0
 40
0.0
 40
0.0
 40
0.0
 40
0.242612408
 40
0.5052657174
 40
0.7649240191
 40
0.8867952896
 40
1.0
 40
1.0
 40
1.0
 40
1.0
 10
89.5057484338
 20
96.5603565253
 30
0.0
 10
89.8000874848
 20
96.7620439456
 30
0.0
 10
90.3501037153
 20
97.2759314692
 30
0.0
 10
90.9890758098
 20
98.2099914094
 30
0.0
 10
91.3570102502
 20
99.0925343946
 30
0.0
 10
91.5134969129
 20
99.8046706595
 30
0.0
 10
91.542174694
 20
100.1507257576
 30
0.0
 10
91.542174694
 20
100.3172158385
 30
0.0
  0
SPLINE
  5
252
100
AcDbEntity
  8
0
100
AcDbSpline
 62
7
  6
BYLAYER
 70
0
 71
3
 72
9
 73
5
 74
0
 42
0.0000001
 43
0.0000001
 44
0.0000000001
 40
0.0
 40
0.0
 40
0.0
 40
0.0
 40
0.5310151852
 40
1.0
 40
1.0
 40
1.0
 40
1.0
 10
60.116471137
 20
87.7740722857
 30
0.0
 10
59.9452314499
 20
87.8871441277
 30
0.0
 10
59.6411711354
 20
88.1310522332
 30
0.0
 10
59.4073542953
 20
88.4468501553
 30
0.0
 10
59.325954254
 20
88.6087735072
 30
0.0
  0
SPLINE
  5
253
100
AcDbEntity
  8
0
100
AcDbSpline
 62
7
  6
BYLAYER
 70
0
 71
3
 72
20
 73
16
 74
0
 42
0.0000001
 43
0.0000001
 44
0.0000000001
 40
0.0
 40
0.0
 40
0.0
 40
0.0
 40
0.0624053292
 40
0.1288055565
 40
0.2703015115
 40
0.4173615345
 40
0.5616174421
 40
0.6302552391
 40
0.6953819682
 40
0.7563647434
 40
0.8128341856
 40
0.864765577
 40
0.9125685024
 40
0.9571685002
 40
1.0
 40
1.0
 40
1.0
 40
1.0
 10
28.0519848839
 20
58.8912454163
 30
0.0
 10
27.7691532897
 20
58.727953494
 30
0.0
 10
27.1628094198
 20
58.4290500754
 30
0.0
 10
25.830853309
 20
57.9464779547
 30
0.0
 10
23.9977704789
 20
57.5797198905
 30
0.0
 10
21.7241812846
 20
57.5170302522
 30
0.0
 10
19.8478442748
 20
57.780183651
 30
0.0
 10
18.4478004992
 20
58.1835270025
 30
0.0
 10
17.5005637259
 20
58.5651191735
 30
0.0
 10
16.659094084
 20
59.0228134767
 30
0.0
 10
15.9409258263
 20
59.5476176673
 30
0.0
 10
15.3613160832
 20
60.1296097677
 30
0.0
 10
14.9336734441
 20
60.7585854125
 30
0.0
 10
14.6702196206
 20
61.4220884723
 30
0.0
 10
14.6102119169
 20
61.8815833745
 30
0.0
 10
14.6102342685
 20
62.1057331163
 30
0.0
  0
SPLINE
  5
254
100
AcDbEntity
  8
0
100
AcDbSpline
 62
7
  6
BYLAYER
 70
0
 71
3
 72
17
 73
13
 74
0
 42
0.0000001
 43
0.0000001
 44
0.0000000001
 40
0.0
 40
0.0
 40
0.0
 40
0.0
 40
0.1362551171
 40
0.2813907379
 40
0.4285224646
 40
0.5703775478
 40
0.7005321691
 40
0.8146950548
 40
0.8656047901
 40
0.9128024701
 40
0.9571718915
 40
1.0
 40
1.0
 40
1.0
 40
1.0
 10
25.2622936867
 20
65.5757307981
 30
0.0
 10
24.891568973
 20
65.4220579376
 30
0.0
 10
24.09148831
 20
65.1850380346
 30
0.0
 10
22.8335716334
 20
65.0332842337
 30
0.0
 10
21.5505001001
 20
65.0785431644
 30
0.0
 10
20.3334676292
 20
65.3183348107
 30
0.0
 10
19.2682998775
 20
65.7354169119
 30
0.0
 10
18.5388748367
 20
66.2295273228
 30
0.0
 10
18.1151795346
 20
66.6929994368
 30
0.0
 10
17.8907085086
 20
67.0507294444
 30
0.0
 10
17.7529418641
 20
67.4250747402
 30
0.0
 10
17.7217251513
 20
67.6828606142
 30
0.0
 10
17.7217137812
 20
67.8090025087
 30
0.0
  0
SPLINE
  5
255
100
AcDbEntity
  8
0
100
AcDbSpline
 62
7
  6
BYLAYER
 70
0
 71
3
 72
9
 73
5
 74
0
 42
0.0000001
 43
0.0000001
 44
0.0000000001
 40
0.0
 40
0.0
 40
0.0
 40
0.0
 40
0.2747197706
 40
1.0
 40
1.0
 40
1.0
 40
1.0
 10
42.6896763623
 20
82.0669187821
 30
0.0
 10
42.6085305051
 20
82.0200694793
 30
0.0
 10
42.3219503042
 20
81.8362714273
 30
0.0
 10
42.0683645689
 20
81.5902566588
 30
0.0
 10
41.9396476125
 20
81.3790104044
 30
0.0
  0
SPLINE
  5
256
100
AcDbEntity
  8
0
100
AcDbSpline
 62
7
  6
BYLAYER
 70
0
 71
3
 72
9
 73
5
 74
0
 42
0.0000001
 43
0.0000001
 44
0.0000000001
 40
0.0
 40
0.0
 40
0.0
 40
0.0
 40
0.2548250701
 40
1.0
 40
1.0
 40
1.0
 40
1.0
 10
41.9396476125
 20
81.3790104044
 30
0.0
 10
41.9304221807
 20
81.3638699133
 30
0.0
 10
41.8953284255
 20
81.3037893552
 30
0.0
 10
41.864819626
 20
81.2410033756
 30
0.0
 10
41.8451645376
 20
81.1930271369
 30
0.0
  0
SPLINE
  5
257
100
AcDbEntity
  8
0
100
AcDbSpline
 62
7
  6
BYLAYER
 70
0
 71
3
 72
12
 73
8
 74
0
 42
0.0000001
 43
0.0000001
 44
0.0000000001
 40
0.0
 40
0.0
 40
0.0
 40
0.0
 40
0.2895715302
 40
0.5486428628
 40
0.7816380623
 40
0.8918400184
 40
1.0
 40
1.0
 40
1.0
 40
1.0
 10
16.9164209323
 20
70.5050111673
 30
0.0
 10
16.5708130264
 20
70.3054755409
 30
0.0
 10
15.943904825
 20
69.8736849147
 30
0.0
 10
15.1949000626
 20
69.0870292321
 30
0.0
 10
14.792800131
 20
68.345697928
 30
0.0
 10
14.636146244
 20
67.7411438128
 30
0.0
 10
14.6102453997
 20
67.4395841562
 30
0.0
 10
14.6102302726
 20
67.2905234651
 30
0.0
  0
SPLINE
  5
258
100
AcDbEntity
  8
0
100
AcDbSpline
 62
7
  6
BYLAYER
 70
0
 71
3
 72
17
 73
13
 74
0
 42
0.0000001
 43
0.0000001
 44
0.0000000001
 40
0.0
 40
0.0
 40
0.0
 40
0.0
 40
0.1286926208
 40
0.2702795078
 40
0.4174383051
 40
0.5617803148
 40
0.6954501289
 40
0.8127134773
 40
0.8646759206
 40
0.9125113962
 40
0.9571388332
 40
1.0
 40
1.0
 40
1.0
 40
1.0
 10
47.179823117
 20
80.3041564467
 30
0.0
 10
46.9447912701
 20
80.1684615566
 30
0.0
 10
46.4126564155
 20
79.9488937846
 30
0.0
 10
45.5453694194
 20
79.7754082694
 30
0.0
 10
44.6280728825
 20
79.7500032214
 30
0.0
 10
43.7356113049
 20
79.8754231059
 30
0.0
 10
42.9403542491
 20
80.1410548286
 30
0.0
 10
42.3872350271
 20
80.4777152401
 30
0.0
 10
42.0626597644
 20
80.8034950986
 30
0.0
 10
41.8901861563
 20
81.0571044457
 30
0.0
 10
41.7839934195
 20
81.3246585416
 30
0.0
 10
41.7597519878
 20
81.5099338474
 30
0.0
 10
41.7597643378
 20
81.6003208061
 30
0.0
  0
SPLINE
  5
259
100
AcDbEntity
  8
0
100
AcDbSpline
 62
7
  6
BYLAYER
 70
0
 71
3
 72
11
 73
7
 74
0
 42
0.0000001
 43
0.0000001
 44
0.0000000001
 40
0.0
 40
0.0
 40
0.0
 40
0.0
 40
0.285491469
 40
0.5433613737
 40
0.7782377834
 40
1.0
 40
1.0
 40
1.0
 40
1.0
 10
18.8855422963
 20
70.4395658868
 30
0.0
 10
18.7090437315
 20
70.3220124248
 30
0.0
 10
18.3896273326
 20
70.0711541273
 30
0.0
 10
18.0124375554
 20
69.6268257598
 30
0.0
 10
17.7763290656
 20
69.1444554335
 30
0.0
 10
17.7216989564
 20
68.803293604
 30
0.0
 10
17.7217138051
 20
68.6385689653
 30
0.0
  0
SPLINE
  5
25A
100
AcDbEntity
  8
0
100
AcDbSpline
 62
7
  6
BYLAYER
 70
0
 71
3
 72
15
 73
11
 74
0
 42
0.0000001
 43
0.0000001
 44
0.0000000001
 40
0.0
 40
0.0
 40
0.0
 40
0.0
 40
0.1171554408
 40
0.2444697754
 40
0.3782792224
 40
0.5144821129
 40
0.64859575
 40
0.7763832824
 40
0.8942872521
 40
1.0
 40
1.0
 40
1.0
 40
1.0
 10
84.232246735
 20
100.2446127593
 30
0.0
 10
84.232246735
 20
100.3771342486
 30
0.0
 10
84.2599710852
 20
100.6539474083
 30
0.0
 10
84.3682925437
 20
101.0692941745
 30
0.0
 10
84.5404725172
 20
101.4858862257
 30
0.0
 10
84.7680107549
 20
101.8837670642
 30
0.0
 10
85.0402646047
 20
102.2440614575
 30
0.0
 10
85.3443846441
 20
102.5496826742
 30
0.0
 10
85.6659236183
 20
102.7861611731
 30
0.0
 10
85.8959976779
 20
102.8967263633
 30
0.0
 10
86.0094458741
 20
102.9345205394
 30
0.0
  0
SPLINE
  5
25B
100
AcDbEntity
  8
0
100
AcDbSpline
 62
7
  6
BYLAYER
 70
0
 71
3
 72
11
 73
7
 74
0
 42
0.0000001
 43
0.0000001
 44
0.0000000001
 40
0.0
 40
0.0
 40
0.0
 40
0.0
 40
0.2897026209
 40
0.5490908265
 40
0.782219764
 40
1.0
 40
1.0
 40
1.0
 40
1.0
 10
87.0520653277
 20
97.7248654614
 30
0.0
 10
87.0520653277
 20
97.5639939433
 30
0.0
 10
87.0764555094
 20
97.2580491628
 30
0.0
 10
87.2003526846
 20
96.8376943995
 30
0.0
 10
87.4089696985
 20
96.4966015757
 30
0.0
 10
87.604925196
 20
96.331877246
 30
0.0
 10
87.7096523619
 20
96.2714038107
 30
0.0
  0
SPLINE
  5
25C
100
AcDbEntity
  8
0
100
AcDbSpline
 62
7
  6
BYLAYER
 70
0
 71
3
 72
17
 73
13
 74
0
 42
0.0000001
 43
0.0000001
 44
0.0000000001
 40
0.0
 40
0.0
 40
0.0
 40
0.0
 40
0.0428590154
 40
0.087484945
 40
0.1353191404
 40
0.1872810096
 40
0.3045411455
 40
0.4382064078
 40
0.5825480614
 40
0.7297123844
 40
0.8713056989
 40
1.0
 40
1.0
 40
1.0
 40
1.0
 10
90.8845876598
 20
101.7706774892
 30
0.0
 10
90.8063173948
 20
101.8158737071
 30
0.0
 10
90.6337566384
 20
101.8875253974
 30
0.0
 10
90.3489608411
 20
101.9293250935
 30
0.0
 10
90.0430992722
 20
101.9067867848
 30
0.0
 10
89.5986896757
 20
101.7885834984
 30
0.0
 10
89.030581696
 20
101.477931244
 30
0.0
 10
88.4029133126
 20
100.9220563145
 30
0.0
 10
87.8480564641
 20
100.2118815727
 30
0.0
 10
87.4113910985
 20
99.4047614441
 30
0.0
 10
87.1279821791
 20
98.5669008443
 30
0.0
 10
87.0520653277
 20
97.9962591727
 30
0.0
 10
87.0520653277
 20
97.7248654614
 30
0.0
  0
SPLINE
  5
25D
100
AcDbEntity
  8
0
100
AcDbSpline
 62
7
  6
BYLAYER
 70
0
 71
3
 72
12
 73
8
 74
0
 42
0.0000001
 43
0.0000001
 44
0.0000000001
 40
0.0
 40
0.0
 40
0.0
 40
0.0
 40
0.2895715302
 40
0.5486428628
 40
0.7816380623
 40
0.8918400184
 40
1.0
 40
1.0
 40
1.0
 40
1.0
 10
28.0519848839
 20
64.0760357651
 30
0.0
 10
28.3975927898
 20
64.2755713915
 30
0.0
 10
29.0245009912
 20
64.7073620177
 30
0.0
 10
29.7735057536
 20
65.4940177003
 30
0.0
 10
30.1756056852
 20
66.2353490044
 30
0.0
 10
30.3322595722
 20
66.8399031196
 30
0.0
 10
30.3581604165
 20
67.1414627762
 30
0.0
 10
30.3581755436
 20
67.2905234673
 30
0.0
  0
SPLINE
  5
25E
100
AcDbEntity
  8
0
100
AcDbSpline
 62
7
  6
BYLAYER
 70
0
 71
3
 72
9
 73
5
 74
0
 42
0.0000001
 43
0.0000001
 44
0.0000000001
 40
0.0
 40
0.0
 40
0.0
 40
0.0
 40
0.492554433
 40
1.0
 40
1.0
 40
1.0
 40
1.0
 10
17.7217138051
 20
68.6385689653
 30
0.0
 10
17.7217241866
 20
68.5234018467
 30
0.0
 10
17.7475846713
 20
68.2889273561
 30
0.0
 10
17.8222742643
 20
68.0654643573
 30
0.0
 10
17.8703652969
 20
67.9569986245
 30
0.0
  0
SPLINE
  5
25F
100
AcDbEntity
  8
0
100
AcDbSpline
 62
7
  6
BYLAYER
 70
0
 71
3
 72
16
 73
12
 74
0
 42
0.0000001
 43
0.0000001
 44
0.0000000001
 40
0.0
 40
0.0
 40
0.0
 40
0.0
 40
0.0924239757
 40
0.1440245693
 40
0.1994348849
 40
0.3209978877
 40
0.4544569973
 40
0.5949418068
 40
0.7365969552
 40
0.8733937668
 40
1.0
 40
1.0
 40
1.0
 40
1.0
 10
17.8703652969
 20
67.9569986245
 30
0.0
 10
17.9766270591
 20
67.7173331556
 30
0.0
 10
18.221659443
 20
67.3773281638
 30
0.0
 10
18.6438737872
 20
67.0000601845
 30
0.0
 10
19.1801405688
 20
66.6324013066
 30
0.0
 10
19.9867900191
 20
66.2634672167
 30
0.0
 10
21.0773928201
 20
65.981429432
 30
0.0
 10
22.2546806207
 20
65.8631796351
 30
0.0
 10
23.446112427
 20
65.9161530184
 30
0.0
 10
24.5779550823
 20
66.1366854545
 30
0.0
 10
25.2825440181
 20
66.4001987272
 30
0.0
 10
25.6036956557
 20
66.5609259829
 30
0.0
  0
SPLINE
  5
260
100
AcDbEntity
  8
0
100
AcDbSpline
 62
7
  6
BYLAYER
 70
0
 71
3
 72
20
 73
16
 74
0
 42
0.0000001
 43
0.0000001
 44
0.0000000001
 40
0.0
 40
0.0
 40
0.0
 40
0.0
 40
0.042831321
 40
0.0874314517
 40
0.1352346736
 40
0.1871664184
 40
0.2436359144
 40
0.3046182593
 40
0.3697441203
 40
0.4383806857
 40
0.5826342436
 40
0.7296946481
 40
0.8711925736
 40
0.9375943179
 40
1.0
 40
1.0
 40
1.0
 40
1.0
 10
14.6102302726
 20
67.2905234651
 30
0.0
 10
14.6102075253
 20
67.0663746562
 30
0.0
 10
14.6702192991
 20
66.60688026
 30
0.0
 10
14.9336742799
 20
65.9433770237
 30
0.0
 10
15.36131573
 20
65.3143953078
 30
0.0
 10
15.9409313451
 20
64.732403338
 30
0.0
 10
16.6591006537
 20
64.2076012192
 30
0.0
 10
17.5005642114
 20
63.7499095138
 30
0.0
 10
18.4477882201
 20
63.3683209407
 30
0.0
 10
19.8478096161
 20
62.9649846512
 30
0.0
 10
21.7241281331
 20
62.7018216143
 30
0.0
 10
23.9977173163
 20
62.7645088532
 30
0.0
 10
25.8308231239
 20
63.1312574145
 30
0.0
 10
27.1627978278
 20
63.6138376413
 30
0.0
 10
27.7691516868
 20
63.9127429174
 30
0.0
 10
28.0519848839
 20
64.0760357651
 30
0.0
  0
SPLINE
  5
261
100
AcDbEntity
  8
0
100
AcDbSpline
 62
7
  6
BYLAYER
 70
0
 71
3
 72
11
 73
7
 74
0
 42
0.0000001
 43
0.0000001
 44
0.0000000001
 40
0.0
 40
0.0
 40
0.0
 40
0.0
 40
0.2177827477
 40
0.4509152641
 40
0.7103063952
 40
1.0
 40
1.0
 40
1.0
 40
1.0
 10
41.7597643378
 20
81.6003208061
 30
0.0
 10
41.759780861
 20
81.7212507097
 30
0.0
 10
41.804444044
 20
81.9733097982
 30
0.0
 10
41.9955399202
 20
82.324510712
 30
0.0
 10
42.2976173484
 20
82.641970102
 30
0.0
 10
42.550366961
 20
82.8160553977
 30
0.0
 10
42.6896763623
 20
82.8964852379
 30
0.0
  0
SPLINE
  5
262
100
AcDbEntity
  8
0
100
AcDbSpline
 62
7
  6
BYLAYER
 70
0
 71
3
 72
17
 73
13
 74
0
 42
0.0000001
 43
0.0000001
 44
0.0000000001
 40
0.0
 40
0.0
 40
0.0
 40
0.0
 40
0.1286926208
 40
0.2702795078
 40
0.4174383051
 40
0.5617803148
 40
0.6954501289
 40
0.8127134773
 40
0.8646759206
 40
0.9125113962
 40
0.9571388332
 40
1.0
 40
1.0
 40
1.0
 40
1.0
 10
100.163076251
 20
116.0785700646
 30
0.0
 10
100.3981080979
 20
116.2142649546
 30
0.0
 10
100.9302429525
 20
116.4338327267
 30
0.0
 10
101.7975299486
 20
116.6073182419
 30
0.0
 10
102.7148264855
 20
116.6327232899
 30
0.0
 10
103.6072880631
 20
116.5073034054
 30
0.0
 10
104.4025451189
 20
116.2416716826
 30
0.0
 10
104.9556643409
 20
115.9050112712
 30
0.0
 10
105.2802396036
 20
115.5792314127
 30
0.0
 10
105.4527132116
 20
115.3256220656
 30
0.0
 10
105.5589059485
 20
115.0580679696
 30
0.0
 10
105.5831473802
 20
114.8727926639
 30
0.0
 10
105.5831350302
 20
114.7824057052
 30
0.0
  0
ENDSEC
  0
SECTION
  2
OBJECTS
  0
DICTIONARY
  5
C
100
AcDbDictionary
280
0
281
1
  3
ACAD_GROUP
350
D
  3
ACAD_MLINESTYLE
350
17
  3
ACAD_LAYOUT
350
1A
  3
ACAD_PLOTSETTINGS
350
19
  3
ACAD_PLOTSTYLENAME
350
E
  0
DICTIONARY
  5
D
102
{ACAD_REACTORS
330
C
102
}
100
AcDbDictionary
280
0
281
1
  0
ACDBDICTIONARYWDFLT
  5
E
102
{ACAD_REACTORS
330
C
102
}
100
AcDbDictionary
281
1
  3
Normal
350
F
100
AcDbDictionaryWithDefault
340
F
  0
DICTIONARY
  5
17
102
{ACAD_REACTORS
330
C
102
}
100
AcDbDictionary
280
0
281
1
  3
Standard
350
18
  0
DICTIONARY
  5
19
102
{ACAD_REACTORS
330
C
102
}
100
AcDbDictionary
281
1
  0
DICTIONARY
  5
1A
102
{ACAD_REACTORS
330
C
102
}
100
AcDbDictionary
281
1
  3
Model
350
263
  3
Layout1
350
264
  0
ACDBPLACEHOLDER
  5
F
102
{ACAD_REACTORS
330
E
102
}
  0
MLINESTYLE
  5
18
102
{ACAD_REACTORS
330
17
102
}
100
AcDbMlineStyle
  2
STANDARD
 70
0
  3

 62
256
 51
90.0
 52
90.0
 71
2
 49
0.5
 62
256
  6
BYLAYER
 49
-0.5
 62
256
  6
BYLAYER
  0
LAYOUT
  5
263
102
{ACAD_REACTORS
330
1A
102
}
100
AcDbPlotSettings
  1

  2
none_device
  4

  6

 40
0.0
 41
0.0
 42
0.0
 43
0.0
 44
210.0
 45
297.0
 46
0.0
 47
0.0
 48
0.0
 49
0.0
140
0.0
141
0.0
142
1.0
143
1.0
 70
1024
 72
1
 73
0
 74
0
  7

 75
0
147
1.0
148
0.0
149
0.0
100
AcDbLayout
  1
Model
 70
0
 71
0
 10
0.0
 20
0.0
 11
210.0
 21
297.0
 12
0.0
 22
0.0
 32
0.0
 14
0.0
 24
0.0
 34
0.0
 15
0.0
 25
0.0
 35
0.0
146
0.0
 13
0.0
 23
0.0
 33
0.0
 16
1.0
 26
0.0
 36
0.0
 17
0.0
 27
1.0
 37
0.0
 76
0
330
210
345
0
346
0
  0
LAYOUT
  5
264
102
{ACAD_REACTORS
330
1A
102
}
100
AcDbPlotSettings
  1

  2
none_device
  4

  6

 40
0.0
 41
0.0
 42
0.0
 43
0.0
 44
210.0
 45
297.0
 46
0.0
 47
0.0
 48
0.0
 49
0.0
140
0.0
141
0.0
142
1.0
143
1.0
 70
0
 72
1
 73
0
 74
0
  7

 75
0
147
1.0
148
0.0
149
0.0
100
AcDbLayout
  1
Layout1
 70
0
 71
1
 10
0.0
 20
0.0
 11
210.0
 21
297.0
 12
0.0
 22
0.0
 32
0.0
 14
0.0
 24
0.0
 34
0.0
 15
0.0
 25
0.0
 35
0.0
146
0.0
 13
0.0
 23
0.0
 33
0.0
 16
1.0
 26
0.0
 36
0.0
 17
0.0
 27
1.0
 37
0.0
 76
0
330
211
345
0
346
0
  0
ENDSEC
  0
EOF
