  0
SECTION
  2
HEADER
  9
$ACADVER
  1
AC1006
  9
$EXTMIN
 10
-2.218000
 20
-4.546000
  9
$EXTMAX
 10
2.220921
 20
4.542000
  9
$LTSCALE
 40
0.000394
  9
$PDMODE
 70
    35
  9
$PDSIZE
 40
0.000315
  0
ENDSEC
  0
SECTION
  2
TABLES
  0
TABLE
  2
LTYPE
 70
     9
  0
LTYPE
  2
CONTINUOUS
 70
    64
  3
Solid line
 72
    65
 73
     0
 40
0.000000
  0
LTYPE
  2
DASHED
 70
    64
  3
__ __ __ __ __ __ __ __ __ __ __ __ __ __ __
 72
    65
 73
     2
 40
0.000003
 49
0.000002
 49
-0.000001
  0
LTYPE
  2
HIDDEN
 70
    64
  3
 _ _ _ _ _ _ _ _ _ _ _ _ _ _ _ _ _ _ _ _ _ _
 72
    65
 73
     2
 40
0.000001
 49
0.000001
 49
-0.000000
  0
LTYPE
  2
CENTER
 70
    64
  3
____ _ ____ _ ____ _ ____ _ ____ _ ____ _ ____
 72
    65
 73
     4
 40
0.000008
 49
0.000005
 49
-0.000001
 49
0.000001
 49
-0.000001
  0
LTYPE
  2
PHANTOM
 70
    64
  3
_____ _ _ _____ _ _ _____ _ _ _____ _ _ ____
 72
    65
 73
     6
 40
0.000010
 49
0.000005
 49
-0.000001
 49
0.000001
 49
-0.000001
 49
0.000001
 49
-0.000001
  0
LTYPE
  2
DOT
 70
    64
  3
...............................................
 72
    65
 73
     2
 40
0.000001
 49
0.000000
 49
-0.000001
  0
LTYPE
  2
DASHDOT
 70
    64
  3
__ . __ . __ . __ . __ . __ . __ . __ . __ . __
 72
    65
 73
     4
 40
0.000004
 49
0.000002
 49
-0.000001
 49
0.000000
 49
-0.000001
  0
LTYPE
  2
BORDER
 70
    64
  3
__ __ . __ __ . __ __ . __ __ . __ __ . __ __
 72
    65
 73
     6
 40
0.000007
 49
0.000002
 49
-0.000001
 49
0.000002
 49
-0.000001
 49
0.000000
 49
-0.000001
  0
LTYPE
  2
DIVIDE
 70
    64
  3
__ . . __ . . __ . . __ . . __ . . __ . . __
 72
    65
 73
     6
 40
0.000005
 49
0.000002
 49
-0.000001
 49
0.000000
 49
-0.000001
 49
0.000000
 49
-0.000001
  0
LTYPE
  2
DOTDOT
 70
    64
  3
 . .  . .  . .  . .  . .  . . 
 72
    65
 73
     5
 40
0.000002
 49
-0.000001
 49
0.000000
 49
-0.000001
 49
0.000000
 49
-0.000001
  0
ENDTAB
  0
TABLE
  2
STYLE
 70
     0
  0
ENDTAB
  0
TABLE
  2
LAYER
 70
     3
  0
LAYER
  2
FOREGROUND
 70
    64
 62
     7
  6
CONTINUOUS
  0
LAYER
  2
BACKGROUND
 70
    65
 62
    -7
  6
CONTINUOUS
  0
LAYER
  2
PLAN_1
 70
    64
 62
     7
  6
CONTINUOUS
  0
ENDTAB
  0
ENDSEC
  0
SECTION
  2
ENTITIES
  0
POLYLINE
  8
PLAN_1
  6
CONTINUOUS
 66
     1
 40
0.003000
 41
0.003000
  0
VERTEX
  8
PLAN_1
  6
CONTINUOUS
 10
0.361287
 20
-4.540890
  0
VERTEX
  8
PLAN_1
  6
CONTINUOUS
 10
0.328343
 20
-4.540890
  0
VERTEX
  8
PLAN_1
  6
CONTINUOUS
 10
0.274386
 20
-4.459094
  0
VERTEX
  8
PLAN_1
  6
CONTINUOUS
 10
0.219287
 20
-4.540890
  0
VERTEX
  8
PLAN_1
  6
CONTINUOUS
 10
0.186913
 20
-4.540890
  0
VERTEX
  8
PLAN_1
  6
CONTINUOUS
 10
0.257913
 20
-4.438650
  0
VERTEX
  8
PLAN_1
  6
CONTINUOUS
 10
0.191457
 20
-4.341520
  0
VERTEX
  8
PLAN_1
  6
CONTINUOUS
 10
0.224969
 20
-4.341520
  0
VERTEX
  8
PLAN_1
  6
CONTINUOUS
 10
0.275520
 20
-4.417634
  0
VERTEX
  8
PLAN_1
  6
CONTINUOUS
 10
0.326071
 20
-4.341520
  0
VERTEX
  8
PLAN_1
  6
CONTINUOUS
 10
0.358449
 20
-4.341520
  0
VERTEX
  8
PLAN_1
  6
CONTINUOUS
 10
0.291425
 20
-4.438650
  0
VERTEX
  8
PLAN_1
  6
CONTINUOUS
 10
0.361287
 20
-4.540890
  0
SEQEND
  8
0
  0
POLYLINE
  8
PLAN_1
  6
CONTINUOUS
 66
     1
 40
0.003000
 41
0.003000
  0
VERTEX
  8
PLAN_1
  6
CONTINUOUS
 10
0.527713
 20
-4.401161
  0
VERTEX
  8
PLAN_1
  6
CONTINUOUS
 10
0.526008
 20
-4.394913
  0
VERTEX
  8
PLAN_1
  6
CONTINUOUS
 10
0.523736
 20
-4.389799
  0
VERTEX
  8
PLAN_1
  6
CONTINUOUS
 10
0.521465
 20
-4.384689
  0
VERTEX
  8
PLAN_1
  6
CONTINUOUS
 10
0.518626
 20
-4.380146
  0
VERTEX
  8
PLAN_1
  6
CONTINUOUS
 10
0.515217
 20
-4.376169
  0
VERTEX
  8
PLAN_1
  6
CONTINUOUS
 10
0.511807
 20
-4.372760
  0
VERTEX
  8
PLAN_1
  6
CONTINUOUS
 10
0.508402
 20
-4.369921
  0
VERTEX
  8
PLAN_1
  6
CONTINUOUS
 10
0.504425
 20
-4.367650
  0
VERTEX
  8
PLAN_1
  6
CONTINUOUS
 10
0.500449
 20
-4.365378
  0
VERTEX
  8
PLAN_1
  6
CONTINUOUS
 10
0.495906
 20
-4.363673
  0
VERTEX
  8
PLAN_1
  6
CONTINUOUS
 10
0.491929
 20
-4.362535
  0
VERTEX
  8
PLAN_1
  6
CONTINUOUS
 10
0.487953
 20
-4.361402
  0
VERTEX
  8
PLAN_1
  6
CONTINUOUS
 10
0.479433
 20
-4.360264
  0
VERTEX
  8
PLAN_1
  6
CONTINUOUS
 10
0.472047
 20
-4.360264
  0
VERTEX
  8
PLAN_1
  6
CONTINUOUS
 10
0.465232
 20
-4.360264
  0
VERTEX
  8
PLAN_1
  6
CONTINUOUS
 10
0.458984
 20
-4.361402
  0
VERTEX
  8
PLAN_1
  6
CONTINUOUS
 10
0.452736
 20
-4.363102
  0
VERTEX
  8
PLAN_1
  6
CONTINUOUS
 10
0.446488
 20
-4.364807
  0
VERTEX
  8
PLAN_1
  6
CONTINUOUS
 10
0.440807
 20
-4.367650
  0
VERTEX
  8
PLAN_1
  6
CONTINUOUS
 10
0.435697
 20
-4.371055
  0
VERTEX
  8
PLAN_1
  6
CONTINUOUS
 10
0.430583
 20
-4.375031
  0
VERTEX
  8
PLAN_1
  6
CONTINUOUS
 10
0.426039
 20
-4.380146
  0
VERTEX
  8
PLAN_1
  6
CONTINUOUS
 10
0.421496
 20
-4.385256
  0
VERTEX
  8
PLAN_1
  6
CONTINUOUS
 10
0.418087
 20
-4.390937
  0
VERTEX
  8
PLAN_1
  6
CONTINUOUS
 10
0.414681
 20
-4.397752
  0
VERTEX
  8
PLAN_1
  6
CONTINUOUS
 10
0.411839
 20
-4.404567
  0
VERTEX
  8
PLAN_1
  6
CONTINUOUS
 10
0.409567
 20
-4.412520
  0
VERTEX
  8
PLAN_1
  6
CONTINUOUS
 10
0.407862
 20
-4.420472
  0
VERTEX
  8
PLAN_1
  6
CONTINUOUS
 10
0.407295
 20
-4.429559
  0
VERTEX
  8
PLAN_1
  6
CONTINUOUS
 10
0.406728
 20
-4.439217
  0
VERTEX
  8
PLAN_1
  6
CONTINUOUS
 10
0.406728
 20
-4.447736
  0
VERTEX
  8
PLAN_1
  6
CONTINUOUS
 10
0.407295
 20
-4.456256
  0
VERTEX
  8
PLAN_1
  6
CONTINUOUS
 10
0.408433
 20
-4.464209
  0
VERTEX
  8
PLAN_1
  6
CONTINUOUS
 10
0.410138
 20
-4.472161
  0
VERTEX
  8
PLAN_1
  6
CONTINUOUS
 10
0.411839
 20
-4.478976
  0
VERTEX
  8
PLAN_1
  6
CONTINUOUS
 10
0.414681
 20
-4.485791
  0
VERTEX
  8
PLAN_1
  6
CONTINUOUS
 10
0.417520
 20
-4.492606
  0
VERTEX
  8
PLAN_1
  6
CONTINUOUS
 10
0.421496
 20
-4.498287
  0
VERTEX
  8
PLAN_1
  6
CONTINUOUS
 10
0.425472
 20
-4.503402
  0
VERTEX
  8
PLAN_1
  6
CONTINUOUS
 10
0.430016
 20
-4.508512
  0
VERTEX
  8
PLAN_1
  6
CONTINUOUS
 10
0.435697
 20
-4.512488
  0
VERTEX
  8
PLAN_1
  6
CONTINUOUS
 10
0.441378
 20
-4.515898
  0
VERTEX
  8
PLAN_1
  6
CONTINUOUS
 10
0.448193
 20
-4.518736
  0
VERTEX
  8
PLAN_1
  6
CONTINUOUS
 10
0.455575
 20
-4.520441
  0
VERTEX
  8
PLAN_1
  6
CONTINUOUS
 10
0.464094
 20
-4.521575
  0
VERTEX
  8
PLAN_1
  6
CONTINUOUS
 10
0.472614
 20
-4.522146
  0
VERTEX
  8
PLAN_1
  6
CONTINUOUS
 10
0.480000
 20
-4.521575
  0
VERTEX
  8
PLAN_1
  6
CONTINUOUS
 10
0.487953
 20
-4.519874
  0
VERTEX
  8
PLAN_1
  6
CONTINUOUS
 10
0.491929
 20
-4.518736
  0
VERTEX
  8
PLAN_1
  6
CONTINUOUS
 10
0.495906
 20
-4.517031
  0
VERTEX
  8
PLAN_1
  6
CONTINUOUS
 10
0.500449
 20
-4.514760
  0
VERTEX
  8
PLAN_1
  6
CONTINUOUS
 10
0.504425
 20
-4.511921
  0
VERTEX
  8
PLAN_1
  6
CONTINUOUS
 10
0.508402
 20
-4.509079
  0
VERTEX
  8
PLAN_1
  6
CONTINUOUS
 10
0.512378
 20
-4.505102
  0
VERTEX
  8
PLAN_1
  6
CONTINUOUS
 10
0.515783
 20
-4.500559
  0
VERTEX
  8
PLAN_1
  6
CONTINUOUS
 10
0.519193
 20
-4.495449
  0
VERTEX
  8
PLAN_1
  6
CONTINUOUS
 10
0.522598
 20
-4.489768
  0
VERTEX
  8
PLAN_1
  6
CONTINUOUS
 10
0.525441
 20
-4.482953
  0
VERTEX
  8
PLAN_1
  6
CONTINUOUS
 10
0.527713
 20
-4.475567
  0
VERTEX
  8
PLAN_1
  6
CONTINUOUS
 10
0.529984
 20
-4.467618
  0
VERTEX
  8
PLAN_1
  6
CONTINUOUS
 10
0.555543
 20
-4.467618
  0
VERTEX
  8
PLAN_1
  6
CONTINUOUS
 10
0.554409
 20
-4.474433
  0
VERTEX
  8
PLAN_1
  6
CONTINUOUS
 10
0.553272
 20
-4.480681
  0
VERTEX
  8
PLAN_1
  6
CONTINUOUS
 10
0.551567
 20
-4.486929
  0
VERTEX
  8
PLAN_1
  6
CONTINUOUS
 10
0.549295
 20
-4.492606
  0
VERTEX
  8
PLAN_1
  6
CONTINUOUS
 10
0.547024
 20
-4.497720
  0
VERTEX
  8
PLAN_1
  6
CONTINUOUS
 10
0.544752
 20
-4.502831
  0
VERTEX
  8
PLAN_1
  6
CONTINUOUS
 10
0.542480
 20
-4.507378
  0
VERTEX
  8
PLAN_1
  6
CONTINUOUS
 10
0.539642
 20
-4.511350
  0
VERTEX
  8
PLAN_1
  6
CONTINUOUS
 10
0.536799
 20
-4.515327
  0
VERTEX
  8
PLAN_1
  6
CONTINUOUS
 10
0.533961
 20
-4.518736
  0
VERTEX
  8
PLAN_1
  6
CONTINUOUS
 10
0.530551
 20
-4.522146
  0
VERTEX
  8
PLAN_1
  6
CONTINUOUS
 10
0.527146
 20
-4.525551
  0
VERTEX
  8
PLAN_1
  6
CONTINUOUS
 10
0.520327
 20
-4.530665
  0
VERTEX
  8
PLAN_1
  6
CONTINUOUS
 10
0.513512
 20
-4.535209
  0
VERTEX
  8
PLAN_1
  6
CONTINUOUS
 10
0.506697
 20
-4.538618
  0
VERTEX
  8
PLAN_1
  6
CONTINUOUS
 10
0.499882
 20
-4.540890
  0
VERTEX
  8
PLAN_1
  6
CONTINUOUS
 10
0.493063
 20
-4.543161
  0
VERTEX
  8
PLAN_1
  6
CONTINUOUS
 10
0.486815
 20
-4.544295
  0
VERTEX
  8
PLAN_1
  6
CONTINUOUS
 10
0.476024
 20
-4.545433
  0
VERTEX
  8
PLAN_1
  6
CONTINUOUS
 10
0.468642
 20
-4.546000
  0
VERTEX
  8
PLAN_1
  6
CONTINUOUS
 10
0.460118
 20
-4.545433
  0
VERTEX
  8
PLAN_1
  6
CONTINUOUS
 10
0.451598
 20
-4.544866
  0
VERTEX
  8
PLAN_1
  6
CONTINUOUS
 10
0.443650
 20
-4.542591
  0
VERTEX
  8
PLAN_1
  6
CONTINUOUS
 10
0.435697
 20
-4.540319
  0
VERTEX
  8
PLAN_1
  6
CONTINUOUS
 10
0.427744
 20
-4.536913
  0
VERTEX
  8
PLAN_1
  6
CONTINUOUS
 10
0.420358
 20
-4.532937
  0
VERTEX
  8
PLAN_1
  6
CONTINUOUS
 10
0.413543
 20
-4.527823
  0
VERTEX
  8
PLAN_1
  6
CONTINUOUS
 10
0.406728
 20
-4.521575
  0
VERTEX
  8
PLAN_1
  6
CONTINUOUS
 10
0.401047
 20
-4.514760
  0
VERTEX
  8
PLAN_1
  6
CONTINUOUS
 10
0.395366
 20
-4.507378
  0
VERTEX
  8
PLAN_1
  6
CONTINUOUS
 10
0.390823
 20
-4.498287
  0
VERTEX
  8
PLAN_1
  6
CONTINUOUS
 10
0.386846
 20
-4.488634
  0
VERTEX
  8
PLAN_1
  6
CONTINUOUS
 10
0.383441
 20
-4.478409
  0
VERTEX
  8
PLAN_1
  6
CONTINUOUS
 10
0.381169
 20
-4.466480
  0
VERTEX
  8
PLAN_1
  6
CONTINUOUS
 10
0.379465
 20
-4.453984
  0
VERTEX
  8
PLAN_1
  6
CONTINUOUS
 10
0.378898
 20
-4.439783
  0
VERTEX
  8
PLAN_1
  6
CONTINUOUS
 10
0.379465
 20
-4.428425
  0
VERTEX
  8
PLAN_1
  6
CONTINUOUS
 10
0.380598
 20
-4.417634
  0
VERTEX
  8
PLAN_1
  6
CONTINUOUS
 10
0.382874
 20
-4.407409
  0
VERTEX
  8
PLAN_1
  6
CONTINUOUS
 10
0.385146
 20
-4.397752
  0
VERTEX
  8
PLAN_1
  6
CONTINUOUS
 10
0.389118
 20
-4.388665
  0
VERTEX
  8
PLAN_1
  6
CONTINUOUS
 10
0.393094
 20
-4.380146
  0
VERTEX
  8
PLAN_1
  6
CONTINUOUS
 10
0.398209
 20
-4.372193
  0
VERTEX
  8
PLAN_1
  6
CONTINUOUS
 10
0.403890
 20
-4.364807
  0
VERTEX
  8
PLAN_1
  6
CONTINUOUS
 10
0.410138
 20
-4.358559
  0
VERTEX
  8
PLAN_1
  6
CONTINUOUS
 10
0.416953
 20
-4.352882
  0
VERTEX
  8
PLAN_1
  6
CONTINUOUS
 10
0.424906
 20
-4.347768
  0
VERTEX
  8
PLAN_1
  6
CONTINUOUS
 10
0.432854
 20
-4.343791
  0
VERTEX
  8
PLAN_1
  6
CONTINUOUS
 10
0.441945
 20
-4.340386
  0
VERTEX
  8
PLAN_1
  6
CONTINUOUS
 10
0.451598
 20
-4.338110
  0
VERTEX
  8
PLAN_1
  6
CONTINUOUS
 10
0.461256
 20
-4.336409
  0
VERTEX
  8
PLAN_1
  6
CONTINUOUS
 10
0.472047
 20
-4.336409
  0
VERTEX
  8
PLAN_1
  6
CONTINUOUS
 10
0.481138
 20
-4.336409
  0
VERTEX
  8
PLAN_1
  6
CONTINUOUS
 10
0.490224
 20
-4.337543
  0
VERTEX
  8
PLAN_1
  6
CONTINUOUS
 10
0.498177
 20
-4.339248
  0
VERTEX
  8
PLAN_1
  6
CONTINUOUS
 10
0.506130
 20
-4.341520
  0
VERTEX
  8
PLAN_1
  6
CONTINUOUS
 10
0.512945
 20
-4.344358
  0
VERTEX
  8
PLAN_1
  6
CONTINUOUS
 10
0.519193
 20
-4.347768
  0
VERTEX
  8
PLAN_1
  6
CONTINUOUS
 10
0.525441
 20
-4.351744
  0
VERTEX
  8
PLAN_1
  6
CONTINUOUS
 10
0.530551
 20
-4.356287
  0
VERTEX
  8
PLAN_1
  6
CONTINUOUS
 10
0.535665
 20
-4.360831
  0
VERTEX
  8
PLAN_1
  6
CONTINUOUS
 10
0.539642
 20
-4.365945
  0
VERTEX
  8
PLAN_1
  6
CONTINUOUS
 10
0.543614
 20
-4.371626
  0
VERTEX
  8
PLAN_1
  6
CONTINUOUS
 10
0.546457
 20
-4.377303
  0
VERTEX
  8
PLAN_1
  6
CONTINUOUS
 10
0.549295
 20
-4.382984
  0
VERTEX
  8
PLAN_1
  6
CONTINUOUS
 10
0.551567
 20
-4.389232
  0
VERTEX
  8
PLAN_1
  6
CONTINUOUS
 10
0.552705
 20
-4.394913
  0
VERTEX
  8
PLAN_1
  6
CONTINUOUS
 10
0.553839
 20
-4.401161
  0
VERTEX
  8
PLAN_1
  6
CONTINUOUS
 10
0.527713
 20
-4.401161
  0
SEQEND
  8
0
  0
POLYLINE
  8
PLAN_1
  6
CONTINUOUS
 66
     1
 40
0.003000
 41
0.003000
  0
VERTEX
  8
PLAN_1
  6
CONTINUOUS
 10
0.615185
 20
-4.540890
  0
VERTEX
  8
PLAN_1
  6
CONTINUOUS
 10
0.588488
 20
-4.540890
  0
VERTEX
  8
PLAN_1
  6
CONTINUOUS
 10
0.588488
 20
-4.341520
  0
VERTEX
  8
PLAN_1
  6
CONTINUOUS
 10
0.615185
 20
-4.341520
  0
VERTEX
  8
PLAN_1
  6
CONTINUOUS
 10
0.615185
 20
-4.438079
  0
VERTEX
  8
PLAN_1
  6
CONTINUOUS
 10
0.711744
 20
-4.341520
  0
VERTEX
  8
PLAN_1
  6
CONTINUOUS
 10
0.749232
 20
-4.341520
  0
VERTEX
  8
PLAN_1
  6
CONTINUOUS
 10
0.666303
 20
-4.422177
  0
VERTEX
  8
PLAN_1
  6
CONTINUOUS
 10
0.751504
 20
-4.540890
  0
VERTEX
  8
PLAN_1
  6
CONTINUOUS
 10
0.716287
 20
-4.540890
  0
VERTEX
  8
PLAN_1
  6
CONTINUOUS
 10
0.646425
 20
-4.440921
  0
VERTEX
  8
PLAN_1
  6
CONTINUOUS
 10
0.615185
 20
-4.471024
  0
VERTEX
  8
PLAN_1
  6
CONTINUOUS
 10
0.615185
 20
-4.540890
  0
SEQEND
  8
0
  0
POLYLINE
  8
PLAN_1
  6
CONTINUOUS
 66
     1
 40
0.003000
 41
0.003000
  0
VERTEX
  8
PLAN_1
  6
CONTINUOUS
 10
0.782744
 20
-4.476705
  0
VERTEX
  8
PLAN_1
  6
CONTINUOUS
 10
0.782744
 20
-4.490335
  0
VERTEX
  8
PLAN_1
  6
CONTINUOUS
 10
0.782744
 20
-4.494882
  0
VERTEX
  8
PLAN_1
  6
CONTINUOUS
 10
0.782744
 20
-4.498854
  0
VERTEX
  8
PLAN_1
  6
CONTINUOUS
 10
0.783882
 20
-4.502264
  0
VERTEX
  8
PLAN_1
  6
CONTINUOUS
 10
0.784449
 20
-4.505673
  0
VERTEX
  8
PLAN_1
  6
CONTINUOUS
 10
0.785583
 20
-4.508512
  0
VERTEX
  8
PLAN_1
  6
CONTINUOUS
 10
0.787287
 20
-4.511350
  0
VERTEX
  8
PLAN_1
  6
CONTINUOUS
 10
0.788425
 20
-4.513626
  0
VERTEX
  8
PLAN_1
  6
CONTINUOUS
 10
0.790697
 20
-4.515898
  0
VERTEX
  8
PLAN_1
  6
CONTINUOUS
 10
0.792402
 20
-4.517598
  0
VERTEX
  8
PLAN_1
  6
CONTINUOUS
 10
0.794673
 20
-4.518736
  0
VERTEX
  8
PLAN_1
  6
CONTINUOUS
 10
0.797512
 20
-4.520441
  0
VERTEX
  8
PLAN_1
  6
CONTINUOUS
 10
0.799783
 20
-4.521008
  0
VERTEX
  8
PLAN_1
  6
CONTINUOUS
 10
0.806031
 20
-4.522713
  0
VERTEX
  8
PLAN_1
  6
CONTINUOUS
 10
0.812280
 20
-4.522713
  0
VERTEX
  8
PLAN_1
  6
CONTINUOUS
 10
0.816823
 20
-4.522713
  0
VERTEX
  8
PLAN_1
  6
CONTINUOUS
 10
0.820799
 20
-4.522146
  0
VERTEX
  8
PLAN_1
  6
CONTINUOUS
 10
0.824776
 20
-4.521575
  0
VERTEX
  8
PLAN_1
  6
CONTINUOUS
 10
0.828185
 20
-4.520441
  0
VERTEX
  8
PLAN_1
  6
CONTINUOUS
 10
0.831024
 20
-4.518736
  0
VERTEX
  8
PLAN_1
  6
CONTINUOUS
 10
0.833295
 20
-4.517031
  0
VERTEX
  8
PLAN_1
  6
CONTINUOUS
 10
0.835567
 20
-4.515327
  0
VERTEX
  8
PLAN_1
  6
CONTINUOUS
 10
0.837839
 20
-4.513055
  0
VERTEX
  8
PLAN_1
  6
CONTINUOUS
 10
0.839543
 20
-4.510783
  0
VERTEX
  8
PLAN_1
  6
CONTINUOUS
 10
0.840681
 20
-4.507945
  0
VERTEX
  8
PLAN_1
  6
CONTINUOUS
 10
0.841815
 20
-4.505102
  0
VERTEX
  8
PLAN_1
  6
CONTINUOUS
 10
0.842953
 20
-4.502264
  0
VERTEX
  8
PLAN_1
  6
CONTINUOUS
 10
0.844087
 20
-4.495449
  0
VERTEX
  8
PLAN_1
  6
CONTINUOUS
 10
0.844657
 20
-4.488634
  0
VERTEX
  8
PLAN_1
  6
CONTINUOUS
 10
0.844657
 20
-4.341520
  0
VERTEX
  8
PLAN_1
  6
CONTINUOUS
 10
0.871350
 20
-4.341520
  0
VERTEX
  8
PLAN_1
  6
CONTINUOUS
 10
0.871350
 20
-4.486929
  0
VERTEX
  8
PLAN_1
  6
CONTINUOUS
 10
0.870783
 20
-4.495449
  0
VERTEX
  8
PLAN_1
  6
CONTINUOUS
 10
0.870217
 20
-4.502831
  0
VERTEX
  8
PLAN_1
  6
CONTINUOUS
 10
0.868512
 20
-4.509650
  0
VERTEX
  8
PLAN_1
  6
CONTINUOUS
 10
0.866240
 20
-4.515898
  0
VERTEX
  8
PLAN_1
  6
CONTINUOUS
 10
0.863402
 20
-4.521008
  0
VERTEX
  8
PLAN_1
  6
CONTINUOUS
 10
0.859992
 20
-4.526122
  0
VERTEX
  8
PLAN_1
  6
CONTINUOUS
 10
0.856583
 20
-4.530094
  0
VERTEX
  8
PLAN_1
  6
CONTINUOUS
 10
0.852606
 20
-4.534071
  0
VERTEX
  8
PLAN_1
  6
CONTINUOUS
 10
0.848634
 20
-4.536913
  0
VERTEX
  8
PLAN_1
  6
CONTINUOUS
 10
0.844087
 20
-4.539752
  0
VERTEX
  8
PLAN_1
  6
CONTINUOUS
 10
0.838976
 20
-4.541457
  0
VERTEX
  8
PLAN_1
  6
CONTINUOUS
 10
0.834433
 20
-4.543161
  0
VERTEX
  8
PLAN_1
  6
CONTINUOUS
 10
0.829319
 20
-4.544295
  0
VERTEX
  8
PLAN_1
  6
CONTINUOUS
 10
0.824209
 20
-4.545433
  0
VERTEX
  8
PLAN_1
  6
CONTINUOUS
 10
0.819094
 20
-4.546000
  0
VERTEX
  8
PLAN_1
  6
CONTINUOUS
 10
0.813984
 20
-4.546000
  0
VERTEX
  8
PLAN_1
  6
CONTINUOUS
 10
0.805465
 20
-4.545433
  0
VERTEX
  8
PLAN_1
  6
CONTINUOUS
 10
0.798079
 20
-4.544866
  0
VERTEX
  8
PLAN_1
  6
CONTINUOUS
 10
0.791264
 20
-4.543161
  0
VERTEX
  8
PLAN_1
  6
CONTINUOUS
 10
0.785583
 20
-4.540890
  0
VERTEX
  8
PLAN_1
  6
CONTINUOUS
 10
0.779906
 20
-4.538047
  0
VERTEX
  8
PLAN_1
  6
CONTINUOUS
 10
0.775358
 20
-4.535209
  0
VERTEX
  8
PLAN_1
  6
CONTINUOUS
 10
0.771386
 20
-4.531799
  0
VERTEX
  8
PLAN_1
  6
CONTINUOUS
 10
0.767976
 20
-4.528394
  0
VERTEX
  8
PLAN_1
  6
CONTINUOUS
 10
0.765138
 20
-4.524417
  0
VERTEX
  8
PLAN_1
  6
CONTINUOUS
 10
0.762862
 20
-4.520441
  0
VERTEX
  8
PLAN_1
  6
CONTINUOUS
 10
0.761161
 20
-4.515898
  0
VERTEX
  8
PLAN_1
  6
CONTINUOUS
 10
0.759457
 20
-4.511921
  0
VERTEX
  8
PLAN_1
  6
CONTINUOUS
 10
0.758319
 20
-4.507945
  0
VERTEX
  8
PLAN_1
  6
CONTINUOUS
 10
0.757752
 20
-4.503969
  0
VERTEX
  8
PLAN_1
  6
CONTINUOUS
 10
0.757185
 20
-4.499992
  0
VERTEX
  8
PLAN_1
  6
CONTINUOUS
 10
0.757185
 20
-4.496583
  0
VERTEX
  8
PLAN_1
  6
CONTINUOUS
 10
0.757185
 20
-4.476705
  0
VERTEX
  8
PLAN_1
  6
CONTINUOUS
 10
0.782744
 20
-4.476705
  0
SEQEND
  8
0
  0
POLYLINE
  8
PLAN_1
  6
CONTINUOUS
 66
     1
 40
0.003000
 41
0.003000
  0
VERTEX
  8
PLAN_1
  6
CONTINUOUS
 10
0.991201
 20
-4.540890
  0
VERTEX
  8
PLAN_1
  6
CONTINUOUS
 10
0.965071
 20
-4.540890
  0
VERTEX
  8
PLAN_1
  6
CONTINUOUS
 10
0.965071
 20
-4.402295
  0
VERTEX
  8
PLAN_1
  6
CONTINUOUS
 10
0.919634
 20
-4.402295
  0
VERTEX
  8
PLAN_1
  6
CONTINUOUS
 10
0.919634
 20
-4.382984
  0
VERTEX
  8
PLAN_1
  6
CONTINUOUS
 10
0.930425
 20
-4.381846
  0
VERTEX
  8
PLAN_1
  6
CONTINUOUS
 10
0.940079
 20
-4.380713
  0
VERTEX
  8
PLAN_1
  6
CONTINUOUS
 10
0.944055
 20
-4.379575
  0
VERTEX
  8
PLAN_1
  6
CONTINUOUS
 10
0.948031
 20
-4.378441
  0
VERTEX
  8
PLAN_1
  6
CONTINUOUS
 10
0.951441
 20
-4.377303
  0
VERTEX
  8
PLAN_1
  6
CONTINUOUS
 10
0.954846
 20
-4.375598
  0
VERTEX
  8
PLAN_1
  6
CONTINUOUS
 10
0.957689
 20
-4.373327
  0
VERTEX
  8
PLAN_1
  6
CONTINUOUS
 10
0.959961
 20
-4.371055
  0
VERTEX
  8
PLAN_1
  6
CONTINUOUS
 10
0.962799
 20
-4.367650
  0
VERTEX
  8
PLAN_1
  6
CONTINUOUS
 10
0.965071
 20
-4.364807
  0
VERTEX
  8
PLAN_1
  6
CONTINUOUS
 10
0.966776
 20
-4.360831
  0
VERTEX
  8
PLAN_1
  6
CONTINUOUS
 10
0.968480
 20
-4.356287
  0
VERTEX
  8
PLAN_1
  6
CONTINUOUS
 10
0.970185
 20
-4.351177
  0
VERTEX
  8
PLAN_1
  6
CONTINUOUS
 10
0.971890
 20
-4.345496
  0
VERTEX
  8
PLAN_1
  6
CONTINUOUS
 10
0.991201
 20
-4.345496
  0
VERTEX
  8
PLAN_1
  6
CONTINUOUS
 10
0.991201
 20
-4.540890
  0
SEQEND
  8
0
  0
POLYLINE
  8
PLAN_1
  6
CONTINUOUS
 66
     1
 40
0.003000
 41
0.003000
  0
VERTEX
  8
PLAN_1
  6
CONTINUOUS
 10
1.197953
 20
-4.341520
  0
VERTEX
  8
PLAN_1
  6
CONTINUOUS
 10
1.225217
 20
-4.341520
  0
VERTEX
  8
PLAN_1
  6
CONTINUOUS
 10
1.225217
 20
-4.540890
  0
VERTEX
  8
PLAN_1
  6
CONTINUOUS
 10
1.197953
 20
-4.540890
  0
VERTEX
  8
PLAN_1
  6
CONTINUOUS
 10
1.197953
 20
-4.447736
  0
VERTEX
  8
PLAN_1
  6
CONTINUOUS
 10
1.094008
 20
-4.447736
  0
VERTEX
  8
PLAN_1
  6
CONTINUOUS
 10
1.094008
 20
-4.540890
  0
VERTEX
  8
PLAN_1
  6
CONTINUOUS
 10
1.067311
 20
-4.540890
  0
VERTEX
  8
PLAN_1
  6
CONTINUOUS
 10
1.067311
 20
-4.341520
  0
VERTEX
  8
PLAN_1
  6
CONTINUOUS
 10
1.094008
 20
-4.341520
  0
VERTEX
  8
PLAN_1
  6
CONTINUOUS
 10
1.094008
 20
-4.423882
  0
VERTEX
  8
PLAN_1
  6
CONTINUOUS
 10
1.197953
 20
-4.423882
  0
VERTEX
  8
PLAN_1
  6
CONTINUOUS
 10
1.197953
 20
-4.341520
  0
SEQEND
  8
0
  0
POLYLINE
  8
PLAN_1
  6
CONTINUOUS
 66
     1
 40
0.003000
 41
0.003000
  0
VERTEX
  8
PLAN_1
  6
CONTINUOUS
 10
1.256457
 20
-4.349472
  0
VERTEX
  8
PLAN_1
  6
CONTINUOUS
 10
1.391642
 20
-4.349472
  0
VERTEX
  8
PLAN_1
  6
CONTINUOUS
 10
1.391642
 20
-4.371055
  0
VERTEX
  8
PLAN_1
  6
CONTINUOUS
 10
1.383122
 20
-4.380713
  0
VERTEX
  8
PLAN_1
  6
CONTINUOUS
 10
1.372898
 20
-4.393776
  0
VERTEX
  8
PLAN_1
  6
CONTINUOUS
 10
1.367217
 20
-4.401728
  0
VERTEX
  8
PLAN_1
  6
CONTINUOUS
 10
1.361535
 20
-4.410815
  0
VERTEX
  8
PLAN_1
  6
CONTINUOUS
 10
1.355287
 20
-4.420472
  0
VERTEX
  8
PLAN_1
  6
CONTINUOUS
 10
1.349606
 20
-4.430697
  0
VERTEX
  8
PLAN_1
  6
CONTINUOUS
 10
1.343358
 20
-4.442055
  0
VERTEX
  8
PLAN_1
  6
CONTINUOUS
 10
1.337681
 20
-4.453984
  0
VERTEX
  8
PLAN_1
  6
CONTINUOUS
 10
1.332000
 20
-4.467047
  0
VERTEX
  8
PLAN_1
  6
CONTINUOUS
 10
1.326890
 20
-4.480110
  0
VERTEX
  8
PLAN_1
  6
CONTINUOUS
 10
1.322343
 20
-4.494311
  0
VERTEX
  8
PLAN_1
  6
CONTINUOUS
 10
1.317799
 20
-4.509079
  0
VERTEX
  8
PLAN_1
  6
CONTINUOUS
 10
1.314394
 20
-4.524417
  0
VERTEX
  8
PLAN_1
  6
CONTINUOUS
 10
1.310984
 20
-4.540890
  0
VERTEX
  8
PLAN_1
  6
CONTINUOUS
 10
1.284287
 20
-4.540890
  0
VERTEX
  8
PLAN_1
  6
CONTINUOUS
 10
1.285992
 20
-4.530665
  0
VERTEX
  8
PLAN_1
  6
CONTINUOUS
 10
1.288264
 20
-4.519874
  0
VERTEX
  8
PLAN_1
  6
CONTINUOUS
 10
1.291102
 20
-4.509079
  0
VERTEX
  8
PLAN_1
  6
CONTINUOUS
 10
1.294512
 20
-4.498287
  0
VERTEX
  8
PLAN_1
  6
CONTINUOUS
 10
1.297921
 20
-4.486929
  0
VERTEX
  8
PLAN_1
  6
CONTINUOUS
 10
1.302465
 20
-4.475567
  0
VERTEX
  8
PLAN_1
  6
CONTINUOUS
 10
1.307575
 20
-4.464776
  0
VERTEX
  8
PLAN_1
  6
CONTINUOUS
 10
1.312689
 20
-4.453417
  0
VERTEX
  8
PLAN_1
  6
CONTINUOUS
 10
1.318366
 20
-4.442626
  0
VERTEX
  8
PLAN_1
  6
CONTINUOUS
 10
1.324047
 20
-4.431264
  0
VERTEX
  8
PLAN_1
  6
CONTINUOUS
 10
1.330295
 20
-4.421039
  0
VERTEX
  8
PLAN_1
  6
CONTINUOUS
 10
1.336543
 20
-4.410815
  0
VERTEX
  8
PLAN_1
  6
CONTINUOUS
 10
1.343358
 20
-4.400591
  0
VERTEX
  8
PLAN_1
  6
CONTINUOUS
 10
1.350177
 20
-4.390937
  0
VERTEX
  8
PLAN_1
  6
CONTINUOUS
 10
1.356992
 20
-4.381846
  0
VERTEX
  8
PLAN_1
  6
CONTINUOUS
 10
1.363807
 20
-4.373898
  0
VERTEX
  8
PLAN_1
  6
CONTINUOUS
 10
1.256457
 20
-4.373898
  0
VERTEX
  8
PLAN_1
  6
CONTINUOUS
 10
1.256457
 20
-4.349472
  0
SEQEND
  8
0
  0
POLYLINE
  8
PLAN_1
  6
CONTINUOUS
 66
     1
 40
0.003000
 41
0.003000
  0
VERTEX
  8
PLAN_1
  6
CONTINUOUS
 10
1.451846
 20
-4.540890
  0
VERTEX
  8
PLAN_1
  6
CONTINUOUS
 10
1.425154
 20
-4.540890
  0
VERTEX
  8
PLAN_1
  6
CONTINUOUS
 10
1.425154
 20
-4.341520
  0
VERTEX
  8
PLAN_1
  6
CONTINUOUS
 10
1.517169
 20
-4.341520
  0
VERTEX
  8
PLAN_1
  6
CONTINUOUS
 10
1.523417
 20
-4.341520
  0
VERTEX
  8
PLAN_1
  6
CONTINUOUS
 10
1.529665
 20
-4.342087
  0
VERTEX
  8
PLAN_1
  6
CONTINUOUS
 10
1.535343
 20
-4.342657
  0
VERTEX
  8
PLAN_1
  6
CONTINUOUS
 10
1.541591
 20
-4.343791
  0
VERTEX
  8
PLAN_1
  6
CONTINUOUS
 10
1.546705
 20
-4.345496
  0
VERTEX
  8
PLAN_1
  6
CONTINUOUS
 10
1.552386
 20
-4.347201
  0
VERTEX
  8
PLAN_1
  6
CONTINUOUS
 10
1.557496
 20
-4.349472
  0
VERTEX
  8
PLAN_1
  6
CONTINUOUS
 10
1.562039
 20
-4.352311
  0
VERTEX
  8
PLAN_1
  6
CONTINUOUS
 10
1.566583
 20
-4.355720
  0
VERTEX
  8
PLAN_1
  6
CONTINUOUS
 10
1.570559
 20
-4.359697
  0
VERTEX
  8
PLAN_1
  6
CONTINUOUS
 10
1.573969
 20
-4.363673
  0
VERTEX
  8
PLAN_1
  6
CONTINUOUS
 10
1.577378
 20
-4.368783
  0
VERTEX
  8
PLAN_1
  6
CONTINUOUS
 10
1.579650
 20
-4.374465
  0
VERTEX
  8
PLAN_1
  6
CONTINUOUS
 10
1.581350
 20
-4.380713
  0
VERTEX
  8
PLAN_1
  6
CONTINUOUS
 10
1.582488
 20
-4.387528
  0
VERTEX
  8
PLAN_1
  6
CONTINUOUS
 10
1.582488
 20
-4.394913
  0
VERTEX
  8
PLAN_1
  6
CONTINUOUS
 10
1.582488
 20
-4.400024
  0
VERTEX
  8
PLAN_1
  6
CONTINUOUS
 10
1.581921
 20
-4.405138
  0
VERTEX
  8
PLAN_1
  6
CONTINUOUS
 10
1.581350
 20
-4.409681
  0
VERTEX
  8
PLAN_1
  6
CONTINUOUS
 10
1.580217
 20
-4.413657
  0
VERTEX
  8
PLAN_1
  6
CONTINUOUS
 10
1.579079
 20
-4.417634
  0
VERTEX
  8
PLAN_1
  6
CONTINUOUS
 10
1.577378
 20
-4.421039
  0
VERTEX
  8
PLAN_1
  6
CONTINUOUS
 10
1.575673
 20
-4.424449
  0
VERTEX
  8
PLAN_1
  6
CONTINUOUS
 10
1.573402
 20
-4.427287
  0
VERTEX
  8
PLAN_1
  6
CONTINUOUS
 10
1.569425
 20
-4.431831
  0
VERTEX
  8
PLAN_1
  6
CONTINUOUS
 10
1.564882
 20
-4.436378
  0
VERTEX
  8
PLAN_1
  6
CONTINUOUS
 10
1.559768
 20
-4.439783
  0
VERTEX
  8
PLAN_1
  6
CONTINUOUS
 10
1.555224
 20
-4.442626
  0
VERTEX
  8
PLAN_1
  6
CONTINUOUS
 10
1.559201
 20
-4.444327
  0
VERTEX
  8
PLAN_1
  6
CONTINUOUS
 10
1.563177
 20
-4.446598
  0
VERTEX
  8
PLAN_1
  6
CONTINUOUS
 10
1.567154
 20
-4.449441
  0
VERTEX
  8
PLAN_1
  6
CONTINUOUS
 10
1.570559
 20
-4.452846
  0
VERTEX
  8
PLAN_1
  6
CONTINUOUS
 10
1.572264
 20
-4.455122
  0
VERTEX
  8
PLAN_1
  6
CONTINUOUS
 10
1.573969
 20
-4.457394
  0
VERTEX
  8
PLAN_1
  6
CONTINUOUS
 10
1.575102
 20
-4.460232
  0
VERTEX
  8
PLAN_1
  6
CONTINUOUS
 10
1.576240
 20
-4.463071
  0
VERTEX
  8
PLAN_1
  6
CONTINUOUS
 10
1.577945
 20
-4.471024
  0
VERTEX
  8
PLAN_1
  6
CONTINUOUS
 10
1.579079
 20
-4.480110
  0
VERTEX
  8
PLAN_1
  6
CONTINUOUS
 10
1.580783
 20
-4.516465
  0
VERTEX
  8
PLAN_1
  6
CONTINUOUS
 10
1.580783
 20
-4.520441
  0
VERTEX
  8
PLAN_1
  6
CONTINUOUS
 10
1.580783
 20
-4.523280
  0
VERTEX
  8
PLAN_1
  6
CONTINUOUS
 10
1.581350
 20
-4.526122
  0
VERTEX
  8
PLAN_1
  6
CONTINUOUS
 10
1.582488
 20
-4.528961
  0
VERTEX
  8
PLAN_1
  6
CONTINUOUS
 10
1.583626
 20
-4.530665
  0
VERTEX
  8
PLAN_1
  6
CONTINUOUS
 10
1.585327
 20
-4.532937
  0
VERTEX
  8
PLAN_1
  6
CONTINUOUS
 10
1.587598
 20
-4.534642
  0
VERTEX
  8
PLAN_1
  6
CONTINUOUS
 10
1.590441
 20
-4.536343
  0
VERTEX
  8
PLAN_1
  6
CONTINUOUS
 10
1.590441
 20
-4.540890
  0
VERTEX
  8
PLAN_1
  6
CONTINUOUS
 10
1.557496
 20
-4.540890
  0
VERTEX
  8
PLAN_1
  6
CONTINUOUS
 10
1.556358
 20
-4.535209
  0
VERTEX
  8
PLAN_1
  6
CONTINUOUS
 10
1.555224
 20
-4.528961
  0
VERTEX
  8
PLAN_1
  6
CONTINUOUS
 10
1.554087
 20
-4.521575
  0
VERTEX
  8
PLAN_1
  6
CONTINUOUS
 10
1.553520
 20
-4.514193
  0
VERTEX
  8
PLAN_1
  6
CONTINUOUS
 10
1.553520
 20
-4.506807
  0
VERTEX
  8
PLAN_1
  6
CONTINUOUS
 10
1.552953
 20
-4.499992
  0
VERTEX
  8
PLAN_1
  6
CONTINUOUS
 10
1.552953
 20
-4.494311
  0
VERTEX
  8
PLAN_1
  6
CONTINUOUS
 10
1.552953
 20
-4.490906
  0
VERTEX
  8
PLAN_1
  6
CONTINUOUS
 10
1.552386
 20
-4.484657
  0
VERTEX
  8
PLAN_1
  6
CONTINUOUS
 10
1.551815
 20
-4.478409
  0
VERTEX
  8
PLAN_1
  6
CONTINUOUS
 10
1.551248
 20
-4.475000
  0
VERTEX
  8
PLAN_1
  6
CONTINUOUS
 10
1.550110
 20
-4.472161
  0
VERTEX
  8
PLAN_1
  6
CONTINUOUS
 10
1.548976
 20
-4.469319
  0
VERTEX
  8
PLAN_1
  6
CONTINUOUS
 10
1.547272
 20
-4.467047
  0
VERTEX
  8
PLAN_1
  6
CONTINUOUS
 10
1.545000
 20
-4.464209
  0
VERTEX
  8
PLAN_1
  6
CONTINUOUS
 10
1.542728
 20
-4.461937
  0
VERTEX
  8
PLAN_1
  6
CONTINUOUS
 10
1.539890
 20
-4.460232
  0
VERTEX
  8
PLAN_1
  6
CONTINUOUS
 10
1.536480
 20
-4.458528
  0
VERTEX
  8
PLAN_1
  6
CONTINUOUS
 10
1.532504
 20
-4.457394
  0
VERTEX
  8
PLAN_1
  6
CONTINUOUS
 10
1.527961
 20
-4.456256
  0
VERTEX
  8
PLAN_1
  6
CONTINUOUS
 10
1.522846
 20
-4.455689
  0
VERTEX
  8
PLAN_1
  6
CONTINUOUS
 10
1.517169
 20
-4.455122
  0
VERTEX
  8
PLAN_1
  6
CONTINUOUS
 10
1.451846
 20
-4.455122
  0
VERTEX
  8
PLAN_1
  6
CONTINUOUS
 10
1.451846
 20
-4.540890
  0
SEQEND
  8
0
  0
POLYLINE
  8
PLAN_1
  6
CONTINUOUS
 66
     1
 40
0.003000
 41
0.003000
  0
VERTEX
  8
PLAN_1
  6
CONTINUOUS
 10
1.451846
 20
-4.432402
  0
VERTEX
  8
PLAN_1
  6
CONTINUOUS
 10
1.514327
 20
-4.432402
  0
VERTEX
  8
PLAN_1
  6
CONTINUOUS
 10
1.521713
 20
-4.431831
  0
VERTEX
  8
PLAN_1
  6
CONTINUOUS
 10
1.529094
 20
-4.430697
  0
VERTEX
  8
PLAN_1
  6
CONTINUOUS
 10
1.532504
 20
-4.430130
  0
VERTEX
  8
PLAN_1
  6
CONTINUOUS
 10
1.535913
 20
-4.428992
  0
VERTEX
  8
PLAN_1
  6
CONTINUOUS
 10
1.539319
 20
-4.427854
  0
VERTEX
  8
PLAN_1
  6
CONTINUOUS
 10
1.542161
 20
-4.426154
  0
VERTEX
  8
PLAN_1
  6
CONTINUOUS
 10
1.545000
 20
-4.423882
  0
VERTEX
  8
PLAN_1
  6
CONTINUOUS
 10
1.547272
 20
-4.421606
  0
VERTEX
  8
PLAN_1
  6
CONTINUOUS
 10
1.549543
 20
-4.418768
  0
VERTEX
  8
PLAN_1
  6
CONTINUOUS
 10
1.551248
 20
-4.415358
  0
VERTEX
  8
PLAN_1
  6
CONTINUOUS
 10
1.552953
 20
-4.411953
  0
VERTEX
  8
PLAN_1
  6
CONTINUOUS
 10
1.554087
 20
-4.407976
  0
VERTEX
  8
PLAN_1
  6
CONTINUOUS
 10
1.554657
 20
-4.402866
  0
VERTEX
  8
PLAN_1
  6
CONTINUOUS
 10
1.555224
 20
-4.397752
  0
VERTEX
  8
PLAN_1
  6
CONTINUOUS
 10
1.554657
 20
-4.392071
  0
VERTEX
  8
PLAN_1
  6
CONTINUOUS
 10
1.554087
 20
-4.387528
  0
VERTEX
  8
PLAN_1
  6
CONTINUOUS
 10
1.552953
 20
-4.382984
  0
VERTEX
  8
PLAN_1
  6
CONTINUOUS
 10
1.551248
 20
-4.379575
  0
VERTEX
  8
PLAN_1
  6
CONTINUOUS
 10
1.549543
 20
-4.376169
  0
VERTEX
  8
PLAN_1
  6
CONTINUOUS
 10
1.547272
 20
-4.373898
  0
VERTEX
  8
PLAN_1
  6
CONTINUOUS
 10
1.545000
 20
-4.371626
  0
VERTEX
  8
PLAN_1
  6
CONTINUOUS
 10
1.542161
 20
-4.369350
  0
VERTEX
  8
PLAN_1
  6
CONTINUOUS
 10
1.539319
 20
-4.368217
  0
VERTEX
  8
PLAN_1
  6
CONTINUOUS
 10
1.536480
 20
-4.367079
  0
VERTEX
  8
PLAN_1
  6
CONTINUOUS
 10
1.533642
 20
-4.365945
  0
VERTEX
  8
PLAN_1
  6
CONTINUOUS
 10
1.530232
 20
-4.365378
  0
VERTEX
  8
PLAN_1
  6
CONTINUOUS
 10
1.524551
 20
-4.364807
  0
VERTEX
  8
PLAN_1
  6
CONTINUOUS
 10
1.519441
 20
-4.364240
  0
VERTEX
  8
PLAN_1
  6
CONTINUOUS
 10
1.451846
 20
-4.364240
  0
VERTEX
  8
PLAN_1
  6
CONTINUOUS
 10
1.451846
 20
-4.432402
  0
SEQEND
  8
0
  0
SOLID
  8
PLAN_1
 10
1.654055
 20
-4.540890
 11
1.625087
 21
-4.540890
 12
1.654055
 22
-4.511350
 13
1.625087
 23
-4.511350
  0
POLYLINE
  8
PLAN_1
  6
CONTINUOUS
 66
     1
 40
0.003000
 41
0.003000
  0
VERTEX
  8
PLAN_1
  6
CONTINUOUS
 10
1.654055
 20
-4.540890
  0
VERTEX
  8
PLAN_1
  6
CONTINUOUS
 10
1.625087
 20
-4.540890
  0
VERTEX
  8
PLAN_1
  6
CONTINUOUS
 10
1.625087
 20
-4.511350
  0
VERTEX
  8
PLAN_1
  6
CONTINUOUS
 10
1.654055
 20
-4.511350
  0
VERTEX
  8
PLAN_1
  6
CONTINUOUS
 10
1.654055
 20
-4.540890
  0
SEQEND
  8
0
  0
POLYLINE
  8
PLAN_1
  6
CONTINUOUS
 66
     1
 40
0.003000
 41
0.003000
  0
VERTEX
  8
PLAN_1
  6
CONTINUOUS
 10
1.849449
 20
-4.540890
  0
VERTEX
  8
PLAN_1
  6
CONTINUOUS
 10
1.702335
 20
-4.540890
  0
VERTEX
  8
PLAN_1
  6
CONTINUOUS
 10
1.702335
 20
-4.341520
  0
VERTEX
  8
PLAN_1
  6
CONTINUOUS
 10
1.847177
 20
-4.341520
  0
VERTEX
  8
PLAN_1
  6
CONTINUOUS
 10
1.847177
 20
-4.365378
  0
VERTEX
  8
PLAN_1
  6
CONTINUOUS
 10
1.729031
 20
-4.365378
  0
VERTEX
  8
PLAN_1
  6
CONTINUOUS
 10
1.729031
 20
-4.426154
  0
VERTEX
  8
PLAN_1
  6
CONTINUOUS
 10
1.838087
 20
-4.426154
  0
VERTEX
  8
PLAN_1
  6
CONTINUOUS
 10
1.838087
 20
-4.450008
  0
VERTEX
  8
PLAN_1
  6
CONTINUOUS
 10
1.729031
 20
-4.450008
  0
VERTEX
  8
PLAN_1
  6
CONTINUOUS
 10
1.729031
 20
-4.517031
  0
VERTEX
  8
PLAN_1
  6
CONTINUOUS
 10
1.849449
 20
-4.517031
  0
VERTEX
  8
PLAN_1
  6
CONTINUOUS
 10
1.849449
 20
-4.540890
  0
SEQEND
  8
0
  0
POLYLINE
  8
PLAN_1
  6
CONTINUOUS
 66
     1
 40
0.003000
 41
0.003000
  0
VERTEX
  8
PLAN_1
  6
CONTINUOUS
 10
1.914201
 20
-4.540890
  0
VERTEX
  8
PLAN_1
  6
CONTINUOUS
 10
1.887504
 20
-4.540890
  0
VERTEX
  8
PLAN_1
  6
CONTINUOUS
 10
1.887504
 20
-4.341520
  0
VERTEX
  8
PLAN_1
  6
CONTINUOUS
 10
1.977248
 20
-4.341520
  0
VERTEX
  8
PLAN_1
  6
CONTINUOUS
 10
1.984063
 20
-4.341520
  0
VERTEX
  8
PLAN_1
  6
CONTINUOUS
 10
1.990311
 20
-4.342657
  0
VERTEX
  8
PLAN_1
  6
CONTINUOUS
 10
1.995992
 20
-4.343791
  0
VERTEX
  8
PLAN_1
  6
CONTINUOUS
 10
2.001673
 20
-4.345496
  0
VERTEX
  8
PLAN_1
  6
CONTINUOUS
 10
2.007350
 20
-4.347768
  0
VERTEX
  8
PLAN_1
  6
CONTINUOUS
 10
2.011898
 20
-4.350606
  0
VERTEX
  8
PLAN_1
  6
CONTINUOUS
 10
2.016441
 20
-4.354016
  0
VERTEX
  8
PLAN_1
  6
CONTINUOUS
 10
2.020417
 20
-4.357425
  0
VERTEX
  8
PLAN_1
  6
CONTINUOUS
 10
2.023823
 20
-4.361402
  0
VERTEX
  8
PLAN_1
  6
CONTINUOUS
 10
2.027232
 20
-4.365378
  0
VERTEX
  8
PLAN_1
  6
CONTINUOUS
 10
2.030071
 20
-4.370488
  0
VERTEX
  8
PLAN_1
  6
CONTINUOUS
 10
2.032343
 20
-4.375031
  0
VERTEX
  8
PLAN_1
  6
CONTINUOUS
 10
2.034047
 20
-4.380146
  0
VERTEX
  8
PLAN_1
  6
CONTINUOUS
 10
2.035185
 20
-4.385823
  0
VERTEX
  8
PLAN_1
  6
CONTINUOUS
 10
2.035752
 20
-4.391504
  0
VERTEX
  8
PLAN_1
  6
CONTINUOUS
 10
2.036319
 20
-4.397752
  0
VERTEX
  8
PLAN_1
  6
CONTINUOUS
 10
2.036319
 20
-4.402866
  0
VERTEX
  8
PLAN_1
  6
CONTINUOUS
 10
2.035185
 20
-4.407976
  0
VERTEX
  8
PLAN_1
  6
CONTINUOUS
 10
2.034614
 20
-4.413087
  0
VERTEX
  8
PLAN_1
  6
CONTINUOUS
 10
2.032913
 20
-4.418201
  0
VERTEX
  8
PLAN_1
  6
CONTINUOUS
 10
2.031209
 20
-4.423311
  0
VERTEX
  8
PLAN_1
  6
CONTINUOUS
 10
2.028937
 20
-4.428425
  0
VERTEX
  8
PLAN_1
  6
CONTINUOUS
 10
2.026094
 20
-4.432969
  0
VERTEX
  8
PLAN_1
  6
CONTINUOUS
 10
2.022689
 20
-4.437512
  0
VERTEX
  8
PLAN_1
  6
CONTINUOUS
 10
2.019280
 20
-4.441488
  0
VERTEX
  8
PLAN_1
  6
CONTINUOUS
 10
2.014736
 20
-4.445465
  0
VERTEX
  8
PLAN_1
  6
CONTINUOUS
 10
2.010193
 20
-4.448303
  0
VERTEX
  8
PLAN_1
  6
CONTINUOUS
 10
2.004512
 20
-4.451146
  0
VERTEX
  8
PLAN_1
  6
CONTINUOUS
 10
1.998831
 20
-4.453417
  0
VERTEX
  8
PLAN_1
  6
CONTINUOUS
 10
1.992016
 20
-4.455122
  0
VERTEX
  8
PLAN_1
  6
CONTINUOUS
 10
1.984634
 20
-4.456256
  0
VERTEX
  8
PLAN_1
  6
CONTINUOUS
 10
1.977248
 20
-4.456823
  0
VERTEX
  8
PLAN_1
  6
CONTINUOUS
 10
1.914201
 20
-4.456823
  0
VERTEX
  8
PLAN_1
  6
CONTINUOUS
 10
1.914201
 20
-4.540890
  0
SEQEND
  8
0
  0
POLYLINE
  8
PLAN_1
  6
CONTINUOUS
 66
     1
 40
0.003000
 41
0.003000
  0
VERTEX
  8
PLAN_1
  6
CONTINUOUS
 10
1.914201
 20
-4.433535
  0
VERTEX
  8
PLAN_1
  6
CONTINUOUS
 10
1.968161
 20
-4.433535
  0
VERTEX
  8
PLAN_1
  6
CONTINUOUS
 10
1.976681
 20
-4.432969
  0
VERTEX
  8
PLAN_1
  6
CONTINUOUS
 10
1.984634
 20
-4.431831
  0
VERTEX
  8
PLAN_1
  6
CONTINUOUS
 10
1.988039
 20
-4.430697
  0
VERTEX
  8
PLAN_1
  6
CONTINUOUS
 10
1.991449
 20
-4.429559
  0
VERTEX
  8
PLAN_1
  6
CONTINUOUS
 10
1.994287
 20
-4.427854
  0
VERTEX
  8
PLAN_1
  6
CONTINUOUS
 10
1.997130
 20
-4.425583
  0
VERTEX
  8
PLAN_1
  6
CONTINUOUS
 10
1.999969
 20
-4.423311
  0
VERTEX
  8
PLAN_1
  6
CONTINUOUS
 10
2.002240
 20
-4.421039
  0
VERTEX
  8
PLAN_1
  6
CONTINUOUS
 10
2.003945
 20
-4.418201
  0
VERTEX
  8
PLAN_1
  6
CONTINUOUS
 10
2.005650
 20
-4.414791
  0
VERTEX
  8
PLAN_1
  6
CONTINUOUS
 10
2.006783
 20
-4.410815
  0
VERTEX
  8
PLAN_1
  6
CONTINUOUS
 10
2.007921
 20
-4.406839
  0
VERTEX
  8
PLAN_1
  6
CONTINUOUS
 10
2.008488
 20
-4.402866
  0
VERTEX
  8
PLAN_1
  6
CONTINUOUS
 10
2.008488
 20
-4.397752
  0
VERTEX
  8
PLAN_1
  6
CONTINUOUS
 10
2.008488
 20
-4.393209
  0
VERTEX
  8
PLAN_1
  6
CONTINUOUS
 10
2.007921
 20
-4.389232
  0
VERTEX
  8
PLAN_1
  6
CONTINUOUS
 10
2.006783
 20
-4.385256
  0
VERTEX
  8
PLAN_1
  6
CONTINUOUS
 10
2.005650
 20
-4.381846
  0
VERTEX
  8
PLAN_1
  6
CONTINUOUS
 10
2.003945
 20
-4.379008
  0
VERTEX
  8
PLAN_1
  6
CONTINUOUS
 10
2.001673
 20
-4.376169
  0
VERTEX
  8
PLAN_1
  6
CONTINUOUS
 10
1.999402
 20
-4.373898
  0
VERTEX
  8
PLAN_1
  6
CONTINUOUS
 10
1.997130
 20
-4.371626
  0
VERTEX
  8
PLAN_1
  6
CONTINUOUS
 10
1.994287
 20
-4.369921
  0
VERTEX
  8
PLAN_1
  6
CONTINUOUS
 10
1.991449
 20
-4.368217
  0
VERTEX
  8
PLAN_1
  6
CONTINUOUS
 10
1.988039
 20
-4.367079
  0
VERTEX
  8
PLAN_1
  6
CONTINUOUS
 10
1.984634
 20
-4.365945
  0
VERTEX
  8
PLAN_1
  6
CONTINUOUS
 10
1.977248
 20
-4.364807
  0
VERTEX
  8
PLAN_1
  6
CONTINUOUS
 10
1.969295
 20
-4.364240
  0
VERTEX
  8
PLAN_1
  6
CONTINUOUS
 10
1.914201
 20
-4.364240
  0
VERTEX
  8
PLAN_1
  6
CONTINUOUS
 10
1.914201
 20
-4.433535
  0
SEQEND
  8
0
  0
POLYLINE
  8
PLAN_1
  6
CONTINUOUS
 66
     1
 40
0.003000
 41
0.003000
  0
VERTEX
  8
PLAN_1
  6
CONTINUOUS
 10
2.190248
 20
-4.399457
  0
VERTEX
  8
PLAN_1
  6
CONTINUOUS
 10
2.189681
 20
-4.394343
  0
VERTEX
  8
PLAN_1
  6
CONTINUOUS
 10
2.188543
 20
-4.389232
  0
VERTEX
  8
PLAN_1
  6
CONTINUOUS
 10
2.186839
 20
-4.384689
  0
VERTEX
  8
PLAN_1
  6
CONTINUOUS
 10
2.185138
 20
-4.380146
  0
VERTEX
  8
PLAN_1
  6
CONTINUOUS
 10
2.182295
 20
-4.376736
  0
VERTEX
  8
PLAN_1
  6
CONTINUOUS
 10
2.180024
 20
-4.373327
  0
VERTEX
  8
PLAN_1
  6
CONTINUOUS
 10
2.176614
 20
-4.370488
  0
VERTEX
  8
PLAN_1
  6
CONTINUOUS
 10
2.173209
 20
-4.367650
  0
VERTEX
  8
PLAN_1
  6
CONTINUOUS
 10
2.169799
 20
-4.365945
  0
VERTEX
  8
PLAN_1
  6
CONTINUOUS
 10
2.165823
 20
-4.363673
  0
VERTEX
  8
PLAN_1
  6
CONTINUOUS
 10
2.161846
 20
-4.362535
  0
VERTEX
  8
PLAN_1
  6
CONTINUOUS
 10
2.157874
 20
-4.361402
  0
VERTEX
  8
PLAN_1
  6
CONTINUOUS
 10
2.149350
 20
-4.359697
  0
VERTEX
  8
PLAN_1
  6
CONTINUOUS
 10
2.140831
 20
-4.359130
  0
VERTEX
  8
PLAN_1
  6
CONTINUOUS
 10
2.134016
 20
-4.359697
  0
VERTEX
  8
PLAN_1
  6
CONTINUOUS
 10
2.126634
 20
-4.360264
  0
VERTEX
  8
PLAN_1
  6
CONTINUOUS
 10
2.122657
 20
-4.361402
  0
VERTEX
  8
PLAN_1
  6
CONTINUOUS
 10
2.118681
 20
-4.362535
  0
VERTEX
  8
PLAN_1
  6
CONTINUOUS
 10
2.115272
 20
-4.363673
  0
VERTEX
  8
PLAN_1
  6
CONTINUOUS
 10
2.111862
 20
-4.365378
  0
VERTEX
  8
PLAN_1
  6
CONTINUOUS
 10
2.108457
 20
-4.367650
  0
VERTEX
  8
PLAN_1
  6
CONTINUOUS
 10
2.105047
 20
-4.369921
  0
VERTEX
  8
PLAN_1
  6
CONTINUOUS
 10
2.102209
 20
-4.372760
  0
VERTEX
  8
PLAN_1
  6
CONTINUOUS
 10
2.099937
 20
-4.376169
  0
VERTEX
  8
PLAN_1
  6
CONTINUOUS
 10
2.097665
 20
-4.379575
  0
VERTEX
  8
PLAN_1
  6
CONTINUOUS
 10
2.096528
 20
-4.384122
  0
VERTEX
  8
PLAN_1
  6
CONTINUOUS
 10
2.095394
 20
-4.388665
  0
VERTEX
  8
PLAN_1
  6
CONTINUOUS
 10
2.095394
 20
-4.394343
  0
VERTEX
  8
PLAN_1
  6
CONTINUOUS
 10
2.095394
 20
-4.397185
  0
VERTEX
  8
PLAN_1
  6
CONTINUOUS
 10
2.095961
 20
-4.400024
  0
VERTEX
  8
PLAN_1
  6
CONTINUOUS
 10
2.096528
 20
-4.402295
  0
VERTEX
  8
PLAN_1
  6
CONTINUOUS
 10
2.097094
 20
-4.405138
  0
VERTEX
  8
PLAN_1
  6
CONTINUOUS
 10
2.099366
 20
-4.409110
  0
VERTEX
  8
PLAN_1
  6
CONTINUOUS
 10
2.102776
 20
-4.411953
  0
VERTEX
  8
PLAN_1
  6
CONTINUOUS
 10
2.106185
 20
-4.414791
  0
VERTEX
  8
PLAN_1
  6
CONTINUOUS
 10
2.110161
 20
-4.416496
  0
VERTEX
  8
PLAN_1
  6
CONTINUOUS
 10
2.114138
 20
-4.418201
  0
VERTEX
  8
PLAN_1
  6
CONTINUOUS
 10
2.118681
 20
-4.419335
  0
VERTEX
  8
PLAN_1
  6
CONTINUOUS
 10
2.175480
 20
-4.432402
  0
VERTEX
  8
PLAN_1
  6
CONTINUOUS
 10
2.180591
 20
-4.433535
  0
VERTEX
  8
PLAN_1
  6
CONTINUOUS
 10
2.185138
 20
-4.435240
  0
VERTEX
  8
PLAN_1
  6
CONTINUOUS
 10
2.189681
 20
-4.436945
  0
VERTEX
  8
PLAN_1
  6
CONTINUOUS
 10
2.193657
 20
-4.438650
  0
VERTEX
  8
PLAN_1
  6
CONTINUOUS
 10
2.197634
 20
-4.440921
  0
VERTEX
  8
PLAN_1
  6
CONTINUOUS
 10
2.201606
 20
-4.443760
  0
VERTEX
  8
PLAN_1
  6
CONTINUOUS
 10
2.205016
 20
-4.446598
  0
VERTEX
  8
PLAN_1
  6
CONTINUOUS
 10
2.207854
 20
-4.449441
  0
VERTEX
  8
PLAN_1
  6
CONTINUOUS
 10
2.210697
 20
-4.452846
  0
VERTEX
  8
PLAN_1
  6
CONTINUOUS
 10
2.213535
 20
-4.456823
  0
VERTEX
  8
PLAN_1
  6
CONTINUOUS
 10
2.215807
 20
-4.460799
  0
VERTEX
  8
PLAN_1
  6
CONTINUOUS
 10
2.217512
 20
-4.464776
  0
VERTEX
  8
PLAN_1
  6
CONTINUOUS
 10
2.219217
 20
-4.469890
  0
VERTEX
  8
PLAN_1
  6
CONTINUOUS
 10
2.219783
 20
-4.474433
  0
VERTEX
  8
PLAN_1
  6
CONTINUOUS
 10
2.220921
 20
-4.480110
  0
VERTEX
  8
PLAN_1
  6
CONTINUOUS
 10
2.220921
 20
-4.485791
  0
VERTEX
  8
PLAN_1
  6
CONTINUOUS
 10
2.220350
 20
-4.494311
  0
VERTEX
  8
PLAN_1
  6
CONTINUOUS
 10
2.219217
 20
-4.501697
  0
VERTEX
  8
PLAN_1
  6
CONTINUOUS
 10
2.216378
 20
-4.509079
  0
VERTEX
  8
PLAN_1
  6
CONTINUOUS
 10
2.213535
 20
-4.515327
  0
VERTEX
  8
PLAN_1
  6
CONTINUOUS
 10
2.209559
 20
-4.520441
  0
VERTEX
  8
PLAN_1
  6
CONTINUOUS
 10
2.205016
 20
-4.525551
  0
VERTEX
  8
PLAN_1
  6
CONTINUOUS
 10
2.200472
 20
-4.530094
  0
VERTEX
  8
PLAN_1
  6
CONTINUOUS
 10
2.194791
 20
-4.533504
  0
VERTEX
  8
PLAN_1
  6
CONTINUOUS
 10
2.188543
 20
-4.536913
  0
VERTEX
  8
PLAN_1
  6
CONTINUOUS
 10
2.182862
 20
-4.539185
  0
VERTEX
  8
PLAN_1
  6
CONTINUOUS
 10
2.176047
 20
-4.541457
  0
VERTEX
  8
PLAN_1
  6
CONTINUOUS
 10
2.169232
 20
-4.543161
  0
VERTEX
  8
PLAN_1
  6
CONTINUOUS
 10
2.162984
 20
-4.544295
  0
VERTEX
  8
PLAN_1
  6
CONTINUOUS
 10
2.156169
 20
-4.545433
  0
VERTEX
  8
PLAN_1
  6
CONTINUOUS
 10
2.149350
 20
-4.546000
  0
VERTEX
  8
PLAN_1
  6
CONTINUOUS
 10
2.143102
 20
-4.546000
  0
VERTEX
  8
PLAN_1
  6
CONTINUOUS
 10
2.130039
 20
-4.545433
  0
VERTEX
  8
PLAN_1
  6
CONTINUOUS
 10
2.119248
 20
-4.544295
  0
VERTEX
  8
PLAN_1
  6
CONTINUOUS
 10
2.110161
 20
-4.542024
  0
VERTEX
  8
PLAN_1
  6
CONTINUOUS
 10
2.102209
 20
-4.539185
  0
VERTEX
  8
PLAN_1
  6
CONTINUOUS
 10
2.095961
 20
-4.536343
  0
VERTEX
  8
PLAN_1
  6
CONTINUOUS
 10
2.090846
 20
-4.533504
  0
VERTEX
  8
PLAN_1
  6
CONTINUOUS
 10
2.086303
 20
-4.530094
  0
VERTEX
  8
PLAN_1
  6
CONTINUOUS
 10
2.082898
 20
-4.526689
  0
VERTEX
  8
PLAN_1
  6
CONTINUOUS
 10
2.077217
 20
-4.521008
  0
VERTEX
  8
PLAN_1
  6
CONTINUOUS
 10
2.072102
 20
-4.515327
  0
VERTEX
  8
PLAN_1
  6
CONTINUOUS
 10
2.068697
 20
-4.509079
  0
VERTEX
  8
PLAN_1
  6
CONTINUOUS
 10
2.066425
 20
-4.502831
  0
VERTEX
  8
PLAN_1
  6
CONTINUOUS
 10
2.064154
 20
-4.496583
  0
VERTEX
  8
PLAN_1
  6
CONTINUOUS
 10
2.063016
 20
-4.489768
  0
VERTEX
  8
PLAN_1
  6
CONTINUOUS
 10
2.062449
 20
-4.482953
  0
VERTEX
  8
PLAN_1
  6
CONTINUOUS
 10
2.062449
 20
-4.476138
  0
VERTEX
  8
PLAN_1
  6
CONTINUOUS
 10
2.087441
 20
-4.476138
  0
VERTEX
  8
PLAN_1
  6
CONTINUOUS
 10
2.088008
 20
-4.482953
  0
VERTEX
  8
PLAN_1
  6
CONTINUOUS
 10
2.089146
 20
-4.488634
  0
VERTEX
  8
PLAN_1
  6
CONTINUOUS
 10
2.090280
 20
-4.494311
  0
VERTEX
  8
PLAN_1
  6
CONTINUOUS
 10
2.092551
 20
-4.498854
  0
VERTEX
  8
PLAN_1
  6
CONTINUOUS
 10
2.095394
 20
-4.503402
  0
VERTEX
  8
PLAN_1
  6
CONTINUOUS
 10
2.098232
 20
-4.506807
  0
VERTEX
  8
PLAN_1
  6
CONTINUOUS
 10
2.101642
 20
-4.510217
  0
VERTEX
  8
PLAN_1
  6
CONTINUOUS
 10
2.105614
 20
-4.513055
  0
VERTEX
  8
PLAN_1
  6
CONTINUOUS
 10
2.109591
 20
-4.515898
  0
VERTEX
  8
PLAN_1
  6
CONTINUOUS
 10
2.114138
 20
-4.517598
  0
VERTEX
  8
PLAN_1
  6
CONTINUOUS
 10
2.118681
 20
-4.519303
  0
VERTEX
  8
PLAN_1
  6
CONTINUOUS
 10
2.123224
 20
-4.521008
  0
VERTEX
  8
PLAN_1
  6
CONTINUOUS
 10
2.128335
 20
-4.521575
  0
VERTEX
  8
PLAN_1
  6
CONTINUOUS
 10
2.132882
 20
-4.522713
  0
VERTEX
  8
PLAN_1
  6
CONTINUOUS
 10
2.137992
 20
-4.522713
  0
VERTEX
  8
PLAN_1
  6
CONTINUOUS
 10
2.142535
 20
-4.522713
  0
VERTEX
  8
PLAN_1
  6
CONTINUOUS
 10
2.150488
 20
-4.522713
  0
VERTEX
  8
PLAN_1
  6
CONTINUOUS
 10
2.159008
 20
-4.521575
  0
VERTEX
  8
PLAN_1
  6
CONTINUOUS
 10
2.163551
 20
-4.521008
  0
VERTEX
  8
PLAN_1
  6
CONTINUOUS
 10
2.167528
 20
-4.519874
  0
VERTEX
  8
PLAN_1
  6
CONTINUOUS
 10
2.172071
 20
-4.518736
  0
VERTEX
  8
PLAN_1
  6
CONTINUOUS
 10
2.176047
 20
-4.517031
  0
VERTEX
  8
PLAN_1
  6
CONTINUOUS
 10
2.180024
 20
-4.514760
  0
VERTEX
  8
PLAN_1
  6
CONTINUOUS
 10
2.183433
 20
-4.512488
  0
VERTEX
  8
PLAN_1
  6
CONTINUOUS
 10
2.186839
 20
-4.509650
  0
VERTEX
  8
PLAN_1
  6
CONTINUOUS
 10
2.189681
 20
-4.506807
  0
VERTEX
  8
PLAN_1
  6
CONTINUOUS
 10
2.191953
 20
-4.502831
  0
VERTEX
  8
PLAN_1
  6
CONTINUOUS
 10
2.193657
 20
-4.498854
  0
VERTEX
  8
PLAN_1
  6
CONTINUOUS
 10
2.194224
 20
-4.494311
  0
VERTEX
  8
PLAN_1
  6
CONTINUOUS
 10
2.194791
 20
-4.489201
  0
VERTEX
  8
PLAN_1
  6
CONTINUOUS
 10
2.194791
 20
-4.485791
  0
VERTEX
  8
PLAN_1
  6
CONTINUOUS
 10
2.194224
 20
-4.482386
  0
VERTEX
  8
PLAN_1
  6
CONTINUOUS
 10
2.193657
 20
-4.478976
  0
VERTEX
  8
PLAN_1
  6
CONTINUOUS
 10
2.192520
 20
-4.476138
  0
VERTEX
  8
PLAN_1
  6
CONTINUOUS
 10
2.191386
 20
-4.473295
  0
VERTEX
  8
PLAN_1
  6
CONTINUOUS
 10
2.190248
 20
-4.471024
  0
VERTEX
  8
PLAN_1
  6
CONTINUOUS
 10
2.187976
 20
-4.468752
  0
VERTEX
  8
PLAN_1
  6
CONTINUOUS
 10
2.185705
 20
-4.467047
  0
VERTEX
  8
PLAN_1
  6
CONTINUOUS
 10
2.183433
 20
-4.464776
  0
VERTEX
  8
PLAN_1
  6
CONTINUOUS
 10
2.180024
 20
-4.463071
  0
VERTEX
  8
PLAN_1
  6
CONTINUOUS
 10
2.176614
 20
-4.461370
  0
VERTEX
  8
PLAN_1
  6
CONTINUOUS
 10
2.172642
 20
-4.460232
  0
VERTEX
  8
PLAN_1
  6
CONTINUOUS
 10
2.163551
 20
-4.456823
  0
VERTEX
  8
PLAN_1
  6
CONTINUOUS
 10
2.152193
 20
-4.453984
  0
VERTEX
  8
PLAN_1
  6
CONTINUOUS
 10
2.111295
 20
-4.444898
  0
VERTEX
  8
PLAN_1
  6
CONTINUOUS
 10
2.106185
 20
-4.443193
  0
VERTEX
  8
PLAN_1
  6
CONTINUOUS
 10
2.099366
 20
-4.440921
  0
VERTEX
  8
PLAN_1
  6
CONTINUOUS
 10
2.095961
 20
-4.439217
  0
VERTEX
  8
PLAN_1
  6
CONTINUOUS
 10
2.092551
 20
-4.437512
  0
VERTEX
  8
PLAN_1
  6
CONTINUOUS
 10
2.088575
 20
-4.435807
  0
VERTEX
  8
PLAN_1
  6
CONTINUOUS
 10
2.085169
 20
-4.432969
  0
VERTEX
  8
PLAN_1
  6
CONTINUOUS
 10
2.082327
 20
-4.430130
  0
VERTEX
  8
PLAN_1
  6
CONTINUOUS
 10
2.078921
 20
-4.427287
  0
VERTEX
  8
PLAN_1
  6
CONTINUOUS
 10
2.076079
 20
-4.423311
  0
VERTEX
  8
PLAN_1
  6
CONTINUOUS
 10
2.073807
 20
-4.419335
  0
VERTEX
  8
PLAN_1
  6
CONTINUOUS
 10
2.072102
 20
-4.414791
  0
VERTEX
  8
PLAN_1
  6
CONTINUOUS
 10
2.070402
 20
-4.409681
  0
VERTEX
  8
PLAN_1
  6
CONTINUOUS
 10
2.069264
 20
-4.404000
  0
VERTEX
  8
PLAN_1
  6
CONTINUOUS
 10
2.069264
 20
-4.397752
  0
VERTEX
  8
PLAN_1
  6
CONTINUOUS
 10
2.069264
 20
-4.392071
  0
VERTEX
  8
PLAN_1
  6
CONTINUOUS
 10
2.069831
 20
-4.386394
  0
VERTEX
  8
PLAN_1
  6
CONTINUOUS
 10
2.071535
 20
-4.380713
  0
VERTEX
  8
PLAN_1
  6
CONTINUOUS
 10
2.073240
 20
-4.375031
  0
VERTEX
  8
PLAN_1
  6
CONTINUOUS
 10
2.075512
 20
-4.369921
  0
VERTEX
  8
PLAN_1
  6
CONTINUOUS
 10
2.077783
 20
-4.364807
  0
VERTEX
  8
PLAN_1
  6
CONTINUOUS
 10
2.081193
 20
-4.359697
  0
VERTEX
  8
PLAN_1
  6
CONTINUOUS
 10
2.085169
 20
-4.355154
  0
VERTEX
  8
PLAN_1
  6
CONTINUOUS
 10
2.089713
 20
-4.351177
  0
VERTEX
  8
PLAN_1
  6
CONTINUOUS
 10
2.094823
 20
-4.347201
  0
VERTEX
  8
PLAN_1
  6
CONTINUOUS
 10
2.100504
 20
-4.344358
  0
VERTEX
  8
PLAN_1
  6
CONTINUOUS
 10
2.106752
 20
-4.341520
  0
VERTEX
  8
PLAN_1
  6
CONTINUOUS
 10
2.113567
 20
-4.339248
  0
VERTEX
  8
PLAN_1
  6
CONTINUOUS
 10
2.120953
 20
-4.337543
  0
VERTEX
  8
PLAN_1
  6
CONTINUOUS
 10
2.128906
 20
-4.336409
  0
VERTEX
  8
PLAN_1
  6
CONTINUOUS
 10
2.137425
 20
-4.336409
  0
VERTEX
  8
PLAN_1
  6
CONTINUOUS
 10
2.149921
 20
-4.336409
  0
VERTEX
  8
PLAN_1
  6
CONTINUOUS
 10
2.160713
 20
-4.338110
  0
VERTEX
  8
PLAN_1
  6
CONTINUOUS
 10
2.170366
 20
-4.340386
  0
VERTEX
  8
PLAN_1
  6
CONTINUOUS
 10
2.178890
 20
-4.343224
  0
VERTEX
  8
PLAN_1
  6
CONTINUOUS
 10
2.186272
 20
-4.346634
  0
VERTEX
  8
PLAN_1
  6
CONTINUOUS
 10
2.192520
 20
-4.350606
  0
VERTEX
  8
PLAN_1
  6
CONTINUOUS
 10
2.197634
 20
-4.355154
  0
VERTEX
  8
PLAN_1
  6
CONTINUOUS
 10
2.202177
 20
-4.359697
  0
VERTEX
  8
PLAN_1
  6
CONTINUOUS
 10
2.205583
 20
-4.364807
  0
VERTEX
  8
PLAN_1
  6
CONTINUOUS
 10
2.208425
 20
-4.369921
  0
VERTEX
  8
PLAN_1
  6
CONTINUOUS
 10
2.210697
 20
-4.375031
  0
VERTEX
  8
PLAN_1
  6
CONTINUOUS
 10
2.212402
 20
-4.380713
  0
VERTEX
  8
PLAN_1
  6
CONTINUOUS
 10
2.214673
 20
-4.390937
  0
VERTEX
  8
PLAN_1
  6
CONTINUOUS
 10
2.215240
 20
-4.399457
  0
VERTEX
  8
PLAN_1
  6
CONTINUOUS
 10
2.190248
 20
-4.399457
  0
SEQEND
  8
0
  0
POLYLINE
  8
PLAN_1
  6
CONTINUOUS
 66
     1
 40
0.008520
 41
0.008520
  0
VERTEX
  8
PLAN_1
  6
CONTINUOUS
 10
0.266433
 20
0.417185
  0
VERTEX
  8
PLAN_1
  6
CONTINUOUS
 10
0.303921
 20
0.417185
  0
VERTEX
  8
PLAN_1
  6
CONTINUOUS
 10
0.303921
 20
0.928953
  0
VERTEX
  8
PLAN_1
  6
CONTINUOUS
 10
0.265862
 20
0.928953
  0
SEQEND
  8
0
  0
POLYLINE
  8
PLAN_1
  6
CONTINUOUS
 66
     1
 40
0.008520
 41
0.008520
  0
VERTEX
  8
PLAN_1
  6
CONTINUOUS
 10
0.266433
 20
-1.990567
  0
VERTEX
  8
PLAN_1
  6
CONTINUOUS
 10
0.303921
 20
-1.990567
  0
VERTEX
  8
PLAN_1
  6
CONTINUOUS
 10
0.303921
 20
-1.621370
  0
VERTEX
  8
PLAN_1
  6
CONTINUOUS
 10
0.266433
 20
-1.621370
  0
SEQEND
  8
0
  0
POLYLINE
  8
PLAN_1
  6
CONTINUOUS
 66
     1
 40
0.008520
 41
0.008520
  0
VERTEX
  8
PLAN_1
  6
CONTINUOUS
 10
-1.147319
 20
0.523969
  0
VERTEX
  8
PLAN_1
  6
CONTINUOUS
 10
-1.270575
 20
0.524535
  0
VERTEX
  8
PLAN_1
  6
CONTINUOUS
 10
-1.270575
 20
-2.571634
  0
VERTEX
  8
PLAN_1
  6
CONTINUOUS
 10
0.265862
 20
-2.571634
  0
SEQEND
  8
0
  0
POLYLINE
  8
PLAN_1
  6
CONTINUOUS
 66
     1
 40
0.008520
 41
0.008520
  0
VERTEX
  8
PLAN_1
  6
CONTINUOUS
 10
0.265862
 20
-2.571634
  0
VERTEX
  8
PLAN_1
  6
CONTINUOUS
 10
0.265862
 20
-2.420543
  0
VERTEX
  8
PLAN_1
  6
CONTINUOUS
 10
0.265862
 20
-2.024079
  0
VERTEX
  8
PLAN_1
  6
CONTINUOUS
 10
0.265862
 20
-1.464031
  0
VERTEX
  8
PLAN_1
  6
CONTINUOUS
 10
0.265862
 20
-0.822193
  0
VERTEX
  8
PLAN_1
  6
CONTINUOUS
 10
0.265862
 20
-0.179783
  0
VERTEX
  8
PLAN_1
  6
CONTINUOUS
 10
0.265862
 20
0.379697
  0
VERTEX
  8
PLAN_1
  6
CONTINUOUS
 10
0.265862
 20
0.776161
  0
VERTEX
  8
PLAN_1
  6
CONTINUOUS
 10
0.265862
 20
0.926110
  0
SEQEND
  8
0
  0
POLYLINE
  8
PLAN_1
  6
CONTINUOUS
 66
     1
 40
0.008520
 41
0.008520
  0
VERTEX
  8
PLAN_1
  6
CONTINUOUS
 10
0.265862
 20
0.926110
  0
VERTEX
  8
PLAN_1
  6
CONTINUOUS
 10
-1.147319
 20
0.926110
  0
VERTEX
  8
PLAN_1
  6
CONTINUOUS
 10
-1.147319
 20
0.523969
  0
SEQEND
  8
0
  0
POLYLINE
  8
PLAN_1
  6
CONTINUOUS
 66
     1
 40
0.008520
 41
0.008520
  0
VERTEX
  8
PLAN_1
  6
CONTINUOUS
 10
-1.105854
 20
-1.638976
  0
VERTEX
  8
PLAN_1
  6
CONTINUOUS
 10
-1.245016
 20
-1.638976
  0
VERTEX
  8
PLAN_1
  6
CONTINUOUS
 10
-1.245016
 20
-1.999087
  0
VERTEX
  8
PLAN_1
  6
CONTINUOUS
 10
-1.105854
 20
-1.999087
  0
SEQEND
  8
0
  0
POLYLINE
  8
PLAN_1
  6
CONTINUOUS
 66
     1
 40
0.008520
 41
0.008520
  0
VERTEX
  8
PLAN_1
  6
CONTINUOUS
 10
-1.245016
 20
-1.964441
  0
VERTEX
  8
PLAN_1
  6
CONTINUOUS
 10
-1.171744
 20
-1.964441
  0
VERTEX
  8
PLAN_1
  6
CONTINUOUS
 10
-1.171744
 20
-1.934906
  0
VERTEX
  8
PLAN_1
  6
CONTINUOUS
 10
-1.245016
 20
-1.934906
  0
SEQEND
  8
0
  0
POLYLINE
  8
PLAN_1
  6
CONTINUOUS
 66
     1
 40
0.008520
 41
0.008520
  0
VERTEX
  8
PLAN_1
  6
CONTINUOUS
 10
-1.270575
 20
-2.026350
  0
VERTEX
  8
PLAN_1
  6
CONTINUOUS
 10
-1.104720
 20
-2.026350
  0
VERTEX
  8
PLAN_1
  6
CONTINUOUS
 10
-1.104720
 20
-1.609441
  0
VERTEX
  8
PLAN_1
  6
CONTINUOUS
 10
-1.270575
 20
-1.609441
  0
SEQEND
  8
0
  0
POLYLINE
  8
PLAN_1
  6
CONTINUOUS
 66
     1
 40
0.008520
 41
0.008520
  0
VERTEX
  8
PLAN_1
  6
CONTINUOUS
 10
-0.374839
 20
-1.774728
  0
VERTEX
  8
PLAN_1
  6
CONTINUOUS
 10
-0.419713
 20
-1.774728
  0
VERTEX
  8
PLAN_1
  6
CONTINUOUS
 10
-0.419713
 20
0.520559
  0
SEQEND
  8
0
  0
POLYLINE
  8
PLAN_1
  6
CONTINUOUS
 66
     1
 40
0.008520
 41
0.008520
  0
VERTEX
  8
PLAN_1
  6
CONTINUOUS
 10
-0.374272
 20
-2.570496
  0
VERTEX
  8
PLAN_1
  6
CONTINUOUS
 10
-0.374272
 20
0.524535
  0
VERTEX
  8
PLAN_1
  6
CONTINUOUS
 10
-1.147319
 20
0.524535
  0
SEQEND
  8
0
  0
POLYLINE
  8
PLAN_1
  6
CONTINUOUS
 66
     1
 40
0.008520
 41
0.008520
  0
VERTEX
  8
PLAN_1
  6
CONTINUOUS
 10
-0.720185
 20
0.523969
  0
VERTEX
  8
PLAN_1
  6
CONTINUOUS
 10
-0.720185
 20
0.928953
  0
SEQEND
  8
0
  0
POLYLINE
  8
PLAN_1
  6
CONTINUOUS
 66
     1
 40
0.008520
 41
0.008520
  0
VERTEX
  8
PLAN_1
  6
CONTINUOUS
 10
-1.147890
 20
1.189094
  0
VERTEX
  8
PLAN_1
  6
CONTINUOUS
 10
-1.258650
 20
1.189094
  0
VERTEX
  8
PLAN_1
  6
CONTINUOUS
 10
-1.523906
 20
1.224311
  0
VERTEX
  8
PLAN_1
  6
CONTINUOUS
 10
-1.523906
 20
2.013831
  0
VERTEX
  8
PLAN_1
  6
CONTINUOUS
 10
-1.268303
 20
2.057567
  0
VERTEX
  8
PLAN_1
  6
CONTINUOUS
 10
0.272110
 20
2.058138
  0
VERTEX
  8
PLAN_1
  6
CONTINUOUS
 10
0.272110
 20
0.926681
  0
VERTEX
  8
PLAN_1
  6
CONTINUOUS
 10
-1.147890
 20
0.926681
  0
VERTEX
  8
PLAN_1
  6
CONTINUOUS
 10
-1.147890
 20
1.189094
  0
SEQEND
  8
0
  0
POLYLINE
  8
PLAN_1
  6
CONTINUOUS
 66
     1
 40
0.008520
 41
0.008520
  0
VERTEX
  8
PLAN_1
  6
CONTINUOUS
 10
-1.147890
 20
2.058138
  0
VERTEX
  8
PLAN_1
  6
CONTINUOUS
 10
-1.147890
 20
1.190232
  0
SEQEND
  8
0
  0
POLYLINE
  8
PLAN_1
  6
CONTINUOUS
 66
     1
 40
0.008520
 41
0.008520
  0
VERTEX
  8
PLAN_1
  6
CONTINUOUS
 10
-1.257512
 20
2.057567
  0
VERTEX
  8
PLAN_1
  6
CONTINUOUS
 10
-1.257512
 20
1.197614
  0
SEQEND
  8
0
  0
POLYLINE
  8
PLAN_1
  6
CONTINUOUS
 66
     1
 40
0.008520
 41
0.008520
  0
VERTEX
  8
PLAN_1
  6
CONTINUOUS
 10
-1.932295
 20
1.409480
  0
VERTEX
  8
PLAN_1
  6
CONTINUOUS
 10
-1.932295
 20
1.889441
  0
VERTEX
  8
PLAN_1
  6
CONTINUOUS
 10
-2.045898
 20
1.889441
  0
VERTEX
  8
PLAN_1
  6
CONTINUOUS
 10
-2.045898
 20
1.409480
  0
VERTEX
  8
PLAN_1
  6
CONTINUOUS
 10
-1.932295
 20
1.409480
  0
SEQEND
  8
0
  0
POLYLINE
  8
PLAN_1
  6
CONTINUOUS
 66
     1
 40
0.008520
 41
0.008520
  0
VERTEX
  8
PLAN_1
  6
CONTINUOUS
 10
-2.045327
 20
1.766752
  0
VERTEX
  8
PLAN_1
  6
CONTINUOUS
 10
-1.935138
 20
1.766752
  0
SEQEND
  8
0
  0
POLYLINE
  8
PLAN_1
  6
CONTINUOUS
 66
     1
 40
0.008520
 41
0.008520
  0
VERTEX
  8
PLAN_1
  6
CONTINUOUS
 10
-2.045327
 20
1.531598
  0
VERTEX
  8
PLAN_1
  6
CONTINUOUS
 10
-1.935138
 20
1.531598
  0
SEQEND
  8
0
  0
POLYLINE
  8
PLAN_1
  6
CONTINUOUS
 66
     1
 40
0.008520
 41
0.008520
  0
VERTEX
  8
PLAN_1
  6
CONTINUOUS
 10
-2.032264
 20
1.889441
  0
VERTEX
  8
PLAN_1
  6
CONTINUOUS
 10
-2.033402
 20
1.886598
  0
VERTEX
  8
PLAN_1
  6
CONTINUOUS
 10
-2.036807
 20
1.878650
  0
VERTEX
  8
PLAN_1
  6
CONTINUOUS
 10
-2.038512
 20
1.872969
  0
VERTEX
  8
PLAN_1
  6
CONTINUOUS
 10
-2.040783
 20
1.866154
  0
VERTEX
  8
PLAN_1
  6
CONTINUOUS
 10
-2.042488
 20
1.858768
  0
VERTEX
  8
PLAN_1
  6
CONTINUOUS
 10
-2.044193
 20
1.850815
  0
VERTEX
  8
PLAN_1
  6
CONTINUOUS
 10
-2.045327
 20
1.841728
  0
VERTEX
  8
PLAN_1
  6
CONTINUOUS
 10
-2.045898
 20
1.832071
  0
VERTEX
  8
PLAN_1
  6
CONTINUOUS
 10
-2.045898
 20
1.821846
  0
VERTEX
  8
PLAN_1
  6
CONTINUOUS
 10
-2.044760
 20
1.811055
  0
VERTEX
  8
PLAN_1
  6
CONTINUOUS
 10
-2.042488
 20
1.800264
  0
VERTEX
  8
PLAN_1
  6
CONTINUOUS
 10
-2.039650
 20
1.789472
  0
VERTEX
  8
PLAN_1
  6
CONTINUOUS
 10
-2.037945
 20
1.783791
  0
VERTEX
  8
PLAN_1
  6
CONTINUOUS
 10
-2.035102
 20
1.778110
  0
VERTEX
  8
PLAN_1
  6
CONTINUOUS
 10
-2.032831
 20
1.772433
  0
VERTEX
  8
PLAN_1
  6
CONTINUOUS
 10
-2.029425
 20
1.766752
  0
VERTEX
  8
PLAN_1
  6
CONTINUOUS
 10
-2.031130
 20
1.762209
  0
VERTEX
  8
PLAN_1
  6
CONTINUOUS
 10
-2.034535
 20
1.749713
  0
VERTEX
  8
PLAN_1
  6
CONTINUOUS
 10
-2.036807
 20
1.740622
  0
VERTEX
  8
PLAN_1
  6
CONTINUOUS
 10
-2.039079
 20
1.729264
  0
VERTEX
  8
PLAN_1
  6
CONTINUOUS
 10
-2.040783
 20
1.716201
  0
VERTEX
  8
PLAN_1
  6
CONTINUOUS
 10
-2.043055
 20
1.702000
  0
VERTEX
  8
PLAN_1
  6
CONTINUOUS
 10
-2.044193
 20
1.685528
  0
VERTEX
  8
PLAN_1
  6
CONTINUOUS
 10
-2.045327
 20
1.667921
  0
VERTEX
  8
PLAN_1
  6
CONTINUOUS
 10
-2.045898
 20
1.648606
  0
VERTEX
  8
PLAN_1
  6
CONTINUOUS
 10
-2.045327
 20
1.627591
  0
VERTEX
  8
PLAN_1
  6
CONTINUOUS
 10
-2.044193
 20
1.605441
  0
VERTEX
  8
PLAN_1
  6
CONTINUOUS
 10
-2.041350
 20
1.582154
  0
VERTEX
  8
PLAN_1
  6
CONTINUOUS
 10
-2.039650
 20
1.569657
  0
VERTEX
  8
PLAN_1
  6
CONTINUOUS
 10
-2.037945
 20
1.557161
  0
VERTEX
  8
PLAN_1
  6
CONTINUOUS
 10
-2.035102
 20
1.544665
  0
VERTEX
  8
PLAN_1
  6
CONTINUOUS
 10
-2.032264
 20
1.531598
  0
VERTEX
  8
PLAN_1
  6
CONTINUOUS
 10
-2.033969
 20
1.528760
  0
VERTEX
  8
PLAN_1
  6
CONTINUOUS
 10
-2.036807
 20
1.521374
  0
VERTEX
  8
PLAN_1
  6
CONTINUOUS
 10
-2.039079
 20
1.515697
  0
VERTEX
  8
PLAN_1
  6
CONTINUOUS
 10
-2.040783
 20
1.509449
  0
VERTEX
  8
PLAN_1
  6
CONTINUOUS
 10
-2.043055
 20
1.502063
  0
VERTEX
  8
PLAN_1
  6
CONTINUOUS
 10
-2.044193
 20
1.494110
  0
VERTEX
  8
PLAN_1
  6
CONTINUOUS
 10
-2.045327
 20
1.485024
  0
VERTEX
  8
PLAN_1
  6
CONTINUOUS
 10
-2.045898
 20
1.475366
  0
VERTEX
  8
PLAN_1
  6
CONTINUOUS
 10
-2.045898
 20
1.465713
  0
VERTEX
  8
PLAN_1
  6
CONTINUOUS
 10
-2.045327
 20
1.454921
  0
VERTEX
  8
PLAN_1
  6
CONTINUOUS
 10
-2.043055
 20
1.444126
  0
VERTEX
  8
PLAN_1
  6
CONTINUOUS
 10
-2.040217
 20
1.433335
  0
VERTEX
  8
PLAN_1
  6
CONTINUOUS
 10
-2.037945
 20
1.427657
  0
VERTEX
  8
PLAN_1
  6
CONTINUOUS
 10
-2.035673
 20
1.421976
  0
VERTEX
  8
PLAN_1
  6
CONTINUOUS
 10
-2.032831
 20
1.416295
  0
VERTEX
  8
PLAN_1
  6
CONTINUOUS
 10
-2.029992
 20
1.410614
  0
SEQEND
  8
0
  0
POLYLINE
  8
PLAN_1
  6
CONTINUOUS
 66
     1
 40
0.008520
 41
0.008520
  0
VERTEX
  8
PLAN_1
  6
CONTINUOUS
 10
-2.098720
 20
1.784358
  0
VERTEX
  8
PLAN_1
  6
CONTINUOUS
 10
-2.098720
 20
1.511720
  0
SEQEND
  8
0
  0
POLYLINE
  8
PLAN_1
  6
CONTINUOUS
 66
     1
 40
0.008520
 41
0.008520
  0
VERTEX
  8
PLAN_1
  6
CONTINUOUS
 10
-2.098720
 20
1.511720
  0
VERTEX
  8
PLAN_1
  6
CONTINUOUS
 10
-2.108378
 20
1.521374
  0
VERTEX
  8
PLAN_1
  6
CONTINUOUS
 10
-2.108378
 20
1.774138
  0
VERTEX
  8
PLAN_1
  6
CONTINUOUS
 10
-2.098720
 20
1.783224
  0
VERTEX
  8
PLAN_1
  6
CONTINUOUS
 10
-2.045898
 20
1.784358
  0
VERTEX
  8
PLAN_1
  6
CONTINUOUS
 10
-2.045898
 20
1.511720
  0
VERTEX
  8
PLAN_1
  6
CONTINUOUS
 10
-2.098720
 20
1.511720
  0
SEQEND
  8
0
  0
POLYLINE
  8
PLAN_1
  6
CONTINUOUS
 66
     1
 40
0.008520
 41
0.008520
  0
VERTEX
  8
PLAN_1
  6
CONTINUOUS
 10
-1.857319
 20
3.274224
  0
VERTEX
  8
PLAN_1
  6
CONTINUOUS
 10
-1.857319
 20
4.085898
  0
VERTEX
  8
PLAN_1
  6
CONTINUOUS
 10
-2.037378
 20
4.085898
  0
VERTEX
  8
PLAN_1
  6
CONTINUOUS
 10
-2.037378
 20
3.274224
  0
VERTEX
  8
PLAN_1
  6
CONTINUOUS
 10
-1.857319
 20
3.274224
  0
SEQEND
  8
0
  0
POLYLINE
  8
PLAN_1
  6
CONTINUOUS
 66
     1
 40
0.008520
 41
0.008520
  0
VERTEX
  8
PLAN_1
  6
CONTINUOUS
 10
-2.065209
 20
3.450303
  0
VERTEX
  8
PLAN_1
  6
CONTINUOUS
 10
-2.065209
 20
3.900728
  0
VERTEX
  8
PLAN_1
  6
CONTINUOUS
 10
-2.171992
 20
3.900728
  0
VERTEX
  8
PLAN_1
  6
CONTINUOUS
 10
-2.171992
 20
3.450303
  0
VERTEX
  8
PLAN_1
  6
CONTINUOUS
 10
-2.065209
 20
3.450303
  0
SEQEND
  8
0
  0
POLYLINE
  8
PLAN_1
  6
CONTINUOUS
 66
     1
 40
0.008520
 41
0.008520
  0
VERTEX
  8
PLAN_1
  6
CONTINUOUS
 10
-2.171425
 20
3.785425
  0
VERTEX
  8
PLAN_1
  6
CONTINUOUS
 10
-2.068614
 20
3.785425
  0
SEQEND
  8
0
  0
POLYLINE
  8
PLAN_1
  6
CONTINUOUS
 66
     1
 40
0.008520
 41
0.008520
  0
VERTEX
  8
PLAN_1
  6
CONTINUOUS
 10
-2.171425
 20
3.565039
  0
VERTEX
  8
PLAN_1
  6
CONTINUOUS
 10
-2.068614
 20
3.565039
  0
SEQEND
  8
0
  0
POLYLINE
  8
PLAN_1
  6
CONTINUOUS
 66
     1
 40
0.008520
 41
0.008520
  0
VERTEX
  8
PLAN_1
  6
CONTINUOUS
 10
-2.065776
 20
3.487791
  0
VERTEX
  8
PLAN_1
  6
CONTINUOUS
 10
-2.065776
 20
3.868350
  0
VERTEX
  8
PLAN_1
  6
CONTINUOUS
 10
-2.036807
 20
3.868350
  0
VERTEX
  8
PLAN_1
  6
CONTINUOUS
 10
-2.036807
 20
3.487791
  0
VERTEX
  8
PLAN_1
  6
CONTINUOUS
 10
-2.065776
 20
3.487791
  0
SEQEND
  8
0
  0
POLYLINE
  8
PLAN_1
  6
CONTINUOUS
 66
     1
 40
0.008520
 41
0.008520
  0
VERTEX
  8
PLAN_1
  6
CONTINUOUS
 10
-1.857319
 20
3.487224
  0
VERTEX
  8
PLAN_1
  6
CONTINUOUS
 10
-1.857319
 20
3.867783
  0
VERTEX
  8
PLAN_1
  6
CONTINUOUS
 10
-1.789728
 20
3.867783
  0
VERTEX
  8
PLAN_1
  6
CONTINUOUS
 10
-1.789728
 20
3.487224
  0
VERTEX
  8
PLAN_1
  6
CONTINUOUS
 10
-1.857319
 20
3.487224
  0
SEQEND
  8
0
  0
POLYLINE
  8
PLAN_1
  6
CONTINUOUS
 66
     1
 40
0.008520
 41
0.008520
  0
VERTEX
  8
PLAN_1
  6
CONTINUOUS
 10
-2.159496
 20
3.900161
  0
VERTEX
  8
PLAN_1
  6
CONTINUOUS
 10
-2.160634
 20
3.897890
  0
VERTEX
  8
PLAN_1
  6
CONTINUOUS
 10
-2.163472
 20
3.890504
  0
VERTEX
  8
PLAN_1
  6
CONTINUOUS
 10
-2.165177
 20
3.884823
  0
VERTEX
  8
PLAN_1
  6
CONTINUOUS
 10
-2.167449
 20
3.878575
  0
VERTEX
  8
PLAN_1
  6
CONTINUOUS
 10
-2.169154
 20
3.871760
  0
VERTEX
  8
PLAN_1
  6
CONTINUOUS
 10
-2.170287
 20
3.863807
  0
VERTEX
  8
PLAN_1
  6
CONTINUOUS
 10
-2.171425
 20
3.855287
  0
VERTEX
  8
PLAN_1
  6
CONTINUOUS
 10
-2.171992
 20
3.846768
  0
VERTEX
  8
PLAN_1
  6
CONTINUOUS
 10
-2.171992
 20
3.837110
  0
VERTEX
  8
PLAN_1
  6
CONTINUOUS
 10
-2.170854
 20
3.826890
  0
VERTEX
  8
PLAN_1
  6
CONTINUOUS
 10
-2.169154
 20
3.816665
  0
VERTEX
  8
PLAN_1
  6
CONTINUOUS
 10
-2.166311
 20
3.806441
  0
VERTEX
  8
PLAN_1
  6
CONTINUOUS
 10
-2.164606
 20
3.801327
  0
VERTEX
  8
PLAN_1
  6
CONTINUOUS
 10
-2.162335
 20
3.795650
  0
VERTEX
  8
PLAN_1
  6
CONTINUOUS
 10
-2.160063
 20
3.790535
  0
VERTEX
  8
PLAN_1
  6
CONTINUOUS
 10
-2.156657
 20
3.785425
  0
VERTEX
  8
PLAN_1
  6
CONTINUOUS
 10
-2.158358
 20
3.780882
  0
VERTEX
  8
PLAN_1
  6
CONTINUOUS
 10
-2.161768
 20
3.769520
  0
VERTEX
  8
PLAN_1
  6
CONTINUOUS
 10
-2.163472
 20
3.760433
  0
VERTEX
  8
PLAN_1
  6
CONTINUOUS
 10
-2.165744
 20
3.750209
  0
VERTEX
  8
PLAN_1
  6
CONTINUOUS
 10
-2.167449
 20
3.738280
  0
VERTEX
  8
PLAN_1
  6
CONTINUOUS
 10
-2.169154
 20
3.724650
  0
VERTEX
  8
PLAN_1
  6
CONTINUOUS
 10
-2.170854
 20
3.709311
  0
VERTEX
  8
PLAN_1
  6
CONTINUOUS
 10
-2.171992
 20
3.692272
  0
VERTEX
  8
PLAN_1
  6
CONTINUOUS
 10
-2.171992
 20
3.674094
  0
VERTEX
  8
PLAN_1
  6
CONTINUOUS
 10
-2.171992
 20
3.654783
  0
VERTEX
  8
PLAN_1
  6
CONTINUOUS
 10
-2.170287
 20
3.633768
  0
VERTEX
  8
PLAN_1
  6
CONTINUOUS
 10
-2.168016
 20
3.612185
  0
VERTEX
  8
PLAN_1
  6
CONTINUOUS
 10
-2.164606
 20
3.588898
  0
VERTEX
  8
PLAN_1
  6
CONTINUOUS
 10
-2.159496
 20
3.564472
  0
VERTEX
  8
PLAN_1
  6
CONTINUOUS
 10
-2.161201
 20
3.562201
  0
VERTEX
  8
PLAN_1
  6
CONTINUOUS
 10
-2.164039
 20
3.554815
  0
VERTEX
  8
PLAN_1
  6
CONTINUOUS
 10
-2.165744
 20
3.549705
  0
VERTEX
  8
PLAN_1
  6
CONTINUOUS
 10
-2.167449
 20
3.544024
  0
VERTEX
  8
PLAN_1
  6
CONTINUOUS
 10
-2.169154
 20
3.536642
  0
VERTEX
  8
PLAN_1
  6
CONTINUOUS
 10
-2.170854
 20
3.529256
  0
VERTEX
  8
PLAN_1
  6
CONTINUOUS
 10
-2.171992
 20
3.520736
  0
VERTEX
  8
PLAN_1
  6
CONTINUOUS
 10
-2.172559
 20
3.512217
  0
VERTEX
  8
PLAN_1
  6
CONTINUOUS
 10
-2.172559
 20
3.502559
  0
VERTEX
  8
PLAN_1
  6
CONTINUOUS
 10
-2.171425
 20
3.492906
  0
VERTEX
  8
PLAN_1
  6
CONTINUOUS
 10
-2.169720
 20
3.482681
  0
VERTEX
  8
PLAN_1
  6
CONTINUOUS
 10
-2.166882
 20
3.472457
  0
VERTEX
  8
PLAN_1
  6
CONTINUOUS
 10
-2.165177
 20
3.467343
  0
VERTEX
  8
PLAN_1
  6
CONTINUOUS
 10
-2.162906
 20
3.461665
  0
VERTEX
  8
PLAN_1
  6
CONTINUOUS
 10
-2.160063
 20
3.456551
  0
VERTEX
  8
PLAN_1
  6
CONTINUOUS
 10
-2.157224
 20
3.451441
  0
SEQEND
  8
0
  0
POLYLINE
  8
PLAN_1
  6
CONTINUOUS
 66
     1
 40
0.008520
 41
0.008520
  0
VERTEX
  8
PLAN_1
  6
CONTINUOUS
 10
-1.636937
 20
3.549138
  0
VERTEX
  8
PLAN_1
  6
CONTINUOUS
 10
-1.636937
 20
3.863807
  0
VERTEX
  8
PLAN_1
  6
CONTINUOUS
 10
-1.711343
 20
3.863807
  0
VERTEX
  8
PLAN_1
  6
CONTINUOUS
 10
-1.711343
 20
3.549138
  0
VERTEX
  8
PLAN_1
  6
CONTINUOUS
 10
-1.636937
 20
3.549138
  0
SEQEND
  8
0
  0
POLYLINE
  8
PLAN_1
  6
CONTINUOUS
 66
     1
 40
0.008520
 41
0.008520
  0
VERTEX
  8
PLAN_1
  6
CONTINUOUS
 10
-1.711343
 20
3.782016
  0
VERTEX
  8
PLAN_1
  6
CONTINUOUS
 10
-1.636937
 20
3.782016
  0
SEQEND
  8
0
  0
POLYLINE
  8
PLAN_1
  6
CONTINUOUS
 66
     1
 40
0.008520
 41
0.008520
  0
VERTEX
  8
PLAN_1
  6
CONTINUOUS
 10
-1.711343
 20
3.631496
  0
VERTEX
  8
PLAN_1
  6
CONTINUOUS
 10
-1.636937
 20
3.631496
  0
SEQEND
  8
0
  0
POLYLINE
  8
PLAN_1
  6
CONTINUOUS
 66
     1
 40
0.008520
 41
0.008520
  0
VERTEX
  8
PLAN_1
  6
CONTINUOUS
 10
-1.702256
 20
3.863807
  0
VERTEX
  8
PLAN_1
  6
CONTINUOUS
 10
-1.703394
 20
3.862102
  0
VERTEX
  8
PLAN_1
  6
CONTINUOUS
 10
-1.705094
 20
3.856992
  0
VERTEX
  8
PLAN_1
  6
CONTINUOUS
 10
-1.707937
 20
3.849039
  0
VERTEX
  8
PLAN_1
  6
CONTINUOUS
 10
-1.709642
 20
3.838248
  0
VERTEX
  8
PLAN_1
  6
CONTINUOUS
 10
-1.710776
 20
3.832567
  0
VERTEX
  8
PLAN_1
  6
CONTINUOUS
 10
-1.711343
 20
3.825752
  0
VERTEX
  8
PLAN_1
  6
CONTINUOUS
 10
-1.711343
 20
3.819504
  0
VERTEX
  8
PLAN_1
  6
CONTINUOUS
 10
-1.710776
 20
3.812118
  0
VERTEX
  8
PLAN_1
  6
CONTINUOUS
 10
-1.709642
 20
3.804736
  0
VERTEX
  8
PLAN_1
  6
CONTINUOUS
 10
-1.707937
 20
3.797350
  0
VERTEX
  8
PLAN_1
  6
CONTINUOUS
 10
-1.705665
 20
3.789969
  0
VERTEX
  8
PLAN_1
  6
CONTINUOUS
 10
-1.702256
 20
3.782583
  0
VERTEX
  8
PLAN_1
  6
CONTINUOUS
 10
-1.703394
 20
3.779177
  0
VERTEX
  8
PLAN_1
  6
CONTINUOUS
 10
-1.705094
 20
3.770087
  0
VERTEX
  8
PLAN_1
  6
CONTINUOUS
 10
-1.707366
 20
3.755319
  0
VERTEX
  8
PLAN_1
  6
CONTINUOUS
 10
-1.709642
 20
3.736575
  0
VERTEX
  8
PLAN_1
  6
CONTINUOUS
 10
-1.710776
 20
3.725783
  0
VERTEX
  8
PLAN_1
  6
CONTINUOUS
 10
-1.710776
 20
3.713854
  0
VERTEX
  8
PLAN_1
  6
CONTINUOUS
 10
-1.710776
 20
3.701358
  0
VERTEX
  8
PLAN_1
  6
CONTINUOUS
 10
-1.710776
 20
3.688295
  0
VERTEX
  8
PLAN_1
  6
CONTINUOUS
 10
-1.709642
 20
3.674665
  0
VERTEX
  8
PLAN_1
  6
CONTINUOUS
 10
-1.707937
 20
3.660465
  0
VERTEX
  8
PLAN_1
  6
CONTINUOUS
 10
-1.705094
 20
3.645697
  0
VERTEX
  8
PLAN_1
  6
CONTINUOUS
 10
-1.702256
 20
3.630358
  0
VERTEX
  8
PLAN_1
  6
CONTINUOUS
 10
-1.702823
 20
3.628657
  0
VERTEX
  8
PLAN_1
  6
CONTINUOUS
 10
-1.705094
 20
3.623543
  0
VERTEX
  8
PLAN_1
  6
CONTINUOUS
 10
-1.707366
 20
3.615591
  0
VERTEX
  8
PLAN_1
  6
CONTINUOUS
 10
-1.709642
 20
3.604799
  0
VERTEX
  8
PLAN_1
  6
CONTINUOUS
 10
-1.710209
 20
3.599118
  0
VERTEX
  8
PLAN_1
  6
CONTINUOUS
 10
-1.710776
 20
3.592303
  0
VERTEX
  8
PLAN_1
  6
CONTINUOUS
 10
-1.710776
 20
3.586055
  0
VERTEX
  8
PLAN_1
  6
CONTINUOUS
 10
-1.710209
 20
3.578673
  0
VERTEX
  8
PLAN_1
  6
CONTINUOUS
 10
-1.709642
 20
3.571287
  0
VERTEX
  8
PLAN_1
  6
CONTINUOUS
 10
-1.707937
 20
3.563906
  0
VERTEX
  8
PLAN_1
  6
CONTINUOUS
 10
-1.705094
 20
3.556520
  0
VERTEX
  8
PLAN_1
  6
CONTINUOUS
 10
-1.702256
 20
3.549138
  0
SEQEND
  8
0
  0
POLYLINE
  8
PLAN_1
  6
CONTINUOUS
 66
     1
 40
0.008520
 41
0.008520
  0
VERTEX
  8
PLAN_1
  6
CONTINUOUS
 10
-1.646024
 20
3.549705
  0
VERTEX
  8
PLAN_1
  6
CONTINUOUS
 10
-1.645457
 20
3.551409
  0
VERTEX
  8
PLAN_1
  6
CONTINUOUS
 10
-1.643185
 20
3.557087
  0
VERTEX
  8
PLAN_1
  6
CONTINUOUS
 10
-1.640913
 20
3.565039
  0
VERTEX
  8
PLAN_1
  6
CONTINUOUS
 10
-1.638642
 20
3.575264
  0
VERTEX
  8
PLAN_1
  6
CONTINUOUS
 10
-1.638071
 20
3.581512
  0
VERTEX
  8
PLAN_1
  6
CONTINUOUS
 10
-1.637504
 20
3.587760
  0
VERTEX
  8
PLAN_1
  6
CONTINUOUS
 10
-1.637504
 20
3.594575
  0
VERTEX
  8
PLAN_1
  6
CONTINUOUS
 10
-1.637504
 20
3.601394
  0
VERTEX
  8
PLAN_1
  6
CONTINUOUS
 10
-1.638642
 20
3.608776
  0
VERTEX
  8
PLAN_1
  6
CONTINUOUS
 10
-1.640343
 20
3.616161
  0
VERTEX
  8
PLAN_1
  6
CONTINUOUS
 10
-1.642614
 20
3.623543
  0
VERTEX
  8
PLAN_1
  6
CONTINUOUS
 10
-1.646024
 20
3.631496
  0
SEQEND
  8
0
  0
POLYLINE
  8
PLAN_1
  6
CONTINUOUS
 66
     1
 40
0.008520
 41
0.008520
  0
VERTEX
  8
PLAN_1
  6
CONTINUOUS
 10
-1.645457
 20
3.782583
  0
VERTEX
  8
PLAN_1
  6
CONTINUOUS
 10
-1.644319
 20
3.784287
  0
VERTEX
  8
PLAN_1
  6
CONTINUOUS
 10
-1.642614
 20
3.789402
  0
VERTEX
  8
PLAN_1
  6
CONTINUOUS
 10
-1.639776
 20
3.797350
  0
VERTEX
  8
PLAN_1
  6
CONTINUOUS
 10
-1.638071
 20
3.808146
  0
VERTEX
  8
PLAN_1
  6
CONTINUOUS
 10
-1.636937
 20
3.813823
  0
VERTEX
  8
PLAN_1
  6
CONTINUOUS
 10
-1.636366
 20
3.820071
  0
VERTEX
  8
PLAN_1
  6
CONTINUOUS
 10
-1.636366
 20
3.826890
  0
VERTEX
  8
PLAN_1
  6
CONTINUOUS
 10
-1.636937
 20
3.834272
  0
VERTEX
  8
PLAN_1
  6
CONTINUOUS
 10
-1.638071
 20
3.841087
  0
VERTEX
  8
PLAN_1
  6
CONTINUOUS
 10
-1.639776
 20
3.848472
  0
VERTEX
  8
PLAN_1
  6
CONTINUOUS
 10
-1.642047
 20
3.856425
  0
VERTEX
  8
PLAN_1
  6
CONTINUOUS
 10
-1.645457
 20
3.863807
  0
SEQEND
  8
0
  0
POLYLINE
  8
PLAN_1
  6
CONTINUOUS
 66
     1
 40
0.008520
 41
0.008520
  0
VERTEX
  8
PLAN_1
  6
CONTINUOUS
 10
-1.645457
 20
3.631496
  0
VERTEX
  8
PLAN_1
  6
CONTINUOUS
 10
-1.644890
 20
3.634335
  0
VERTEX
  8
PLAN_1
  6
CONTINUOUS
 10
-1.642614
 20
3.643425
  0
VERTEX
  8
PLAN_1
  6
CONTINUOUS
 10
-1.640343
 20
3.658193
  0
VERTEX
  8
PLAN_1
  6
CONTINUOUS
 10
-1.638071
 20
3.676937
  0
VERTEX
  8
PLAN_1
  6
CONTINUOUS
 10
-1.637504
 20
3.687728
  0
VERTEX
  8
PLAN_1
  6
CONTINUOUS
 10
-1.636937
 20
3.699657
  0
VERTEX
  8
PLAN_1
  6
CONTINUOUS
 10
-1.636937
 20
3.712154
  0
VERTEX
  8
PLAN_1
  6
CONTINUOUS
 10
-1.637504
 20
3.725217
  0
VERTEX
  8
PLAN_1
  6
CONTINUOUS
 10
-1.638642
 20
3.739417
  0
VERTEX
  8
PLAN_1
  6
CONTINUOUS
 10
-1.640343
 20
3.753614
  0
VERTEX
  8
PLAN_1
  6
CONTINUOUS
 10
-1.642614
 20
3.768386
  0
VERTEX
  8
PLAN_1
  6
CONTINUOUS
 10
-1.646024
 20
3.783154
  0
SEQEND
  8
0
  0
POLYLINE
  8
PLAN_1
  6
CONTINUOUS
 66
     1
 40
0.008520
 41
0.008520
  0
VERTEX
  8
PLAN_1
  6
CONTINUOUS
 10
-1.711913
 20
1.992815
  0
VERTEX
  8
PLAN_1
  6
CONTINUOUS
 10
-1.712480
 20
1.992815
  0
SEQEND
  8
0
  0
POLYLINE
  8
PLAN_1
  6
CONTINUOUS
 66
     1
 40
0.008520
 41
0.008520
  0
VERTEX
  8
PLAN_1
  6
CONTINUOUS
 10
-1.638071
 20
1.241350
  0
VERTEX
  8
PLAN_1
  6
CONTINUOUS
 10
-1.523906
 20
1.241350
  0
VERTEX
  8
PLAN_1
  6
CONTINUOUS
 10
-1.523906
 20
1.992815
  0
VERTEX
  8
PLAN_1
  6
CONTINUOUS
 10
-1.638071
 20
1.992815
  0
SEQEND
  8
0
  0
POLYLINE
  8
PLAN_1
  6
CONTINUOUS
 66
     1
 40
0.008520
 41
0.008520
  0
VERTEX
  8
PLAN_1
  6
CONTINUOUS
 10
-1.712480
 20
1.241350
  0
VERTEX
  8
PLAN_1
  6
CONTINUOUS
 10
-1.711913
 20
1.241350
  0
SEQEND
  8
0
  0
POLYLINE
  8
PLAN_1
  6
CONTINUOUS
 66
     1
 40
0.008520
 41
0.008520
  0
VERTEX
  8
PLAN_1
  6
CONTINUOUS
 10
-1.786319
 20
1.992815
  0
VERTEX
  8
PLAN_1
  6
CONTINUOUS
 10
-1.868681
 20
1.992815
  0
VERTEX
  8
PLAN_1
  6
CONTINUOUS
 10
-1.868681
 20
1.241350
  0
VERTEX
  8
PLAN_1
  6
CONTINUOUS
 10
-1.786319
 20
1.241350
  0
SEQEND
  8
0
  0
POLYLINE
  8
PLAN_1
  6
CONTINUOUS
 66
     1
 40
0.008520
 41
0.008520
  0
VERTEX
  8
PLAN_1
  6
CONTINUOUS
 10
-1.786319
 20
1.992815
  0
VERTEX
  8
PLAN_1
  6
CONTINUOUS
 10
-1.786319
 20
1.241350
  0
SEQEND
  8
0
  0
POLYLINE
  8
PLAN_1
  6
CONTINUOUS
 66
     1
 40
0.008520
 41
0.008520
  0
VERTEX
  8
PLAN_1
  6
CONTINUOUS
 10
-1.712480
 20
1.992815
  0
VERTEX
  8
PLAN_1
  6
CONTINUOUS
 10
-1.712480
 20
1.241350
  0
SEQEND
  8
0
  0
POLYLINE
  8
PLAN_1
  6
CONTINUOUS
 66
     1
 40
0.008520
 41
0.008520
  0
VERTEX
  8
PLAN_1
  6
CONTINUOUS
 10
-1.786319
 20
1.241350
  0
VERTEX
  8
PLAN_1
  6
CONTINUOUS
 10
-1.786319
 20
0.193961
  0
VERTEX
  8
PLAN_1
  6
CONTINUOUS
 10
-1.712480
 20
0.193961
  0
VERTEX
  8
PLAN_1
  6
CONTINUOUS
 10
-1.712480
 20
1.241350
  0
SEQEND
  8
0
  0
POLYLINE
  8
PLAN_1
  6
CONTINUOUS
 66
     1
 40
0.008520
 41
0.008520
  0
VERTEX
  8
PLAN_1
  6
CONTINUOUS
 10
-1.786319
 20
1.992815
  0
VERTEX
  8
PLAN_1
  6
CONTINUOUS
 10
-1.786319
 20
3.876870
  0
VERTEX
  8
PLAN_1
  6
CONTINUOUS
 10
-1.712480
 20
3.876870
  0
VERTEX
  8
PLAN_1
  6
CONTINUOUS
 10
-1.712480
 20
1.992815
  0
SEQEND
  8
0
  0
POLYLINE
  8
PLAN_1
  6
CONTINUOUS
 66
     1
 40
0.008520
 41
0.008520
  0
VERTEX
  8
PLAN_1
  6
CONTINUOUS
 10
-1.711913
 20
1.241350
  0
VERTEX
  8
PLAN_1
  6
CONTINUOUS
 10
-1.711913
 20
1.166374
  0
VERTEX
  8
PLAN_1
  6
CONTINUOUS
 10
-1.638071
 20
1.166374
  0
VERTEX
  8
PLAN_1
  6
CONTINUOUS
 10
-1.638071
 20
1.241350
  0
SEQEND
  8
0
  0
POLYLINE
  8
PLAN_1
  6
CONTINUOUS
 66
     1
 40
0.008520
 41
0.008520
  0
VERTEX
  8
PLAN_1
  6
CONTINUOUS
 10
-1.711913
 20
1.992815
  0
VERTEX
  8
PLAN_1
  6
CONTINUOUS
 10
-1.711913
 20
1.241350
  0
SEQEND
  8
0
  0
POLYLINE
  8
PLAN_1
  6
CONTINUOUS
 66
     1
 40
0.008520
 41
0.008520
  0
VERTEX
  8
PLAN_1
  6
CONTINUOUS
 10
-1.638071
 20
1.992815
  0
VERTEX
  8
PLAN_1
  6
CONTINUOUS
 10
-1.638071
 20
1.241350
  0
SEQEND
  8
0
  0
POLYLINE
  8
PLAN_1
  6
CONTINUOUS
 66
     1
 40
0.008520
 41
0.008520
  0
VERTEX
  8
PLAN_1
  6
CONTINUOUS
 10
-1.638071
 20
1.992815
  0
VERTEX
  8
PLAN_1
  6
CONTINUOUS
 10
-1.638071
 20
2.084831
  0
VERTEX
  8
PLAN_1
  6
CONTINUOUS
 10
-1.711913
 20
2.084831
  0
VERTEX
  8
PLAN_1
  6
CONTINUOUS
 10
-1.711913
 20
1.992815
  0
SEQEND
  8
0
  0
POLYLINE
  8
PLAN_1
  6
CONTINUOUS
 66
     1
 40
0.008520
 41
0.008520
  0
VERTEX
  8
PLAN_1
  6
CONTINUOUS
 10
-2.152681
 20
2.003039
  0
VERTEX
  8
PLAN_1
  6
CONTINUOUS
 10
-2.152681
 20
2.062681
  0
VERTEX
  8
PLAN_1
  6
CONTINUOUS
 10
-1.789728
 20
2.062681
  0
VERTEX
  8
PLAN_1
  6
CONTINUOUS
 10
-1.789728
 20
2.003039
  0
VERTEX
  8
PLAN_1
  6
CONTINUOUS
 10
-2.152681
 20
2.003039
  0
SEQEND
  8
0
  0
POLYLINE
  8
PLAN_1
  6
CONTINUOUS
 66
     1
 40
0.008520
 41
0.008520
  0
VERTEX
  8
PLAN_1
  6
CONTINUOUS
 10
-1.868681
 20
1.288496
  0
VERTEX
  8
PLAN_1
  6
CONTINUOUS
 10
-1.868681
 20
1.972937
  0
VERTEX
  8
PLAN_1
  6
CONTINUOUS
 10
-1.930024
 20
1.972937
  0
VERTEX
  8
PLAN_1
  6
CONTINUOUS
 10
-1.930024
 20
1.288496
  0
VERTEX
  8
PLAN_1
  6
CONTINUOUS
 10
-1.868681
 20
1.288496
  0
SEQEND
  8
0
  0
POLYLINE
  8
PLAN_1
 62
     5
  6
CONTINUOUS
 66
     1
 40
0.003000
 41
0.003000
  0
VERTEX
  8
PLAN_1
 62
     5
  6
CONTINUOUS
 10
-1.426209
 20
3.450870
  0
VERTEX
  8
PLAN_1
 62
     5
  6
CONTINUOUS
 10
-1.417689
 20
3.450870
  0
SEQEND
  8
0
  0
POLYLINE
  8
PLAN_1
 62
     5
  6
CONTINUOUS
 66
     1
 40
0.003000
 41
0.003000
  0
VERTEX
  8
PLAN_1
 62
     5
  6
CONTINUOUS
 10
-1.409169
 20
3.450870
  0
VERTEX
  8
PLAN_1
 62
     5
  6
CONTINUOUS
 10
-1.401217
 20
3.450870
  0
SEQEND
  8
0
  0
POLYLINE
  8
PLAN_1
 62
     5
  6
CONTINUOUS
 66
     1
 40
0.003000
 41
0.003000
  0
VERTEX
  8
PLAN_1
 62
     5
  6
CONTINUOUS
 10
-1.392697
 20
3.450870
  0
VERTEX
  8
PLAN_1
 62
     5
  6
CONTINUOUS
 10
-1.384177
 20
3.450870
  0
SEQEND
  8
0
  0
POLYLINE
  8
PLAN_1
 62
     5
  6
CONTINUOUS
 66
     1
 40
0.003000
 41
0.003000
  0
VERTEX
  8
PLAN_1
 62
     5
  6
CONTINUOUS
 10
-1.376224
 20
3.450870
  0
VERTEX
  8
PLAN_1
 62
     5
  6
CONTINUOUS
 10
-1.367705
 20
3.450870
  0
SEQEND
  8
0
  0
POLYLINE
  8
PLAN_1
 62
     5
  6
CONTINUOUS
 66
     1
 40
0.003000
 41
0.003000
  0
VERTEX
  8
PLAN_1
 62
     5
  6
CONTINUOUS
 10
-1.359185
 20
3.450870
  0
VERTEX
  8
PLAN_1
 62
     5
  6
CONTINUOUS
 10
-1.351232
 20
3.450870
  0
SEQEND
  8
0
  0
POLYLINE
  8
PLAN_1
 62
     5
  6
CONTINUOUS
 66
     1
 40
0.003000
 41
0.003000
  0
VERTEX
  8
PLAN_1
 62
     5
  6
CONTINUOUS
 10
-1.342713
 20
3.450870
  0
VERTEX
  8
PLAN_1
 62
     5
  6
CONTINUOUS
 10
-1.334193
 20
3.450870
  0
SEQEND
  8
0
  0
POLYLINE
  8
PLAN_1
 62
     5
  6
CONTINUOUS
 66
     1
 40
0.003000
 41
0.003000
  0
VERTEX
  8
PLAN_1
 62
     5
  6
CONTINUOUS
 10
-1.326240
 20
3.450870
  0
VERTEX
  8
PLAN_1
 62
     5
  6
CONTINUOUS
 10
-1.318854
 20
3.450870
  0
VERTEX
  8
PLAN_1
 62
     5
  6
CONTINUOUS
 10
-1.318854
 20
3.452575
  0
SEQEND
  8
0
  0
POLYLINE
  8
PLAN_1
 62
     5
  6
CONTINUOUS
 66
     1
 40
0.003000
 41
0.003000
  0
VERTEX
  8
PLAN_1
 62
     5
  6
CONTINUOUS
 10
-1.318854
 20
3.461094
  0
VERTEX
  8
PLAN_1
 62
     5
  6
CONTINUOUS
 10
-1.318854
 20
3.469047
  0
SEQEND
  8
0
  0
POLYLINE
  8
PLAN_1
 62
     5
  6
CONTINUOUS
 66
     1
 40
0.003000
 41
0.003000
  0
VERTEX
  8
PLAN_1
 62
     5
  6
CONTINUOUS
 10
-1.318854
 20
3.477567
  0
VERTEX
  8
PLAN_1
 62
     5
  6
CONTINUOUS
 10
-1.318854
 20
3.486087
  0
SEQEND
  8
0
  0
POLYLINE
  8
PLAN_1
 62
     5
  6
CONTINUOUS
 66
     1
 40
0.003000
 41
0.003000
  0
VERTEX
  8
PLAN_1
 62
     5
  6
CONTINUOUS
 10
-1.318854
 20
3.494039
  0
VERTEX
  8
PLAN_1
 62
     5
  6
CONTINUOUS
 10
-1.318854
 20
3.502559
  0
SEQEND
  8
0
  0
POLYLINE
  8
PLAN_1
 62
     5
  6
CONTINUOUS
 66
     1
 40
0.003000
 41
0.003000
  0
VERTEX
  8
PLAN_1
 62
     5
  6
CONTINUOUS
 10
-1.318854
 20
3.511079
  0
VERTEX
  8
PLAN_1
 62
     5
  6
CONTINUOUS
 10
-1.318854
 20
3.519031
  0
SEQEND
  8
0
  0
POLYLINE
  8
PLAN_1
 62
     5
  6
CONTINUOUS
 66
     1
 40
0.003000
 41
0.003000
  0
VERTEX
  8
PLAN_1
 62
     5
  6
CONTINUOUS
 10
-1.318854
 20
3.527551
  0
VERTEX
  8
PLAN_1
 62
     5
  6
CONTINUOUS
 10
-1.318854
 20
3.536071
  0
SEQEND
  8
0
  0
POLYLINE
  8
PLAN_1
 62
     5
  6
CONTINUOUS
 66
     1
 40
0.003000
 41
0.003000
  0
VERTEX
  8
PLAN_1
 62
     5
  6
CONTINUOUS
 10
-1.318854
 20
3.544024
  0
VERTEX
  8
PLAN_1
 62
     5
  6
CONTINUOUS
 10
-1.318854
 20
3.552543
  0
SEQEND
  8
0
  0
POLYLINE
  8
PLAN_1
 62
     5
  6
CONTINUOUS
 66
     1
 40
0.003000
 41
0.003000
  0
VERTEX
  8
PLAN_1
 62
     5
  6
CONTINUOUS
 10
-1.318854
 20
3.561063
  0
VERTEX
  8
PLAN_1
 62
     5
  6
CONTINUOUS
 10
-1.318854
 20
3.569016
  0
SEQEND
  8
0
  0
POLYLINE
  8
PLAN_1
 62
     5
  6
CONTINUOUS
 66
     1
 40
0.003000
 41
0.003000
  0
VERTEX
  8
PLAN_1
 62
     5
  6
CONTINUOUS
 10
-1.318854
 20
3.577535
  0
VERTEX
  8
PLAN_1
 62
     5
  6
CONTINUOUS
 10
-1.318854
 20
3.586055
  0
SEQEND
  8
0
  0
POLYLINE
  8
PLAN_1
 62
     5
  6
CONTINUOUS
 66
     1
 40
0.003000
 41
0.003000
  0
VERTEX
  8
PLAN_1
 62
     5
  6
CONTINUOUS
 10
-1.318854
 20
3.594008
  0
VERTEX
  8
PLAN_1
 62
     5
  6
CONTINUOUS
 10
-1.318854
 20
3.602528
  0
SEQEND
  8
0
  0
POLYLINE
  8
PLAN_1
 62
     5
  6
CONTINUOUS
 66
     1
 40
0.003000
 41
0.003000
  0
VERTEX
  8
PLAN_1
 62
     5
  6
CONTINUOUS
 10
-1.318854
 20
3.611047
  0
VERTEX
  8
PLAN_1
 62
     5
  6
CONTINUOUS
 10
-1.318854
 20
3.619000
  0
SEQEND
  8
0
  0
POLYLINE
  8
PLAN_1
 62
     5
  6
CONTINUOUS
 66
     1
 40
0.003000
 41
0.003000
  0
VERTEX
  8
PLAN_1
 62
     5
  6
CONTINUOUS
 10
-1.318854
 20
3.627520
  0
VERTEX
  8
PLAN_1
 62
     5
  6
CONTINUOUS
 10
-1.318854
 20
3.636039
  0
SEQEND
  8
0
  0
POLYLINE
  8
PLAN_1
 62
     5
  6
CONTINUOUS
 66
     1
 40
0.003000
 41
0.003000
  0
VERTEX
  8
PLAN_1
 62
     5
  6
CONTINUOUS
 10
-1.318854
 20
3.643992
  0
VERTEX
  8
PLAN_1
 62
     5
  6
CONTINUOUS
 10
-1.318854
 20
3.652512
  0
SEQEND
  8
0
  0
POLYLINE
  8
PLAN_1
 62
     5
  6
CONTINUOUS
 66
     1
 40
0.003000
 41
0.003000
  0
VERTEX
  8
PLAN_1
 62
     5
  6
CONTINUOUS
 10
-1.318854
 20
3.660465
  0
VERTEX
  8
PLAN_1
 62
     5
  6
CONTINUOUS
 10
-1.318854
 20
3.668984
  0
SEQEND
  8
0
  0
POLYLINE
  8
PLAN_1
 62
     5
  6
CONTINUOUS
 66
     1
 40
0.003000
 41
0.003000
  0
VERTEX
  8
PLAN_1
 62
     5
  6
CONTINUOUS
 10
-1.318854
 20
3.677504
  0
VERTEX
  8
PLAN_1
 62
     5
  6
CONTINUOUS
 10
-1.318854
 20
3.685457
  0
SEQEND
  8
0
  0
POLYLINE
  8
PLAN_1
 62
     5
  6
CONTINUOUS
 66
     1
 40
0.003000
 41
0.003000
  0
VERTEX
  8
PLAN_1
 62
     5
  6
CONTINUOUS
 10
-1.318854
 20
3.693976
  0
VERTEX
  8
PLAN_1
 62
     5
  6
CONTINUOUS
 10
-1.318854
 20
3.702496
  0
SEQEND
  8
0
  0
POLYLINE
  8
PLAN_1
 62
     5
  6
CONTINUOUS
 66
     1
 40
0.003000
 41
0.003000
  0
VERTEX
  8
PLAN_1
 62
     5
  6
CONTINUOUS
 10
-1.318854
 20
3.710449
  0
VERTEX
  8
PLAN_1
 62
     5
  6
CONTINUOUS
 10
-1.318854
 20
3.718969
  0
SEQEND
  8
0
  0
POLYLINE
  8
PLAN_1
 62
     5
  6
CONTINUOUS
 66
     1
 40
0.003000
 41
0.003000
  0
VERTEX
  8
PLAN_1
 62
     5
  6
CONTINUOUS
 10
-1.318854
 20
3.727488
  0
VERTEX
  8
PLAN_1
 62
     5
  6
CONTINUOUS
 10
-1.318854
 20
3.735441
  0
SEQEND
  8
0
  0
POLYLINE
  8
PLAN_1
 62
     5
  6
CONTINUOUS
 66
     1
 40
0.003000
 41
0.003000
  0
VERTEX
  8
PLAN_1
 62
     5
  6
CONTINUOUS
 10
-1.318854
 20
3.743961
  0
VERTEX
  8
PLAN_1
 62
     5
  6
CONTINUOUS
 10
-1.318854
 20
3.752480
  0
SEQEND
  8
0
  0
POLYLINE
  8
PLAN_1
 62
     5
  6
CONTINUOUS
 66
     1
 40
0.003000
 41
0.003000
  0
VERTEX
  8
PLAN_1
 62
     5
  6
CONTINUOUS
 10
-1.318854
 20
3.760433
  0
VERTEX
  8
PLAN_1
 62
     5
  6
CONTINUOUS
 10
-1.318854
 20
3.768953
  0
SEQEND
  8
0
  0
POLYLINE
  8
PLAN_1
 62
     5
  6
CONTINUOUS
 66
     1
 40
0.003000
 41
0.003000
  0
VERTEX
  8
PLAN_1
 62
     5
  6
CONTINUOUS
 10
-1.318854
 20
3.777472
  0
VERTEX
  8
PLAN_1
 62
     5
  6
CONTINUOUS
 10
-1.318854
 20
3.785425
  0
SEQEND
  8
0
  0
POLYLINE
  8
PLAN_1
 62
     5
  6
CONTINUOUS
 66
     1
 40
0.003000
 41
0.003000
  0
VERTEX
  8
PLAN_1
 62
     5
  6
CONTINUOUS
 10
-1.318854
 20
3.793945
  0
VERTEX
  8
PLAN_1
 62
     5
  6
CONTINUOUS
 10
-1.318854
 20
3.802465
  0
SEQEND
  8
0
  0
POLYLINE
  8
PLAN_1
 62
     5
  6
CONTINUOUS
 66
     1
 40
0.003000
 41
0.003000
  0
VERTEX
  8
PLAN_1
 62
     5
  6
CONTINUOUS
 10
-1.318854
 20
3.810417
  0
VERTEX
  8
PLAN_1
 62
     5
  6
CONTINUOUS
 10
-1.318854
 20
3.818937
  0
SEQEND
  8
0
  0
POLYLINE
  8
PLAN_1
 62
     5
  6
CONTINUOUS
 66
     1
 40
0.003000
 41
0.003000
  0
VERTEX
  8
PLAN_1
 62
     5
  6
CONTINUOUS
 10
-1.318854
 20
3.827457
  0
VERTEX
  8
PLAN_1
 62
     5
  6
CONTINUOUS
 10
-1.318854
 20
3.835409
  0
SEQEND
  8
0
  0
POLYLINE
  8
PLAN_1
 62
     5
  6
CONTINUOUS
 66
     1
 40
0.003000
 41
0.003000
  0
VERTEX
  8
PLAN_1
 62
     5
  6
CONTINUOUS
 10
-1.318854
 20
3.843929
  0
VERTEX
  8
PLAN_1
 62
     5
  6
CONTINUOUS
 10
-1.318854
 20
3.852449
  0
SEQEND
  8
0
  0
POLYLINE
  8
PLAN_1
 62
     5
  6
CONTINUOUS
 66
     1
 40
0.003000
 41
0.003000
  0
VERTEX
  8
PLAN_1
 62
     5
  6
CONTINUOUS
 10
-1.318854
 20
3.860402
  0
VERTEX
  8
PLAN_1
 62
     5
  6
CONTINUOUS
 10
-1.318854
 20
3.868921
  0
SEQEND
  8
0
  0
POLYLINE
  8
PLAN_1
 62
     5
  6
CONTINUOUS
 66
     1
 40
0.003000
 41
0.003000
  0
VERTEX
  8
PLAN_1
 62
     5
  6
CONTINUOUS
 10
-1.318854
 20
3.877441
  0
VERTEX
  8
PLAN_1
 62
     5
  6
CONTINUOUS
 10
-1.318854
 20
3.885394
  0
SEQEND
  8
0
  0
POLYLINE
  8
PLAN_1
 62
     5
  6
CONTINUOUS
 66
     1
 40
0.003000
 41
0.003000
  0
VERTEX
  8
PLAN_1
 62
     5
  6
CONTINUOUS
 10
-1.318854
 20
3.893913
  0
VERTEX
  8
PLAN_1
 62
     5
  6
CONTINUOUS
 10
-1.318854
 20
3.901295
  0
VERTEX
  8
PLAN_1
 62
     5
  6
CONTINUOUS
 10
-1.319992
 20
3.901295
  0
SEQEND
  8
0
  0
POLYLINE
  8
PLAN_1
 62
     5
  6
CONTINUOUS
 66
     1
 40
0.003000
 41
0.003000
  0
VERTEX
  8
PLAN_1
 62
     5
  6
CONTINUOUS
 10
-1.327945
 20
3.901295
  0
VERTEX
  8
PLAN_1
 62
     5
  6
CONTINUOUS
 10
-1.336465
 20
3.901295
  0
SEQEND
  8
0
  0
POLYLINE
  8
PLAN_1
 62
     5
  6
CONTINUOUS
 66
     1
 40
0.003000
 41
0.003000
  0
VERTEX
  8
PLAN_1
 62
     5
  6
CONTINUOUS
 10
-1.344984
 20
3.901295
  0
VERTEX
  8
PLAN_1
 62
     5
  6
CONTINUOUS
 10
-1.352937
 20
3.901295
  0
SEQEND
  8
0
  0
POLYLINE
  8
PLAN_1
 62
     5
  6
CONTINUOUS
 66
     1
 40
0.003000
 41
0.003000
  0
VERTEX
  8
PLAN_1
 62
     5
  6
CONTINUOUS
 10
-1.361457
 20
3.901295
  0
VERTEX
  8
PLAN_1
 62
     5
  6
CONTINUOUS
 10
-1.369976
 20
3.901295
  0
SEQEND
  8
0
  0
POLYLINE
  8
PLAN_1
 62
     5
  6
CONTINUOUS
 66
     1
 40
0.003000
 41
0.003000
  0
VERTEX
  8
PLAN_1
 62
     5
  6
CONTINUOUS
 10
-1.377929
 20
3.901295
  0
VERTEX
  8
PLAN_1
 62
     5
  6
CONTINUOUS
 10
-1.386449
 20
3.901295
  0
SEQEND
  8
0
  0
POLYLINE
  8
PLAN_1
 62
     5
  6
CONTINUOUS
 66
     1
 40
0.003000
 41
0.003000
  0
VERTEX
  8
PLAN_1
 62
     5
  6
CONTINUOUS
 10
-1.394969
 20
3.901295
  0
VERTEX
  8
PLAN_1
 62
     5
  6
CONTINUOUS
 10
-1.402921
 20
3.901295
  0
SEQEND
  8
0
  0
POLYLINE
  8
PLAN_1
 62
     5
  6
CONTINUOUS
 66
     1
 40
0.003000
 41
0.003000
  0
VERTEX
  8
PLAN_1
 62
     5
  6
CONTINUOUS
 10
-1.411441
 20
3.901295
  0
VERTEX
  8
PLAN_1
 62
     5
  6
CONTINUOUS
 10
-1.419961
 20
3.901295
  0
SEQEND
  8
0
  0
POLYLINE
  8
PLAN_1
 62
     5
  6
CONTINUOUS
 66
     1
 40
0.003000
 41
0.003000
  0
VERTEX
  8
PLAN_1
 62
     5
  6
CONTINUOUS
 10
-1.426209
 20
3.899024
  0
VERTEX
  8
PLAN_1
 62
     5
  6
CONTINUOUS
 10
-1.426209
 20
3.891071
  0
SEQEND
  8
0
  0
POLYLINE
  8
PLAN_1
 62
     5
  6
CONTINUOUS
 66
     1
 40
0.003000
 41
0.003000
  0
VERTEX
  8
PLAN_1
 62
     5
  6
CONTINUOUS
 10
-1.426209
 20
3.882551
  0
VERTEX
  8
PLAN_1
 62
     5
  6
CONTINUOUS
 10
-1.426209
 20
3.874031
  0
SEQEND
  8
0
  0
POLYLINE
  8
PLAN_1
 62
     5
  6
CONTINUOUS
 66
     1
 40
0.003000
 41
0.003000
  0
VERTEX
  8
PLAN_1
 62
     5
  6
CONTINUOUS
 10
-1.426776
 20
3.866650
  0
VERTEX
  8
PLAN_1
 62
     5
  6
CONTINUOUS
 10
-1.434728
 20
3.866650
  0
SEQEND
  8
0
  0
POLYLINE
  8
PLAN_1
 62
     5
  6
CONTINUOUS
 66
     1
 40
0.003000
 41
0.003000
  0
VERTEX
  8
PLAN_1
 62
     5
  6
CONTINUOUS
 10
-1.443248
 20
3.866650
  0
VERTEX
  8
PLAN_1
 62
     5
  6
CONTINUOUS
 10
-1.451768
 20
3.866650
  0
SEQEND
  8
0
  0
POLYLINE
  8
PLAN_1
 62
     5
  6
CONTINUOUS
 66
     1
 40
0.003000
 41
0.003000
  0
VERTEX
  8
PLAN_1
 62
     5
  6
CONTINUOUS
 10
-1.457449
 20
3.869488
  0
VERTEX
  8
PLAN_1
 62
     5
  6
CONTINUOUS
 10
-1.457449
 20
3.877441
  0
SEQEND
  8
0
  0
POLYLINE
  8
PLAN_1
 62
     5
  6
CONTINUOUS
 66
     1
 40
0.003000
 41
0.003000
  0
VERTEX
  8
PLAN_1
 62
     5
  6
CONTINUOUS
 10
-1.457449
 20
3.885961
  0
VERTEX
  8
PLAN_1
 62
     5
  6
CONTINUOUS
 10
-1.457449
 20
3.894480
  0
SEQEND
  8
0
  0
POLYLINE
  8
PLAN_1
 62
     5
  6
CONTINUOUS
 66
     1
 40
0.003000
 41
0.003000
  0
VERTEX
  8
PLAN_1
 62
     5
  6
CONTINUOUS
 10
-1.457449
 20
3.902433
  0
VERTEX
  8
PLAN_1
 62
     5
  6
CONTINUOUS
 10
-1.457449
 20
3.910953
  0
SEQEND
  8
0
  0
POLYLINE
  8
PLAN_1
 62
     5
  6
CONTINUOUS
 66
     1
 40
0.003000
 41
0.003000
  0
VERTEX
  8
PLAN_1
 62
     5
  6
CONTINUOUS
 10
-1.457449
 20
3.919472
  0
VERTEX
  8
PLAN_1
 62
     5
  6
CONTINUOUS
 10
-1.457449
 20
3.927425
  0
SEQEND
  8
0
  0
POLYLINE
  8
PLAN_1
 62
     5
  6
CONTINUOUS
 66
     1
 40
0.003000
 41
0.003000
  0
VERTEX
  8
PLAN_1
 62
     5
  6
CONTINUOUS
 10
-1.457449
 20
3.935945
  0
VERTEX
  8
PLAN_1
 62
     5
  6
CONTINUOUS
 10
-1.457449
 20
3.943898
  0
SEQEND
  8
0
  0
POLYLINE
  8
PLAN_1
 62
     5
  6
CONTINUOUS
 66
     1
 40
0.003000
 41
0.003000
  0
VERTEX
  8
PLAN_1
 62
     5
  6
CONTINUOUS
 10
-1.457449
 20
3.952417
  0
VERTEX
  8
PLAN_1
 62
     5
  6
CONTINUOUS
 10
-1.457449
 20
3.960937
  0
SEQEND
  8
0
  0
POLYLINE
  8
PLAN_1
 62
     5
  6
CONTINUOUS
 66
     1
 40
0.003000
 41
0.003000
  0
VERTEX
  8
PLAN_1
 62
     5
  6
CONTINUOUS
 10
-1.457449
 20
3.968890
  0
VERTEX
  8
PLAN_1
 62
     5
  6
CONTINUOUS
 10
-1.457449
 20
3.977409
  0
SEQEND
  8
0
  0
POLYLINE
  8
PLAN_1
 62
     5
  6
CONTINUOUS
 66
     1
 40
0.003000
 41
0.003000
  0
VERTEX
  8
PLAN_1
 62
     5
  6
CONTINUOUS
 10
-1.457449
 20
3.985929
  0
VERTEX
  8
PLAN_1
 62
     5
  6
CONTINUOUS
 10
-1.457449
 20
3.993882
  0
SEQEND
  8
0
  0
POLYLINE
  8
PLAN_1
 62
     5
  6
CONTINUOUS
 66
     1
 40
0.003000
 41
0.003000
  0
VERTEX
  8
PLAN_1
 62
     5
  6
CONTINUOUS
 10
-1.457449
 20
4.002402
  0
VERTEX
  8
PLAN_1
 62
     5
  6
CONTINUOUS
 10
-1.457449
 20
4.010921
  0
SEQEND
  8
0
  0
POLYLINE
  8
PLAN_1
 62
     5
  6
CONTINUOUS
 66
     1
 40
0.003000
 41
0.003000
  0
VERTEX
  8
PLAN_1
 62
     5
  6
CONTINUOUS
 10
-1.457449
 20
4.018870
  0
VERTEX
  8
PLAN_1
 62
     5
  6
CONTINUOUS
 10
-1.457449
 20
4.027394
  0
SEQEND
  8
0
  0
POLYLINE
  8
PLAN_1
 62
     5
  6
CONTINUOUS
 66
     1
 40
0.003000
 41
0.003000
  0
VERTEX
  8
PLAN_1
 62
     5
  6
CONTINUOUS
 10
-1.457449
 20
4.035913
  0
VERTEX
  8
PLAN_1
 62
     5
  6
CONTINUOUS
 10
-1.457449
 20
4.043862
  0
SEQEND
  8
0
  0
POLYLINE
  8
PLAN_1
 62
     5
  6
CONTINUOUS
 66
     1
 40
0.003000
 41
0.003000
  0
VERTEX
  8
PLAN_1
 62
     5
  6
CONTINUOUS
 10
-1.457449
 20
4.052386
  0
VERTEX
  8
PLAN_1
 62
     5
  6
CONTINUOUS
 10
-1.457449
 20
4.060906
  0
SEQEND
  8
0
  0
POLYLINE
  8
PLAN_1
 62
     5
  6
CONTINUOUS
 66
     1
 40
0.003000
 41
0.003000
  0
VERTEX
  8
PLAN_1
 62
     5
  6
CONTINUOUS
 10
-1.457449
 20
4.068854
  0
VERTEX
  8
PLAN_1
 62
     5
  6
CONTINUOUS
 10
-1.457449
 20
4.077378
  0
SEQEND
  8
0
  0
POLYLINE
  8
PLAN_1
 62
     5
  6
CONTINUOUS
 66
     1
 40
0.003000
 41
0.003000
  0
VERTEX
  8
PLAN_1
 62
     5
  6
CONTINUOUS
 10
-1.459720
 20
4.083622
  0
VERTEX
  8
PLAN_1
 62
     5
  6
CONTINUOUS
 10
-1.467673
 20
4.083622
  0
SEQEND
  8
0
  0
POLYLINE
  8
PLAN_1
 62
     5
  6
CONTINUOUS
 66
     1
 40
0.003000
 41
0.003000
  0
VERTEX
  8
PLAN_1
 62
     5
  6
CONTINUOUS
 10
-1.476193
 20
4.083622
  0
VERTEX
  8
PLAN_1
 62
     5
  6
CONTINUOUS
 10
-1.484713
 20
4.083622
  0
SEQEND
  8
0
  0
POLYLINE
  8
PLAN_1
 62
     5
  6
CONTINUOUS
 66
     1
 40
0.003000
 41
0.003000
  0
VERTEX
  8
PLAN_1
 62
     5
  6
CONTINUOUS
 10
-1.492665
 20
4.083622
  0
VERTEX
  8
PLAN_1
 62
     5
  6
CONTINUOUS
 10
-1.501185
 20
4.083622
  0
SEQEND
  8
0
  0
POLYLINE
  8
PLAN_1
 62
     5
  6
CONTINUOUS
 66
     1
 40
0.003000
 41
0.003000
  0
VERTEX
  8
PLAN_1
 62
     5
  6
CONTINUOUS
 10
-1.509705
 20
4.083622
  0
VERTEX
  8
PLAN_1
 62
     5
  6
CONTINUOUS
 10
-1.517657
 20
4.083622
  0
SEQEND
  8
0
  0
POLYLINE
  8
PLAN_1
 62
     5
  6
CONTINUOUS
 66
     1
 40
0.003000
 41
0.003000
  0
VERTEX
  8
PLAN_1
 62
     5
  6
CONTINUOUS
 10
-1.526177
 20
4.083622
  0
VERTEX
  8
PLAN_1
 62
     5
  6
CONTINUOUS
 10
-1.534697
 20
4.083622
  0
SEQEND
  8
0
  0
POLYLINE
  8
PLAN_1
 62
     5
  6
CONTINUOUS
 66
     1
 40
0.003000
 41
0.003000
  0
VERTEX
  8
PLAN_1
 62
     5
  6
CONTINUOUS
 10
-1.542650
 20
4.083622
  0
VERTEX
  8
PLAN_1
 62
     5
  6
CONTINUOUS
 10
-1.551169
 20
4.083622
  0
SEQEND
  8
0
  0
POLYLINE
  8
PLAN_1
 62
     5
  6
CONTINUOUS
 66
     1
 40
0.003000
 41
0.003000
  0
VERTEX
  8
PLAN_1
 62
     5
  6
CONTINUOUS
 10
-1.559689
 20
4.083622
  0
VERTEX
  8
PLAN_1
 62
     5
  6
CONTINUOUS
 10
-1.567642
 20
4.083622
  0
SEQEND
  8
0
  0
POLYLINE
  8
PLAN_1
 62
     5
  6
CONTINUOUS
 66
     1
 40
0.003000
 41
0.003000
  0
VERTEX
  8
PLAN_1
 62
     5
  6
CONTINUOUS
 10
-1.576161
 20
4.083622
  0
VERTEX
  8
PLAN_1
 62
     5
  6
CONTINUOUS
 10
-1.584681
 20
4.083622
  0
SEQEND
  8
0
  0
POLYLINE
  8
PLAN_1
 62
     5
  6
CONTINUOUS
 66
     1
 40
0.003000
 41
0.003000
  0
VERTEX
  8
PLAN_1
 62
     5
  6
CONTINUOUS
 10
-1.592634
 20
4.083622
  0
VERTEX
  8
PLAN_1
 62
     5
  6
CONTINUOUS
 10
-1.601154
 20
4.083622
  0
SEQEND
  8
0
  0
POLYLINE
  8
PLAN_1
 62
     5
  6
CONTINUOUS
 66
     1
 40
0.003000
 41
0.003000
  0
VERTEX
  8
PLAN_1
 62
     5
  6
CONTINUOUS
 10
-1.609673
 20
4.083622
  0
VERTEX
  8
PLAN_1
 62
     5
  6
CONTINUOUS
 10
-1.617622
 20
4.083622
  0
SEQEND
  8
0
  0
POLYLINE
  8
PLAN_1
 62
     5
  6
CONTINUOUS
 66
     1
 40
0.003000
 41
0.003000
  0
VERTEX
  8
PLAN_1
 62
     5
  6
CONTINUOUS
 10
-1.626146
 20
4.083622
  0
VERTEX
  8
PLAN_1
 62
     5
  6
CONTINUOUS
 10
-1.634665
 20
4.083622
  0
SEQEND
  8
0
  0
POLYLINE
  8
PLAN_1
 62
     5
  6
CONTINUOUS
 66
     1
 40
0.003000
 41
0.003000
  0
VERTEX
  8
PLAN_1
 62
     5
  6
CONTINUOUS
 10
-1.636937
 20
4.077378
  0
VERTEX
  8
PLAN_1
 62
     5
  6
CONTINUOUS
 10
-1.636937
 20
4.069425
  0
SEQEND
  8
0
  0
POLYLINE
  8
PLAN_1
 62
     5
  6
CONTINUOUS
 66
     1
 40
0.003000
 41
0.003000
  0
VERTEX
  8
PLAN_1
 62
     5
  6
CONTINUOUS
 10
-1.636937
 20
4.060906
  0
VERTEX
  8
PLAN_1
 62
     5
  6
CONTINUOUS
 10
-1.636937
 20
4.052386
  0
SEQEND
  8
0
  0
POLYLINE
  8
PLAN_1
 62
     5
  6
CONTINUOUS
 66
     1
 40
0.003000
 41
0.003000
  0
VERTEX
  8
PLAN_1
 62
     5
  6
CONTINUOUS
 10
-1.636937
 20
4.044433
  0
VERTEX
  8
PLAN_1
 62
     5
  6
CONTINUOUS
 10
-1.636937
 20
4.035913
  0
SEQEND
  8
0
  0
POLYLINE
  8
PLAN_1
 62
     5
  6
CONTINUOUS
 66
     1
 40
0.003000
 41
0.003000
  0
VERTEX
  8
PLAN_1
 62
     5
  6
CONTINUOUS
 10
-1.636937
 20
4.027394
  0
VERTEX
  8
PLAN_1
 62
     5
  6
CONTINUOUS
 10
-1.636937
 20
4.019441
  0
SEQEND
  8
0
  0
POLYLINE
  8
PLAN_1
 62
     5
  6
CONTINUOUS
 66
     1
 40
0.003000
 41
0.003000
  0
VERTEX
  8
PLAN_1
 62
     5
  6
CONTINUOUS
 10
-1.636937
 20
4.010921
  0
VERTEX
  8
PLAN_1
 62
     5
  6
CONTINUOUS
 10
-1.636937
 20
4.002402
  0
SEQEND
  8
0
  0
POLYLINE
  8
PLAN_1
 62
     5
  6
CONTINUOUS
 66
     1
 40
0.003000
 41
0.003000
  0
VERTEX
  8
PLAN_1
 62
     5
  6
CONTINUOUS
 10
-1.636937
 20
3.994449
  0
VERTEX
  8
PLAN_1
 62
     5
  6
CONTINUOUS
 10
-1.636937
 20
3.985929
  0
SEQEND
  8
0
  0
POLYLINE
  8
PLAN_1
 62
     5
  6
CONTINUOUS
 66
     1
 40
0.003000
 41
0.003000
  0
VERTEX
  8
PLAN_1
 62
     5
  6
CONTINUOUS
 10
-1.636937
 20
3.977409
  0
VERTEX
  8
PLAN_1
 62
     5
  6
CONTINUOUS
 10
-1.636937
 20
3.969457
  0
SEQEND
  8
0
  0
POLYLINE
  8
PLAN_1
 62
     5
  6
CONTINUOUS
 66
     1
 40
0.003000
 41
0.003000
  0
VERTEX
  8
PLAN_1
 62
     5
  6
CONTINUOUS
 10
-1.636937
 20
3.960937
  0
VERTEX
  8
PLAN_1
 62
     5
  6
CONTINUOUS
 10
-1.636937
 20
3.952417
  0
SEQEND
  8
0
  0
POLYLINE
  8
PLAN_1
 62
     5
  6
CONTINUOUS
 66
     1
 40
0.003000
 41
0.003000
  0
VERTEX
  8
PLAN_1
 62
     5
  6
CONTINUOUS
 10
-1.636937
 20
3.944465
  0
VERTEX
  8
PLAN_1
 62
     5
  6
CONTINUOUS
 10
-1.636937
 20
3.935945
  0
SEQEND
  8
0
  0
POLYLINE
  8
PLAN_1
 62
     5
  6
CONTINUOUS
 66
     1
 40
0.003000
 41
0.003000
  0
VERTEX
  8
PLAN_1
 62
     5
  6
CONTINUOUS
 10
-1.636937
 20
3.927425
  0
VERTEX
  8
PLAN_1
 62
     5
  6
CONTINUOUS
 10
-1.636937
 20
3.919472
  0
SEQEND
  8
0
  0
POLYLINE
  8
PLAN_1
 62
     5
  6
CONTINUOUS
 66
     1
 40
0.003000
 41
0.003000
  0
VERTEX
  8
PLAN_1
 62
     5
  6
CONTINUOUS
 10
-1.636937
 20
3.910953
  0
VERTEX
  8
PLAN_1
 62
     5
  6
CONTINUOUS
 10
-1.636937
 20
3.902433
  0
SEQEND
  8
0
  0
POLYLINE
  8
PLAN_1
 62
     5
  6
CONTINUOUS
 66
     1
 40
0.003000
 41
0.003000
  0
VERTEX
  8
PLAN_1
 62
     5
  6
CONTINUOUS
 10
-1.636937
 20
3.894480
  0
VERTEX
  8
PLAN_1
 62
     5
  6
CONTINUOUS
 10
-1.636937
 20
3.885961
  0
SEQEND
  8
0
  0
POLYLINE
  8
PLAN_1
 62
     5
  6
CONTINUOUS
 66
     1
 40
0.003000
 41
0.003000
  0
VERTEX
  8
PLAN_1
 62
     5
  6
CONTINUOUS
 10
-1.636937
 20
3.877441
  0
VERTEX
  8
PLAN_1
 62
     5
  6
CONTINUOUS
 10
-1.636937
 20
3.869488
  0
SEQEND
  8
0
  0
POLYLINE
  8
PLAN_1
 62
     5
  6
CONTINUOUS
 66
     1
 40
0.003000
 41
0.003000
  0
VERTEX
  8
PLAN_1
 62
     5
  6
CONTINUOUS
 10
-1.636937
 20
3.860969
  0
VERTEX
  8
PLAN_1
 62
     5
  6
CONTINUOUS
 10
-1.636937
 20
3.852449
  0
SEQEND
  8
0
  0
POLYLINE
  8
PLAN_1
 62
     5
  6
CONTINUOUS
 66
     1
 40
0.003000
 41
0.003000
  0
VERTEX
  8
PLAN_1
 62
     5
  6
CONTINUOUS
 10
-1.636937
 20
3.844496
  0
VERTEX
  8
PLAN_1
 62
     5
  6
CONTINUOUS
 10
-1.636937
 20
3.835976
  0
SEQEND
  8
0
  0
POLYLINE
  8
PLAN_1
 62
     5
  6
CONTINUOUS
 66
     1
 40
0.003000
 41
0.003000
  0
VERTEX
  8
PLAN_1
 62
     5
  6
CONTINUOUS
 10
-1.636937
 20
3.827457
  0
VERTEX
  8
PLAN_1
 62
     5
  6
CONTINUOUS
 10
-1.636937
 20
3.819504
  0
SEQEND
  8
0
  0
POLYLINE
  8
PLAN_1
 62
     5
  6
CONTINUOUS
 66
     1
 40
0.003000
 41
0.003000
  0
VERTEX
  8
PLAN_1
 62
     5
  6
CONTINUOUS
 10
-1.636937
 20
3.810984
  0
VERTEX
  8
PLAN_1
 62
     5
  6
CONTINUOUS
 10
-1.636937
 20
3.802465
  0
SEQEND
  8
0
  0
POLYLINE
  8
PLAN_1
 62
     5
  6
CONTINUOUS
 66
     1
 40
0.003000
 41
0.003000
  0
VERTEX
  8
PLAN_1
 62
     5
  6
CONTINUOUS
 10
-1.636937
 20
3.794512
  0
VERTEX
  8
PLAN_1
 62
     5
  6
CONTINUOUS
 10
-1.636937
 20
3.785992
  0
SEQEND
  8
0
  0
POLYLINE
  8
PLAN_1
 62
     5
  6
CONTINUOUS
 66
     1
 40
0.003000
 41
0.003000
  0
VERTEX
  8
PLAN_1
 62
     5
  6
CONTINUOUS
 10
-1.636937
 20
3.777472
  0
VERTEX
  8
PLAN_1
 62
     5
  6
CONTINUOUS
 10
-1.636937
 20
3.769520
  0
SEQEND
  8
0
  0
POLYLINE
  8
PLAN_1
 62
     5
  6
CONTINUOUS
 66
     1
 40
0.003000
 41
0.003000
  0
VERTEX
  8
PLAN_1
 62
     5
  6
CONTINUOUS
 10
-1.636937
 20
3.761000
  0
VERTEX
  8
PLAN_1
 62
     5
  6
CONTINUOUS
 10
-1.636937
 20
3.752480
  0
SEQEND
  8
0
  0
POLYLINE
  8
PLAN_1
 62
     5
  6
CONTINUOUS
 66
     1
 40
0.003000
 41
0.003000
  0
VERTEX
  8
PLAN_1
 62
     5
  6
CONTINUOUS
 10
-1.636937
 20
3.744528
  0
VERTEX
  8
PLAN_1
 62
     5
  6
CONTINUOUS
 10
-1.636937
 20
3.736008
  0
SEQEND
  8
0
  0
POLYLINE
  8
PLAN_1
 62
     5
  6
CONTINUOUS
 66
     1
 40
0.003000
 41
0.003000
  0
VERTEX
  8
PLAN_1
 62
     5
  6
CONTINUOUS
 10
-1.636937
 20
3.727488
  0
VERTEX
  8
PLAN_1
 62
     5
  6
CONTINUOUS
 10
-1.636937
 20
3.719535
  0
SEQEND
  8
0
  0
POLYLINE
  8
PLAN_1
 62
     5
  6
CONTINUOUS
 66
     1
 40
0.003000
 41
0.003000
  0
VERTEX
  8
PLAN_1
 62
     5
  6
CONTINUOUS
 10
-1.636937
 20
3.711016
  0
VERTEX
  8
PLAN_1
 62
     5
  6
CONTINUOUS
 10
-1.636937
 20
3.702496
  0
SEQEND
  8
0
  0
POLYLINE
  8
PLAN_1
 62
     5
  6
CONTINUOUS
 66
     1
 40
0.003000
 41
0.003000
  0
VERTEX
  8
PLAN_1
 62
     5
  6
CONTINUOUS
 10
-1.636937
 20
3.694543
  0
VERTEX
  8
PLAN_1
 62
     5
  6
CONTINUOUS
 10
-1.636937
 20
3.686024
  0
SEQEND
  8
0
  0
POLYLINE
  8
PLAN_1
 62
     5
  6
CONTINUOUS
 66
     1
 40
0.003000
 41
0.003000
  0
VERTEX
  8
PLAN_1
 62
     5
  6
CONTINUOUS
 10
-1.636937
 20
3.678071
  0
VERTEX
  8
PLAN_1
 62
     5
  6
CONTINUOUS
 10
-1.636937
 20
3.669551
  0
SEQEND
  8
0
  0
POLYLINE
  8
PLAN_1
 62
     5
  6
CONTINUOUS
 66
     1
 40
0.003000
 41
0.003000
  0
VERTEX
  8
PLAN_1
 62
     5
  6
CONTINUOUS
 10
-1.636937
 20
3.661031
  0
VERTEX
  8
PLAN_1
 62
     5
  6
CONTINUOUS
 10
-1.636937
 20
3.653079
  0
SEQEND
  8
0
  0
POLYLINE
  8
PLAN_1
 62
     5
  6
CONTINUOUS
 66
     1
 40
0.003000
 41
0.003000
  0
VERTEX
  8
PLAN_1
 62
     5
  6
CONTINUOUS
 10
-1.636937
 20
3.644559
  0
VERTEX
  8
PLAN_1
 62
     5
  6
CONTINUOUS
 10
-1.636937
 20
3.636039
  0
SEQEND
  8
0
  0
POLYLINE
  8
PLAN_1
 62
     5
  6
CONTINUOUS
 66
     1
 40
0.003000
 41
0.003000
  0
VERTEX
  8
PLAN_1
 62
     5
  6
CONTINUOUS
 10
-1.636937
 20
3.628087
  0
VERTEX
  8
PLAN_1
 62
     5
  6
CONTINUOUS
 10
-1.636937
 20
3.619567
  0
SEQEND
  8
0
  0
POLYLINE
  8
PLAN_1
 62
     5
  6
CONTINUOUS
 66
     1
 40
0.003000
 41
0.003000
  0
VERTEX
  8
PLAN_1
 62
     5
  6
CONTINUOUS
 10
-1.636937
 20
3.611047
  0
VERTEX
  8
PLAN_1
 62
     5
  6
CONTINUOUS
 10
-1.636937
 20
3.603094
  0
SEQEND
  8
0
  0
POLYLINE
  8
PLAN_1
 62
     5
  6
CONTINUOUS
 66
     1
 40
0.003000
 41
0.003000
  0
VERTEX
  8
PLAN_1
 62
     5
  6
CONTINUOUS
 10
-1.636937
 20
3.594575
  0
VERTEX
  8
PLAN_1
 62
     5
  6
CONTINUOUS
 10
-1.636937
 20
3.586055
  0
SEQEND
  8
0
  0
POLYLINE
  8
PLAN_1
 62
     5
  6
CONTINUOUS
 66
     1
 40
0.003000
 41
0.003000
  0
VERTEX
  8
PLAN_1
 62
     5
  6
CONTINUOUS
 10
-1.636937
 20
3.578102
  0
VERTEX
  8
PLAN_1
 62
     5
  6
CONTINUOUS
 10
-1.636937
 20
3.569583
  0
SEQEND
  8
0
  0
POLYLINE
  8
PLAN_1
 62
     5
  6
CONTINUOUS
 66
     1
 40
0.003000
 41
0.003000
  0
VERTEX
  8
PLAN_1
 62
     5
  6
CONTINUOUS
 10
-1.636937
 20
3.561063
  0
VERTEX
  8
PLAN_1
 62
     5
  6
CONTINUOUS
 10
-1.636937
 20
3.553110
  0
SEQEND
  8
0
  0
POLYLINE
  8
PLAN_1
 62
     5
  6
CONTINUOUS
 66
     1
 40
0.003000
 41
0.003000
  0
VERTEX
  8
PLAN_1
 62
     5
  6
CONTINUOUS
 10
-1.636937
 20
3.544591
  0
VERTEX
  8
PLAN_1
 62
     5
  6
CONTINUOUS
 10
-1.636937
 20
3.536071
  0
SEQEND
  8
0
  0
POLYLINE
  8
PLAN_1
 62
     5
  6
CONTINUOUS
 66
     1
 40
0.003000
 41
0.003000
  0
VERTEX
  8
PLAN_1
 62
     5
  6
CONTINUOUS
 10
-1.636937
 20
3.528118
  0
VERTEX
  8
PLAN_1
 62
     5
  6
CONTINUOUS
 10
-1.636937
 20
3.519598
  0
SEQEND
  8
0
  0
POLYLINE
  8
PLAN_1
 62
     5
  6
CONTINUOUS
 66
     1
 40
0.003000
 41
0.003000
  0
VERTEX
  8
PLAN_1
 62
     5
  6
CONTINUOUS
 10
-1.636937
 20
3.511079
  0
VERTEX
  8
PLAN_1
 62
     5
  6
CONTINUOUS
 10
-1.636937
 20
3.503130
  0
SEQEND
  8
0
  0
POLYLINE
  8
PLAN_1
 62
     5
  6
CONTINUOUS
 66
     1
 40
0.003000
 41
0.003000
  0
VERTEX
  8
PLAN_1
 62
     5
  6
CONTINUOUS
 10
-1.636937
 20
3.494606
  0
VERTEX
  8
PLAN_1
 62
     5
  6
CONTINUOUS
 10
-1.636937
 20
3.486087
  0
SEQEND
  8
0
  0
POLYLINE
  8
PLAN_1
 62
     5
  6
CONTINUOUS
 66
     1
 40
0.003000
 41
0.003000
  0
VERTEX
  8
PLAN_1
 62
     5
  6
CONTINUOUS
 10
-1.636937
 20
3.478138
  0
VERTEX
  8
PLAN_1
 62
     5
  6
CONTINUOUS
 10
-1.636937
 20
3.469614
  0
SEQEND
  8
0
  0
POLYLINE
  8
PLAN_1
 62
     5
  6
CONTINUOUS
 66
     1
 40
0.003000
 41
0.003000
  0
VERTEX
  8
PLAN_1
 62
     5
  6
CONTINUOUS
 10
-1.636937
 20
3.461094
  0
VERTEX
  8
PLAN_1
 62
     5
  6
CONTINUOUS
 10
-1.636937
 20
3.453146
  0
SEQEND
  8
0
  0
POLYLINE
  8
PLAN_1
 62
     5
  6
CONTINUOUS
 66
     1
 40
0.003000
 41
0.003000
  0
VERTEX
  8
PLAN_1
 62
     5
  6
CONTINUOUS
 10
-1.636937
 20
3.444622
  0
VERTEX
  8
PLAN_1
 62
     5
  6
CONTINUOUS
 10
-1.636937
 20
3.436102
  0
SEQEND
  8
0
  0
POLYLINE
  8
PLAN_1
 62
     5
  6
CONTINUOUS
 66
     1
 40
0.003000
 41
0.003000
  0
VERTEX
  8
PLAN_1
 62
     5
  6
CONTINUOUS
 10
-1.636937
 20
3.428154
  0
VERTEX
  8
PLAN_1
 62
     5
  6
CONTINUOUS
 10
-1.636937
 20
3.419634
  0
SEQEND
  8
0
  0
POLYLINE
  8
PLAN_1
 62
     5
  6
CONTINUOUS
 66
     1
 40
0.003000
 41
0.003000
  0
VERTEX
  8
PLAN_1
 62
     5
  6
CONTINUOUS
 10
-1.636937
 20
3.411110
  0
VERTEX
  8
PLAN_1
 62
     5
  6
CONTINUOUS
 10
-1.636937
 20
3.403161
  0
SEQEND
  8
0
  0
POLYLINE
  8
PLAN_1
 62
     5
  6
CONTINUOUS
 66
     1
 40
0.003000
 41
0.003000
  0
VERTEX
  8
PLAN_1
 62
     5
  6
CONTINUOUS
 10
-1.636937
 20
3.394642
  0
VERTEX
  8
PLAN_1
 62
     5
  6
CONTINUOUS
 10
-1.636937
 20
3.386118
  0
SEQEND
  8
0
  0
POLYLINE
  8
PLAN_1
 62
     5
  6
CONTINUOUS
 66
     1
 40
0.003000
 41
0.003000
  0
VERTEX
  8
PLAN_1
 62
     5
  6
CONTINUOUS
 10
-1.636937
 20
3.378169
  0
VERTEX
  8
PLAN_1
 62
     5
  6
CONTINUOUS
 10
-1.636937
 20
3.369650
  0
SEQEND
  8
0
  0
POLYLINE
  8
PLAN_1
 62
     5
  6
CONTINUOUS
 66
     1
 40
0.003000
 41
0.003000
  0
VERTEX
  8
PLAN_1
 62
     5
  6
CONTINUOUS
 10
-1.636937
 20
3.361130
  0
VERTEX
  8
PLAN_1
 62
     5
  6
CONTINUOUS
 10
-1.636937
 20
3.353177
  0
SEQEND
  8
0
  0
POLYLINE
  8
PLAN_1
 62
     5
  6
CONTINUOUS
 66
     1
 40
0.003000
 41
0.003000
  0
VERTEX
  8
PLAN_1
 62
     5
  6
CONTINUOUS
 10
-1.636937
 20
3.344657
  0
VERTEX
  8
PLAN_1
 62
     5
  6
CONTINUOUS
 10
-1.636937
 20
3.336138
  0
SEQEND
  8
0
  0
POLYLINE
  8
PLAN_1
 62
     5
  6
CONTINUOUS
 66
     1
 40
0.003000
 41
0.003000
  0
VERTEX
  8
PLAN_1
 62
     5
  6
CONTINUOUS
 10
-1.636937
 20
3.328185
  0
VERTEX
  8
PLAN_1
 62
     5
  6
CONTINUOUS
 10
-1.636937
 20
3.319665
  0
SEQEND
  8
0
  0
POLYLINE
  8
PLAN_1
 62
     5
  6
CONTINUOUS
 66
     1
 40
0.003000
 41
0.003000
  0
VERTEX
  8
PLAN_1
 62
     5
  6
CONTINUOUS
 10
-1.636937
 20
3.311146
  0
VERTEX
  8
PLAN_1
 62
     5
  6
CONTINUOUS
 10
-1.636937
 20
3.303193
  0
SEQEND
  8
0
  0
POLYLINE
  8
PLAN_1
 62
     5
  6
CONTINUOUS
 66
     1
 40
0.003000
 41
0.003000
  0
VERTEX
  8
PLAN_1
 62
     5
  6
CONTINUOUS
 10
-1.636937
 20
3.294673
  0
VERTEX
  8
PLAN_1
 62
     5
  6
CONTINUOUS
 10
-1.636937
 20
3.286154
  0
SEQEND
  8
0
  0
POLYLINE
  8
PLAN_1
 62
     5
  6
CONTINUOUS
 66
     1
 40
0.003000
 41
0.003000
  0
VERTEX
  8
PLAN_1
 62
     5
  6
CONTINUOUS
 10
-1.636937
 20
3.278201
  0
VERTEX
  8
PLAN_1
 62
     5
  6
CONTINUOUS
 10
-1.636937
 20
3.271953
  0
VERTEX
  8
PLAN_1
 62
     5
  6
CONTINUOUS
 10
-1.634665
 20
3.271953
  0
SEQEND
  8
0
  0
POLYLINE
  8
PLAN_1
 62
     5
  6
CONTINUOUS
 66
     1
 40
0.003000
 41
0.003000
  0
VERTEX
  8
PLAN_1
 62
     5
  6
CONTINUOUS
 10
-1.626713
 20
3.271953
  0
VERTEX
  8
PLAN_1
 62
     5
  6
CONTINUOUS
 10
-1.618193
 20
3.271953
  0
SEQEND
  8
0
  0
POLYLINE
  8
PLAN_1
 62
     5
  6
CONTINUOUS
 66
     1
 40
0.003000
 41
0.003000
  0
VERTEX
  8
PLAN_1
 62
     5
  6
CONTINUOUS
 10
-1.609673
 20
3.271953
  0
VERTEX
  8
PLAN_1
 62
     5
  6
CONTINUOUS
 10
-1.601720
 20
3.271953
  0
SEQEND
  8
0
  0
POLYLINE
  8
PLAN_1
 62
     5
  6
CONTINUOUS
 66
     1
 40
0.003000
 41
0.003000
  0
VERTEX
  8
PLAN_1
 62
     5
  6
CONTINUOUS
 10
-1.593201
 20
3.271953
  0
VERTEX
  8
PLAN_1
 62
     5
  6
CONTINUOUS
 10
-1.584681
 20
3.271953
  0
SEQEND
  8
0
  0
POLYLINE
  8
PLAN_1
 62
     5
  6
CONTINUOUS
 66
     1
 40
0.003000
 41
0.003000
  0
VERTEX
  8
PLAN_1
 62
     5
  6
CONTINUOUS
 10
-1.576728
 20
3.271953
  0
VERTEX
  8
PLAN_1
 62
     5
  6
CONTINUOUS
 10
-1.568209
 20
3.271953
  0
SEQEND
  8
0
  0
POLYLINE
  8
PLAN_1
 62
     5
  6
CONTINUOUS
 66
     1
 40
0.003000
 41
0.003000
  0
VERTEX
  8
PLAN_1
 62
     5
  6
CONTINUOUS
 10
-1.559689
 20
3.271953
  0
VERTEX
  8
PLAN_1
 62
     5
  6
CONTINUOUS
 10
-1.551736
 20
3.271953
  0
SEQEND
  8
0
  0
POLYLINE
  8
PLAN_1
 62
     5
  6
CONTINUOUS
 66
     1
 40
0.003000
 41
0.003000
  0
VERTEX
  8
PLAN_1
 62
     5
  6
CONTINUOUS
 10
-1.543217
 20
3.271953
  0
VERTEX
  8
PLAN_1
 62
     5
  6
CONTINUOUS
 10
-1.534697
 20
3.271953
  0
SEQEND
  8
0
  0
POLYLINE
  8
PLAN_1
 62
     5
  6
CONTINUOUS
 66
     1
 40
0.003000
 41
0.003000
  0
VERTEX
  8
PLAN_1
 62
     5
  6
CONTINUOUS
 10
-1.526744
 20
3.271953
  0
VERTEX
  8
PLAN_1
 62
     5
  6
CONTINUOUS
 10
-1.518224
 20
3.271953
  0
SEQEND
  8
0
  0
POLYLINE
  8
PLAN_1
 62
     5
  6
CONTINUOUS
 66
     1
 40
0.003000
 41
0.003000
  0
VERTEX
  8
PLAN_1
 62
     5
  6
CONTINUOUS
 10
-1.509705
 20
3.271953
  0
VERTEX
  8
PLAN_1
 62
     5
  6
CONTINUOUS
 10
-1.501752
 20
3.271953
  0
SEQEND
  8
0
  0
POLYLINE
  8
PLAN_1
 62
     5
  6
CONTINUOUS
 66
     1
 40
0.003000
 41
0.003000
  0
VERTEX
  8
PLAN_1
 62
     5
  6
CONTINUOUS
 10
-1.493232
 20
3.271953
  0
VERTEX
  8
PLAN_1
 62
     5
  6
CONTINUOUS
 10
-1.484713
 20
3.271953
  0
SEQEND
  8
0
  0
POLYLINE
  8
PLAN_1
 62
     5
  6
CONTINUOUS
 66
     1
 40
0.003000
 41
0.003000
  0
VERTEX
  8
PLAN_1
 62
     5
  6
CONTINUOUS
 10
-1.476760
 20
3.271953
  0
VERTEX
  8
PLAN_1
 62
     5
  6
CONTINUOUS
 10
-1.468240
 20
3.271953
  0
SEQEND
  8
0
  0
POLYLINE
  8
PLAN_1
 62
     5
  6
CONTINUOUS
 66
     1
 40
0.003000
 41
0.003000
  0
VERTEX
  8
PLAN_1
 62
     5
  6
CONTINUOUS
 10
-1.459720
 20
3.271953
  0
VERTEX
  8
PLAN_1
 62
     5
  6
CONTINUOUS
 10
-1.457449
 20
3.271953
  0
VERTEX
  8
PLAN_1
 62
     5
  6
CONTINUOUS
 10
-1.457449
 20
3.277634
  0
SEQEND
  8
0
  0
POLYLINE
  8
PLAN_1
 62
     5
  6
CONTINUOUS
 66
     1
 40
0.003000
 41
0.003000
  0
VERTEX
  8
PLAN_1
 62
     5
  6
CONTINUOUS
 10
-1.457449
 20
3.285583
  0
VERTEX
  8
PLAN_1
 62
     5
  6
CONTINUOUS
 10
-1.457449
 20
3.294102
  0
SEQEND
  8
0
  0
POLYLINE
  8
PLAN_1
 62
     5
  6
CONTINUOUS
 66
     1
 40
0.003000
 41
0.003000
  0
VERTEX
  8
PLAN_1
 62
     5
  6
CONTINUOUS
 10
-1.457449
 20
3.302622
  0
VERTEX
  8
PLAN_1
 62
     5
  6
CONTINUOUS
 10
-1.457449
 20
3.310575
  0
SEQEND
  8
0
  0
POLYLINE
  8
PLAN_1
 62
     5
  6
CONTINUOUS
 66
     1
 40
0.003000
 41
0.003000
  0
VERTEX
  8
PLAN_1
 62
     5
  6
CONTINUOUS
 10
-1.457449
 20
3.319094
  0
VERTEX
  8
PLAN_1
 62
     5
  6
CONTINUOUS
 10
-1.457449
 20
3.327614
  0
SEQEND
  8
0
  0
POLYLINE
  8
PLAN_1
 62
     5
  6
CONTINUOUS
 66
     1
 40
0.003000
 41
0.003000
  0
VERTEX
  8
PLAN_1
 62
     5
  6
CONTINUOUS
 10
-1.457449
 20
3.335567
  0
VERTEX
  8
PLAN_1
 62
     5
  6
CONTINUOUS
 10
-1.457449
 20
3.344087
  0
SEQEND
  8
0
  0
POLYLINE
  8
PLAN_1
 62
     5
  6
CONTINUOUS
 66
     1
 40
0.003000
 41
0.003000
  0
VERTEX
  8
PLAN_1
 62
     5
  6
CONTINUOUS
 10
-1.456882
 20
3.352606
  0
VERTEX
  8
PLAN_1
 62
     5
  6
CONTINUOUS
 10
-1.456882
 20
3.360559
  0
SEQEND
  8
0
  0
POLYLINE
  8
PLAN_1
 62
     5
  6
CONTINUOUS
 66
     1
 40
0.003000
 41
0.003000
  0
VERTEX
  8
PLAN_1
 62
     5
  6
CONTINUOUS
 10
-1.456882
 20
3.369079
  0
VERTEX
  8
PLAN_1
 62
     5
  6
CONTINUOUS
 10
-1.456882
 20
3.377598
  0
SEQEND
  8
0
  0
POLYLINE
  8
PLAN_1
 62
     5
  6
CONTINUOUS
 66
     1
 40
0.003000
 41
0.003000
  0
VERTEX
  8
PLAN_1
 62
     5
  6
CONTINUOUS
 10
-1.456882
 20
3.385551
  0
VERTEX
  8
PLAN_1
 62
     5
  6
CONTINUOUS
 10
-1.456882
 20
3.394071
  0
SEQEND
  8
0
  0
POLYLINE
  8
PLAN_1
 62
     5
  6
CONTINUOUS
 66
     1
 40
0.003000
 41
0.003000
  0
VERTEX
  8
PLAN_1
 62
     5
  6
CONTINUOUS
 10
-1.456882
 20
3.402591
  0
VERTEX
  8
PLAN_1
 62
     5
  6
CONTINUOUS
 10
-1.456882
 20
3.410543
  0
SEQEND
  8
0
  0
POLYLINE
  8
PLAN_1
 62
     5
  6
CONTINUOUS
 66
     1
 40
0.003000
 41
0.003000
  0
VERTEX
  8
PLAN_1
 62
     5
  6
CONTINUOUS
 10
-1.456882
 20
3.419063
  0
VERTEX
  8
PLAN_1
 62
     5
  6
CONTINUOUS
 10
-1.456882
 20
3.427583
  0
SEQEND
  8
0
  0
POLYLINE
  8
PLAN_1
 62
     5
  6
CONTINUOUS
 66
     1
 40
0.003000
 41
0.003000
  0
VERTEX
  8
PLAN_1
 62
     5
  6
CONTINUOUS
 10
-1.456882
 20
3.435535
  0
VERTEX
  8
PLAN_1
 62
     5
  6
CONTINUOUS
 10
-1.456882
 20
3.444055
  0
SEQEND
  8
0
  0
POLYLINE
  8
PLAN_1
 62
     5
  6
CONTINUOUS
 66
     1
 40
0.003000
 41
0.003000
  0
VERTEX
  8
PLAN_1
 62
     5
  6
CONTINUOUS
 10
-1.456882
 20
3.452575
  0
VERTEX
  8
PLAN_1
 62
     5
  6
CONTINUOUS
 10
-1.456882
 20
3.460528
  0
SEQEND
  8
0
  0
POLYLINE
  8
PLAN_1
 62
     5
  6
CONTINUOUS
 66
     1
 40
0.003000
 41
0.003000
  0
VERTEX
  8
PLAN_1
 62
     5
  6
CONTINUOUS
 10
-1.456882
 20
3.469047
  0
VERTEX
  8
PLAN_1
 62
     5
  6
CONTINUOUS
 10
-1.456882
 20
3.477567
  0
SEQEND
  8
0
  0
POLYLINE
  8
PLAN_1
 62
     5
  6
CONTINUOUS
 66
     1
 40
0.003000
 41
0.003000
  0
VERTEX
  8
PLAN_1
 62
     5
  6
CONTINUOUS
 10
-1.456882
 20
3.485520
  0
VERTEX
  8
PLAN_1
 62
     5
  6
CONTINUOUS
 10
-1.456882
 20
3.486657
  0
VERTEX
  8
PLAN_1
 62
     5
  6
CONTINUOUS
 10
-1.449496
 20
3.486657
  0
SEQEND
  8
0
  0
POLYLINE
  8
PLAN_1
 62
     5
  6
CONTINUOUS
 66
     1
 40
0.003000
 41
0.003000
  0
VERTEX
  8
PLAN_1
 62
     5
  6
CONTINUOUS
 10
-1.441543
 20
3.486657
  0
VERTEX
  8
PLAN_1
 62
     5
  6
CONTINUOUS
 10
-1.433024
 20
3.486657
  0
SEQEND
  8
0
  0
POLYLINE
  8
PLAN_1
 62
     5
  6
CONTINUOUS
 66
     1
 40
0.003000
 41
0.003000
  0
VERTEX
  8
PLAN_1
 62
     5
  6
CONTINUOUS
 10
-1.426209
 20
3.485520
  0
VERTEX
  8
PLAN_1
 62
     5
  6
CONTINUOUS
 10
-1.426209
 20
3.477000
  0
SEQEND
  8
0
  0
POLYLINE
  8
PLAN_1
 62
     5
  6
CONTINUOUS
 66
     1
 40
0.003000
 41
0.003000
  0
VERTEX
  8
PLAN_1
 62
     5
  6
CONTINUOUS
 10
-1.426209
 20
3.469047
  0
VERTEX
  8
PLAN_1
 62
     5
  6
CONTINUOUS
 10
-1.426209
 20
3.460528
  0
SEQEND
  8
0
  0
POLYLINE
  8
PLAN_1
 62
     5
  6
CONTINUOUS
 66
     1
 40
0.003000
 41
0.003000
  0
VERTEX
  8
PLAN_1
 62
     5
  6
CONTINUOUS
 10
-1.426209
 20
3.452008
  0
VERTEX
  8
PLAN_1
 62
     5
  6
CONTINUOUS
 10
-1.426209
 20
3.450870
  0
SEQEND
  8
0
  0
POLYLINE
  8
PLAN_1
 62
     5
  6
CONTINUOUS
 66
     1
 40
0.003000
 41
0.003000
  0
VERTEX
  8
PLAN_1
 62
     5
  6
CONTINUOUS
 10
-1.426209
 20
3.452008
  0
VERTEX
  8
PLAN_1
 62
     5
  6
CONTINUOUS
 10
-1.426209
 20
3.450870
  0
SEQEND
  8
0
  0
POLYLINE
  8
PLAN_1
 62
     2
  6
CONTINUOUS
 66
     1
 40
0.003972
 41
0.003972
  0
VERTEX
  8
PLAN_1
 62
     2
  6
CONTINUOUS
 10
-0.688374
 20
-2.727264
  0
VERTEX
  8
PLAN_1
 62
     2
  6
CONTINUOUS
 10
0.274386
 20
-2.727264
  0
SEQEND
  8
0
  0
SOLID
  8
PLAN_1
 62
     2
 10
0.303921
 20
-2.727264
 11
0.244846
 21
-2.711358
 12
0.303921
 22
-2.727264
 13
0.244846
 23
-2.743169
  0
POLYLINE
  8
PLAN_1
 62
     2
  6
CONTINUOUS
 66
     1
 40
0.003000
 41
0.003000
  0
VERTEX
  8
PLAN_1
 62
     2
  6
CONTINUOUS
 10
0.303921
 20
-2.727264
  0
VERTEX
  8
PLAN_1
 62
     2
  6
CONTINUOUS
 10
0.244846
 20
-2.711358
  0
VERTEX
  8
PLAN_1
 62
     2
  6
CONTINUOUS
 10
0.244846
 20
-2.743169
  0
VERTEX
  8
PLAN_1
 62
     2
  6
CONTINUOUS
 10
0.303921
 20
-2.727264
  0
SEQEND
  8
0
  0
SOLID
  8
PLAN_1
 62
     2
 10
-0.717913
 20
-2.727264
 11
-0.658839
 21
-2.711358
 12
-0.717913
 22
-2.727264
 13
-0.658839
 23
-2.743169
  0
POLYLINE
  8
PLAN_1
 62
     2
  6
CONTINUOUS
 66
     1
 40
0.003000
 41
0.003000
  0
VERTEX
  8
PLAN_1
 62
     2
  6
CONTINUOUS
 10
-0.717913
 20
-2.727264
  0
VERTEX
  8
PLAN_1
 62
     2
  6
CONTINUOUS
 10
-0.658839
 20
-2.711358
  0
VERTEX
  8
PLAN_1
 62
     2
  6
CONTINUOUS
 10
-0.658839
 20
-2.743169
  0
VERTEX
  8
PLAN_1
 62
     2
  6
CONTINUOUS
 10
-0.717913
 20
-2.727264
  0
SEQEND
  8
0
  0
POLYLINE
  8
PLAN_1
 62
     2
  6
CONTINUOUS
 66
     1
 40
0.003000
 41
0.003000
  0
VERTEX
  8
PLAN_1
 62
     2
  6
CONTINUOUS
 10
-0.279417
 20
-2.656831
  0
VERTEX
  8
PLAN_1
 62
     2
  6
CONTINUOUS
 10
-0.279417
 20
-2.652287
  0
VERTEX
  8
PLAN_1
 62
     2
  6
CONTINUOUS
 10
-0.278846
 20
-2.648882
  0
VERTEX
  8
PLAN_1
 62
     2
  6
CONTINUOUS
 10
-0.277713
 20
-2.645472
  0
VERTEX
  8
PLAN_1
 62
     2
  6
CONTINUOUS
 10
-0.276575
 20
-2.642634
  0
VERTEX
  8
PLAN_1
 62
     2
  6
CONTINUOUS
 10
-0.275441
 20
-2.639791
  0
VERTEX
  8
PLAN_1
 62
     2
  6
CONTINUOUS
 10
-0.273736
 20
-2.638087
  0
VERTEX
  8
PLAN_1
 62
     2
  6
CONTINUOUS
 10
-0.272031
 20
-2.635815
  0
VERTEX
  8
PLAN_1
 62
     2
  6
CONTINUOUS
 10
-0.269760
 20
-2.634681
  0
VERTEX
  8
PLAN_1
 62
     2
  6
CONTINUOUS
 10
-0.265783
 20
-2.632409
  0
VERTEX
  8
PLAN_1
 62
     2
  6
CONTINUOUS
 10
-0.261240
 20
-2.631272
  0
VERTEX
  8
PLAN_1
 62
     2
  6
CONTINUOUS
 10
-0.257831
 20
-2.630705
  0
VERTEX
  8
PLAN_1
 62
     2
  6
CONTINUOUS
 10
-0.254425
 20
-2.630138
  0
VERTEX
  8
PLAN_1
 62
     2
  6
CONTINUOUS
 10
-0.249882
 20
-2.630705
  0
VERTEX
  8
PLAN_1
 62
     2
  6
CONTINUOUS
 10
-0.245335
 20
-2.631839
  0
VERTEX
  8
PLAN_1
 62
     2
  6
CONTINUOUS
 10
-0.241358
 20
-2.633543
  0
VERTEX
  8
PLAN_1
 62
     2
  6
CONTINUOUS
 10
-0.237953
 20
-2.636386
  0
VERTEX
  8
PLAN_1
 62
     2
  6
CONTINUOUS
 10
-0.235110
 20
-2.639224
  0
VERTEX
  8
PLAN_1
 62
     2
  6
CONTINUOUS
 10
-0.233409
 20
-2.643201
  0
VERTEX
  8
PLAN_1
 62
     2
  6
CONTINUOUS
 10
-0.231705
 20
-2.647177
  0
VERTEX
  8
PLAN_1
 62
     2
  6
CONTINUOUS
 10
-0.231138
 20
-2.652287
  0
VERTEX
  8
PLAN_1
 62
     2
  6
CONTINUOUS
 10
-0.231705
 20
-2.656831
  0
VERTEX
  8
PLAN_1
 62
     2
  6
CONTINUOUS
 10
-0.232839
 20
-2.660807
  0
VERTEX
  8
PLAN_1
 62
     2
  6
CONTINUOUS
 10
-0.234543
 20
-2.664217
  0
VERTEX
  8
PLAN_1
 62
     2
  6
CONTINUOUS
 10
-0.236815
 20
-2.667055
  0
VERTEX
  8
PLAN_1
 62
     2
  6
CONTINUOUS
 10
-0.239657
 20
-2.669898
  0
VERTEX
  8
PLAN_1
 62
     2
  6
CONTINUOUS
 10
-0.243063
 20
-2.672169
  0
VERTEX
  8
PLAN_1
 62
     2
  6
CONTINUOUS
 10
-0.247039
 20
-2.674441
  0
VERTEX
  8
PLAN_1
 62
     2
  6
CONTINUOUS
 10
-0.251016
 20
-2.676713
  0
VERTEX
  8
PLAN_1
 62
     2
  6
CONTINUOUS
 10
-0.258402
 20
-2.680689
  0
VERTEX
  8
PLAN_1
 62
     2
  6
CONTINUOUS
 10
-0.261807
 20
-2.682961
  0
VERTEX
  8
PLAN_1
 62
     2
  6
CONTINUOUS
 10
-0.264650
 20
-2.685232
  0
VERTEX
  8
PLAN_1
 62
     2
  6
CONTINUOUS
 10
-0.266921
 20
-2.686937
  0
VERTEX
  8
PLAN_1
 62
     2
  6
CONTINUOUS
 10
-0.268622
 20
-2.688642
  0
VERTEX
  8
PLAN_1
 62
     2
  6
CONTINUOUS
 10
-0.269760
 20
-2.690913
  0
VERTEX
  8
PLAN_1
 62
     2
  6
CONTINUOUS
 10
-0.270327
 20
-2.692047
  0
VERTEX
  8
PLAN_1
 62
     2
  6
CONTINUOUS
 10
-0.270898
 20
-2.693752
  0
VERTEX
  8
PLAN_1
 62
     2
  6
CONTINUOUS
 10
-0.270898
 20
-2.694890
  0
VERTEX
  8
PLAN_1
 62
     2
  6
CONTINUOUS
 10
-0.231138
 20
-2.694890
  0
VERTEX
  8
PLAN_1
 62
     2
  6
CONTINUOUS
 10
-0.231138
 20
-2.703409
  0
VERTEX
  8
PLAN_1
 62
     2
  6
CONTINUOUS
 10
-0.281118
 20
-2.703409
  0
VERTEX
  8
PLAN_1
 62
     2
  6
CONTINUOUS
 10
-0.281118
 20
-2.698295
  0
VERTEX
  8
PLAN_1
 62
     2
  6
CONTINUOUS
 10
-0.279984
 20
-2.693185
  0
VERTEX
  8
PLAN_1
 62
     2
  6
CONTINUOUS
 10
-0.278280
 20
-2.689209
  0
VERTEX
  8
PLAN_1
 62
     2
  6
CONTINUOUS
 10
-0.276008
 20
-2.685232
  0
VERTEX
  8
PLAN_1
 62
     2
  6
CONTINUOUS
 10
-0.273736
 20
-2.682394
  0
VERTEX
  8
PLAN_1
 62
     2
  6
CONTINUOUS
 10
-0.270898
 20
-2.679551
  0
VERTEX
  8
PLAN_1
 62
     2
  6
CONTINUOUS
 10
-0.267488
 20
-2.676713
  0
VERTEX
  8
PLAN_1
 62
     2
  6
CONTINUOUS
 10
-0.264079
 20
-2.674441
  0
VERTEX
  8
PLAN_1
 62
     2
  6
CONTINUOUS
 10
-0.254425
 20
-2.668760
  0
VERTEX
  8
PLAN_1
 62
     2
  6
CONTINUOUS
 10
-0.251583
 20
-2.667055
  0
VERTEX
  8
PLAN_1
 62
     2
  6
CONTINUOUS
 10
-0.249311
 20
-2.665921
  0
VERTEX
  8
PLAN_1
 62
     2
  6
CONTINUOUS
 10
-0.247039
 20
-2.664217
  0
VERTEX
  8
PLAN_1
 62
     2
  6
CONTINUOUS
 10
-0.244768
 20
-2.662512
  0
VERTEX
  8
PLAN_1
 62
     2
  6
CONTINUOUS
 10
-0.243063
 20
-2.660240
  0
VERTEX
  8
PLAN_1
 62
     2
  6
CONTINUOUS
 10
-0.241929
 20
-2.657969
  0
VERTEX
  8
PLAN_1
 62
     2
  6
CONTINUOUS
 10
-0.241358
 20
-2.655130
  0
VERTEX
  8
PLAN_1
 62
     2
  6
CONTINUOUS
 10
-0.241358
 20
-2.651720
  0
VERTEX
  8
PLAN_1
 62
     2
  6
CONTINUOUS
 10
-0.241358
 20
-2.649449
  0
VERTEX
  8
PLAN_1
 62
     2
  6
CONTINUOUS
 10
-0.241929
 20
-2.647177
  0
VERTEX
  8
PLAN_1
 62
     2
  6
CONTINUOUS
 10
-0.243063
 20
-2.644906
  0
VERTEX
  8
PLAN_1
 62
     2
  6
CONTINUOUS
 10
-0.244201
 20
-2.643201
  0
VERTEX
  8
PLAN_1
 62
     2
  6
CONTINUOUS
 10
-0.246472
 20
-2.641496
  0
VERTEX
  8
PLAN_1
 62
     2
  6
CONTINUOUS
 10
-0.248744
 20
-2.639791
  0
VERTEX
  8
PLAN_1
 62
     2
  6
CONTINUOUS
 10
-0.252154
 20
-2.639224
  0
VERTEX
  8
PLAN_1
 62
     2
  6
CONTINUOUS
 10
-0.255559
 20
-2.638657
  0
VERTEX
  8
PLAN_1
 62
     2
  6
CONTINUOUS
 10
-0.257831
 20
-2.638657
  0
VERTEX
  8
PLAN_1
 62
     2
  6
CONTINUOUS
 10
-0.260102
 20
-2.639224
  0
VERTEX
  8
PLAN_1
 62
     2
  6
CONTINUOUS
 10
-0.261807
 20
-2.639791
  0
VERTEX
  8
PLAN_1
 62
     2
  6
CONTINUOUS
 10
-0.263512
 20
-2.640929
  0
VERTEX
  8
PLAN_1
 62
     2
  6
CONTINUOUS
 10
-0.266350
 20
-2.643201
  0
VERTEX
  8
PLAN_1
 62
     2
  6
CONTINUOUS
 10
-0.268055
 20
-2.645472
  0
VERTEX
  8
PLAN_1
 62
     2
  6
CONTINUOUS
 10
-0.269193
 20
-2.648882
  0
VERTEX
  8
PLAN_1
 62
     2
  6
CONTINUOUS
 10
-0.269760
 20
-2.651720
  0
VERTEX
  8
PLAN_1
 62
     2
  6
CONTINUOUS
 10
-0.270327
 20
-2.654559
  0
VERTEX
  8
PLAN_1
 62
     2
  6
CONTINUOUS
 10
-0.270327
 20
-2.656831
  0
VERTEX
  8
PLAN_1
 62
     2
  6
CONTINUOUS
 10
-0.279417
 20
-2.656831
  0
SEQEND
  8
0
  0
POLYLINE
  8
PLAN_1
 62
     2
  6
CONTINUOUS
 66
     1
 40
0.003000
 41
0.003000
  0
VERTEX
  8
PLAN_1
 62
     2
  6
CONTINUOUS
 10
-0.210689
 20
-2.660807
  0
VERTEX
  8
PLAN_1
 62
     2
  6
CONTINUOUS
 10
-0.209551
 20
-2.660240
  0
VERTEX
  8
PLAN_1
 62
     2
  6
CONTINUOUS
 10
-0.208417
 20
-2.659102
  0
VERTEX
  8
PLAN_1
 62
     2
  6
CONTINUOUS
 10
-0.206713
 20
-2.658535
  0
VERTEX
  8
PLAN_1
 62
     2
  6
CONTINUOUS
 10
-0.205008
 20
-2.657969
  0
VERTEX
  8
PLAN_1
 62
     2
  6
CONTINUOUS
 10
-0.203303
 20
-2.657402
  0
VERTEX
  8
PLAN_1
 62
     2
  6
CONTINUOUS
 10
-0.201031
 20
-2.656831
  0
VERTEX
  8
PLAN_1
 62
     2
  6
CONTINUOUS
 10
-0.199327
 20
-2.656264
  0
VERTEX
  8
PLAN_1
 62
     2
  6
CONTINUOUS
 10
-0.196488
 20
-2.656264
  0
VERTEX
  8
PLAN_1
 62
     2
  6
CONTINUOUS
 10
-0.192512
 20
-2.656831
  0
VERTEX
  8
PLAN_1
 62
     2
  6
CONTINUOUS
 10
-0.187969
 20
-2.657969
  0
VERTEX
  8
PLAN_1
 62
     2
  6
CONTINUOUS
 10
-0.183992
 20
-2.659673
  0
VERTEX
  8
PLAN_1
 62
     2
  6
CONTINUOUS
 10
-0.180016
 20
-2.662512
  0
VERTEX
  8
PLAN_1
 62
     2
  6
CONTINUOUS
 10
-0.177177
 20
-2.665921
  0
VERTEX
  8
PLAN_1
 62
     2
  6
CONTINUOUS
 10
-0.174906
 20
-2.669898
  0
VERTEX
  8
PLAN_1
 62
     2
  6
CONTINUOUS
 10
-0.173201
 20
-2.674441
  0
VERTEX
  8
PLAN_1
 62
     2
  6
CONTINUOUS
 10
-0.172634
 20
-2.679551
  0
VERTEX
  8
PLAN_1
 62
     2
  6
CONTINUOUS
 10
-0.173201
 20
-2.683528
  0
VERTEX
  8
PLAN_1
 62
     2
  6
CONTINUOUS
 10
-0.173768
 20
-2.687504
  0
VERTEX
  8
PLAN_1
 62
     2
  6
CONTINUOUS
 10
-0.174906
 20
-2.691480
  0
VERTEX
  8
PLAN_1
 62
     2
  6
CONTINUOUS
 10
-0.177177
 20
-2.695457
  0
VERTEX
  8
PLAN_1
 62
     2
  6
CONTINUOUS
 10
-0.178882
 20
-2.697728
  0
VERTEX
  8
PLAN_1
 62
     2
  6
CONTINUOUS
 10
-0.180583
 20
-2.699433
  0
VERTEX
  8
PLAN_1
 62
     2
  6
CONTINUOUS
 10
-0.182854
 20
-2.701138
  0
VERTEX
  8
PLAN_1
 62
     2
  6
CONTINUOUS
 10
-0.185697
 20
-2.702839
  0
VERTEX
  8
PLAN_1
 62
     2
  6
CONTINUOUS
 10
-0.188535
 20
-2.703976
  0
VERTEX
  8
PLAN_1
 62
     2
  6
CONTINUOUS
 10
-0.191374
 20
-2.704543
  0
VERTEX
  8
PLAN_1
 62
     2
  6
CONTINUOUS
 10
-0.195350
 20
-2.705110
  0
VERTEX
  8
PLAN_1
 62
     2
  6
CONTINUOUS
 10
-0.199327
 20
-2.705681
  0
VERTEX
  8
PLAN_1
 62
     2
  6
CONTINUOUS
 10
-0.202736
 20
-2.705110
  0
VERTEX
  8
PLAN_1
 62
     2
  6
CONTINUOUS
 10
-0.206713
 20
-2.704543
  0
VERTEX
  8
PLAN_1
 62
     2
  6
CONTINUOUS
 10
-0.210689
 20
-2.703409
  0
VERTEX
  8
PLAN_1
 62
     2
  6
CONTINUOUS
 10
-0.214094
 20
-2.701705
  0
VERTEX
  8
PLAN_1
 62
     2
  6
CONTINUOUS
 10
-0.216937
 20
-2.698862
  0
VERTEX
  8
PLAN_1
 62
     2
  6
CONTINUOUS
 10
-0.219776
 20
-2.695457
  0
VERTEX
  8
PLAN_1
 62
     2
  6
CONTINUOUS
 10
-0.221480
 20
-2.690913
  0
VERTEX
  8
PLAN_1
 62
     2
  6
CONTINUOUS
 10
-0.222614
 20
-2.685232
  0
VERTEX
  8
PLAN_1
 62
     2
  6
CONTINUOUS
 10
-0.213528
 20
-2.685232
  0
VERTEX
  8
PLAN_1
 62
     2
  6
CONTINUOUS
 10
-0.212961
 20
-2.688071
  0
VERTEX
  8
PLAN_1
 62
     2
  6
CONTINUOUS
 10
-0.211823
 20
-2.690913
  0
VERTEX
  8
PLAN_1
 62
     2
  6
CONTINUOUS
 10
-0.210118
 20
-2.693185
  0
VERTEX
  8
PLAN_1
 62
     2
  6
CONTINUOUS
 10
-0.208417
 20
-2.694890
  0
VERTEX
  8
PLAN_1
 62
     2
  6
CONTINUOUS
 10
-0.206146
 20
-2.696024
  0
VERTEX
  8
PLAN_1
 62
     2
  6
CONTINUOUS
 10
-0.203870
 20
-2.697161
  0
VERTEX
  8
PLAN_1
 62
     2
  6
CONTINUOUS
 10
-0.201031
 20
-2.697161
  0
VERTEX
  8
PLAN_1
 62
     2
  6
CONTINUOUS
 10
-0.197622
 20
-2.697728
  0
VERTEX
  8
PLAN_1
 62
     2
  6
CONTINUOUS
 10
-0.194783
 20
-2.697161
  0
VERTEX
  8
PLAN_1
 62
     2
  6
CONTINUOUS
 10
-0.191374
 20
-2.696024
  0
VERTEX
  8
PLAN_1
 62
     2
  6
CONTINUOUS
 10
-0.189102
 20
-2.694890
  0
VERTEX
  8
PLAN_1
 62
     2
  6
CONTINUOUS
 10
-0.186831
 20
-2.692618
  0
VERTEX
  8
PLAN_1
 62
     2
  6
CONTINUOUS
 10
-0.185130
 20
-2.690343
  0
VERTEX
  8
PLAN_1
 62
     2
  6
CONTINUOUS
 10
-0.183425
 20
-2.687504
  0
VERTEX
  8
PLAN_1
 62
     2
  6
CONTINUOUS
 10
-0.182854
 20
-2.684094
  0
VERTEX
  8
PLAN_1
 62
     2
  6
CONTINUOUS
 10
-0.182287
 20
-2.680689
  0
VERTEX
  8
PLAN_1
 62
     2
  6
CONTINUOUS
 10
-0.182854
 20
-2.677280
  0
VERTEX
  8
PLAN_1
 62
     2
  6
CONTINUOUS
 10
-0.183992
 20
-2.673874
  0
VERTEX
  8
PLAN_1
 62
     2
  6
CONTINUOUS
 10
-0.185130
 20
-2.671031
  0
VERTEX
  8
PLAN_1
 62
     2
  6
CONTINUOUS
 10
-0.187402
 20
-2.668760
  0
VERTEX
  8
PLAN_1
 62
     2
  6
CONTINUOUS
 10
-0.189673
 20
-2.667055
  0
VERTEX
  8
PLAN_1
 62
     2
  6
CONTINUOUS
 10
-0.192512
 20
-2.665921
  0
VERTEX
  8
PLAN_1
 62
     2
  6
CONTINUOUS
 10
-0.195350
 20
-2.664783
  0
VERTEX
  8
PLAN_1
 62
     2
  6
CONTINUOUS
 10
-0.198760
 20
-2.664783
  0
VERTEX
  8
PLAN_1
 62
     2
  6
CONTINUOUS
 10
-0.200465
 20
-2.664783
  0
VERTEX
  8
PLAN_1
 62
     2
  6
CONTINUOUS
 10
-0.202736
 20
-2.665350
  0
VERTEX
  8
PLAN_1
 62
     2
  6
CONTINUOUS
 10
-0.204441
 20
-2.665921
  0
VERTEX
  8
PLAN_1
 62
     2
  6
CONTINUOUS
 10
-0.206146
 20
-2.666488
  0
VERTEX
  8
PLAN_1
 62
     2
  6
CONTINUOUS
 10
-0.207846
 20
-2.667626
  0
VERTEX
  8
PLAN_1
 62
     2
  6
CONTINUOUS
 10
-0.209551
 20
-2.668760
  0
VERTEX
  8
PLAN_1
 62
     2
  6
CONTINUOUS
 10
-0.210689
 20
-2.669898
  0
VERTEX
  8
PLAN_1
 62
     2
  6
CONTINUOUS
 10
-0.212394
 20
-2.671598
  0
VERTEX
  8
PLAN_1
 62
     2
  6
CONTINUOUS
 10
-0.220343
 20
-2.671031
  0
VERTEX
  8
PLAN_1
 62
     2
  6
CONTINUOUS
 10
-0.214665
 20
-2.631839
  0
VERTEX
  8
PLAN_1
 62
     2
  6
CONTINUOUS
 10
-0.176606
 20
-2.631839
  0
VERTEX
  8
PLAN_1
 62
     2
  6
CONTINUOUS
 10
-0.176606
 20
-2.640929
  0
VERTEX
  8
PLAN_1
 62
     2
  6
CONTINUOUS
 10
-0.207846
 20
-2.640929
  0
VERTEX
  8
PLAN_1
 62
     2
  6
CONTINUOUS
 10
-0.210689
 20
-2.660807
  0
SEQEND
  8
0
  0
POLYLINE
  8
PLAN_1
 62
     2
  6
CONTINUOUS
 66
     1
 40
0.003972
 41
0.003972
  0
VERTEX
  8
PLAN_1
 62
     2
  6
CONTINUOUS
 10
-2.078839
 20
-2.884598
  0
VERTEX
  8
PLAN_1
 62
     2
  6
CONTINUOUS
 10
0.274386
 20
-2.884598
  0
SEQEND
  8
0
  0
SOLID
  8
PLAN_1
 62
     2
 10
0.303921
 20
-2.884598
 11
0.244846
 21
-2.868697
 12
0.303921
 22
-2.884598
 13
0.244846
 23
-2.900504
  0
POLYLINE
  8
PLAN_1
 62
     2
  6
CONTINUOUS
 66
     1
 40
0.003000
 41
0.003000
  0
VERTEX
  8
PLAN_1
 62
     2
  6
CONTINUOUS
 10
0.303921
 20
-2.884598
  0
VERTEX
  8
PLAN_1
 62
     2
  6
CONTINUOUS
 10
0.244846
 20
-2.868697
  0
VERTEX
  8
PLAN_1
 62
     2
  6
CONTINUOUS
 10
0.244846
 20
-2.900504
  0
VERTEX
  8
PLAN_1
 62
     2
  6
CONTINUOUS
 10
0.303921
 20
-2.884598
  0
SEQEND
  8
0
  0
SOLID
  8
PLAN_1
 62
     2
 10
-2.108378
 20
-2.884598
 11
-2.049303
 21
-2.868697
 12
-2.108378
 22
-2.884598
 13
-2.049303
 23
-2.900504
  0
POLYLINE
  8
PLAN_1
 62
     2
  6
CONTINUOUS
 66
     1
 40
0.003000
 41
0.003000
  0
VERTEX
  8
PLAN_1
 62
     2
  6
CONTINUOUS
 10
-2.108378
 20
-2.884598
  0
VERTEX
  8
PLAN_1
 62
     2
  6
CONTINUOUS
 10
-2.049303
 20
-2.868697
  0
VERTEX
  8
PLAN_1
 62
     2
  6
CONTINUOUS
 10
-2.049303
 20
-2.900504
  0
VERTEX
  8
PLAN_1
 62
     2
  6
CONTINUOUS
 10
-2.108378
 20
-2.884598
  0
SEQEND
  8
0
  0
POLYLINE
  8
PLAN_1
 62
     2
  6
CONTINUOUS
 66
     1
 40
0.003972
 41
0.003972
  0
VERTEX
  8
PLAN_1
 62
     2
  6
CONTINUOUS
 10
-0.717913
 20
0.501815
  0
VERTEX
  8
PLAN_1
 62
     2
  6
CONTINUOUS
 10
-0.717913
 20
-2.750551
  0
SEQEND
  8
0
  0
POLYLINE
  8
PLAN_1
 62
     2
  6
CONTINUOUS
 66
     1
 40
0.003972
 41
0.003972
  0
VERTEX
  8
PLAN_1
 62
     2
  6
CONTINUOUS
 10
0.303921
 20
-2.013854
  0
VERTEX
  8
PLAN_1
 62
     2
  6
CONTINUOUS
 10
0.303921
 20
-2.908457
  0
SEQEND
  8
0
  0
POLYLINE
  8
PLAN_1
 62
     2
  6
CONTINUOUS
 66
     1
 40
0.003972
 41
0.003972
  0
VERTEX
  8
PLAN_1
 62
     2
  6
CONTINUOUS
 10
-2.108378
 20
1.474232
  0
VERTEX
  8
PLAN_1
 62
     2
  6
CONTINUOUS
 10
-2.108378
 20
-2.908457
  0
SEQEND
  8
0
  0
POLYLINE
  8
PLAN_1
 62
     2
  6
CONTINUOUS
 66
     1
 40
0.003972
 41
0.003972
  0
VERTEX
  8
PLAN_1
 62
     2
  6
CONTINUOUS
 10
0.336862
 20
-2.571634
  0
VERTEX
  8
PLAN_1
 62
     2
  6
CONTINUOUS
 10
0.496472
 20
-2.571634
  0
SEQEND
  8
0
  0
POLYLINE
  8
PLAN_1
 62
     2
  6
CONTINUOUS
 66
     1
 40
0.003972
 41
0.003972
  0
VERTEX
  8
PLAN_1
 62
     2
  6
CONTINUOUS
 10
0.472614
 20
-2.542094
  0
VERTEX
  8
PLAN_1
 62
     2
  6
CONTINUOUS
 10
0.472614
 20
4.054087
  0
SEQEND
  8
0
  0
SOLID
  8
PLAN_1
 62
     2
 10
0.472614
 20
4.083622
 11
0.456713
 21
4.024551
 12
0.472614
 22
4.083622
 13
0.488520
 23
4.024551
  0
POLYLINE
  8
PLAN_1
 62
     2
  6
CONTINUOUS
 66
     1
 40
0.003000
 41
0.003000
  0
VERTEX
  8
PLAN_1
 62
     2
  6
CONTINUOUS
 10
0.472614
 20
4.083622
  0
VERTEX
  8
PLAN_1
 62
     2
  6
CONTINUOUS
 10
0.456713
 20
4.024551
  0
VERTEX
  8
PLAN_1
 62
     2
  6
CONTINUOUS
 10
0.488520
 20
4.024551
  0
VERTEX
  8
PLAN_1
 62
     2
  6
CONTINUOUS
 10
0.472614
 20
4.083622
  0
SEQEND
  8
0
  0
SOLID
  8
PLAN_1
 62
     2
 10
0.472614
 20
-2.571634
 11
0.456713
 21
-2.512559
 12
0.472614
 22
-2.571634
 13
0.488520
 23
-2.512559
  0
POLYLINE
  8
PLAN_1
 62
     2
  6
CONTINUOUS
 66
     1
 40
0.003000
 41
0.003000
  0
VERTEX
  8
PLAN_1
 62
     2
  6
CONTINUOUS
 10
0.472614
 20
-2.571634
  0
VERTEX
  8
PLAN_1
 62
     2
  6
CONTINUOUS
 10
0.456713
 20
-2.512559
  0
VERTEX
  8
PLAN_1
 62
     2
  6
CONTINUOUS
 10
0.488520
 20
-2.512559
  0
VERTEX
  8
PLAN_1
 62
     2
  6
CONTINUOUS
 10
0.472614
 20
-2.571634
  0
SEQEND
  8
0
  0
POLYLINE
  8
PLAN_1
 62
     2
  6
CONTINUOUS
 66
     1
 40
0.003972
 41
0.003972
  0
VERTEX
  8
PLAN_1
 62
     2
  6
CONTINUOUS
 10
-1.433591
 20
4.083622
  0
VERTEX
  8
PLAN_1
 62
     2
  6
CONTINUOUS
 10
0.496472
 20
4.083622
  0
SEQEND
  8
0
  0
POLYLINE
  8
PLAN_1
 62
     2
  6
CONTINUOUS
 66
     1
 40
0.003000
 41
0.003000
  0
VERTEX
  8
PLAN_1
 62
     2
  6
CONTINUOUS
 10
-0.925232
 20
-2.807350
  0
VERTEX
  8
PLAN_1
 62
     2
  6
CONTINUOUS
 10
-0.925799
 20
-2.805079
  0
VERTEX
  8
PLAN_1
 62
     2
  6
CONTINUOUS
 10
-0.926366
 20
-2.802807
  0
VERTEX
  8
PLAN_1
 62
     2
  6
CONTINUOUS
 10
-0.927504
 20
-2.801102
  0
VERTEX
  8
PLAN_1
 62
     2
  6
CONTINUOUS
 10
-0.928642
 20
-2.799402
  0
VERTEX
  8
PLAN_1
 62
     2
  6
CONTINUOUS
 10
-0.930343
 20
-2.797697
  0
VERTEX
  8
PLAN_1
 62
     2
  6
CONTINUOUS
 10
-0.932614
 20
-2.797130
  0
VERTEX
  8
PLAN_1
 62
     2
  6
CONTINUOUS
 10
-0.934890
 20
-2.796559
  0
VERTEX
  8
PLAN_1
 62
     2
  6
CONTINUOUS
 10
-0.937728
 20
-2.795992
  0
VERTEX
  8
PLAN_1
 62
     2
  6
CONTINUOUS
 10
-0.940000
 20
-2.796559
  0
VERTEX
  8
PLAN_1
 62
     2
  6
CONTINUOUS
 10
-0.942272
 20
-2.797130
  0
VERTEX
  8
PLAN_1
 62
     2
  6
CONTINUOUS
 10
-0.944543
 20
-2.797697
  0
VERTEX
  8
PLAN_1
 62
     2
  6
CONTINUOUS
 10
-0.946248
 20
-2.799402
  0
VERTEX
  8
PLAN_1
 62
     2
  6
CONTINUOUS
 10
-0.949657
 20
-2.802807
  0
VERTEX
  8
PLAN_1
 62
     2
  6
CONTINUOUS
 10
-0.951929
 20
-2.806783
  0
VERTEX
  8
PLAN_1
 62
     2
  6
CONTINUOUS
 10
-0.953063
 20
-2.811327
  0
VERTEX
  8
PLAN_1
 62
     2
  6
CONTINUOUS
 10
-0.954201
 20
-2.815874
  0
VERTEX
  8
PLAN_1
 62
     2
  6
CONTINUOUS
 10
-0.954768
 20
-2.819846
  0
VERTEX
  8
PLAN_1
 62
     2
  6
CONTINUOUS
 10
-0.954768
 20
-2.823256
  0
VERTEX
  8
PLAN_1
 62
     2
  6
CONTINUOUS
 10
-0.953634
 20
-2.821551
  0
VERTEX
  8
PLAN_1
 62
     2
  6
CONTINUOUS
 10
-0.952496
 20
-2.820417
  0
VERTEX
  8
PLAN_1
 62
     2
  6
CONTINUOUS
 10
-0.950791
 20
-2.818713
  0
VERTEX
  8
PLAN_1
 62
     2
  6
CONTINUOUS
 10
-0.949087
 20
-2.817575
  0
VERTEX
  8
PLAN_1
 62
     2
  6
CONTINUOUS
 10
-0.946815
 20
-2.816441
  0
VERTEX
  8
PLAN_1
 62
     2
  6
CONTINUOUS
 10
-0.943976
 20
-2.815303
  0
VERTEX
  8
PLAN_1
 62
     2
  6
CONTINUOUS
 10
-0.941138
 20
-2.814736
  0
VERTEX
  8
PLAN_1
 62
     2
  6
CONTINUOUS
 10
-0.937728
 20
-2.814169
  0
VERTEX
  8
PLAN_1
 62
     2
  6
CONTINUOUS
 10
-0.933752
 20
-2.814736
  0
VERTEX
  8
PLAN_1
 62
     2
  6
CONTINUOUS
 10
-0.930343
 20
-2.815303
  0
VERTEX
  8
PLAN_1
 62
     2
  6
CONTINUOUS
 10
-0.926366
 20
-2.817008
  0
VERTEX
  8
PLAN_1
 62
     2
  6
CONTINUOUS
 10
-0.922394
 20
-2.819280
  0
VERTEX
  8
PLAN_1
 62
     2
  6
CONTINUOUS
 10
-0.919551
 20
-2.822689
  0
VERTEX
  8
PLAN_1
 62
     2
  6
CONTINUOUS
 10
-0.916713
 20
-2.826665
  0
VERTEX
  8
PLAN_1
 62
     2
  6
CONTINUOUS
 10
-0.916146
 20
-2.828937
  0
VERTEX
  8
PLAN_1
 62
     2
  6
CONTINUOUS
 10
-0.915008
 20
-2.831776
  0
VERTEX
  8
PLAN_1
 62
     2
  6
CONTINUOUS
 10
-0.915008
 20
-2.834618
  0
VERTEX
  8
PLAN_1
 62
     2
  6
CONTINUOUS
 10
-0.914441
 20
-2.837457
  0
VERTEX
  8
PLAN_1
 62
     2
  6
CONTINUOUS
 10
-0.914441
 20
-2.840295
  0
VERTEX
  8
PLAN_1
 62
     2
  6
CONTINUOUS
 10
-0.915008
 20
-2.843138
  0
VERTEX
  8
PLAN_1
 62
     2
  6
CONTINUOUS
 10
-0.915575
 20
-2.845409
  0
VERTEX
  8
PLAN_1
 62
     2
  6
CONTINUOUS
 10
-0.916146
 20
-2.847681
  0
VERTEX
  8
PLAN_1
 62
     2
  6
CONTINUOUS
 10
-0.917280
 20
-2.849953
  0
VERTEX
  8
PLAN_1
 62
     2
  6
CONTINUOUS
 10
-0.918417
 20
-2.851657
  0
VERTEX
  8
PLAN_1
 62
     2
  6
CONTINUOUS
 10
-0.919551
 20
-2.853929
  0
VERTEX
  8
PLAN_1
 62
     2
  6
CONTINUOUS
 10
-0.921823
 20
-2.855634
  0
VERTEX
  8
PLAN_1
 62
     2
  6
CONTINUOUS
 10
-0.922961
 20
-2.857335
  0
VERTEX
  8
PLAN_1
 62
     2
  6
CONTINUOUS
 10
-0.924665
 20
-2.859039
  0
VERTEX
  8
PLAN_1
 62
     2
  6
CONTINUOUS
 10
-0.926366
 20
-2.860177
  0
VERTEX
  8
PLAN_1
 62
     2
  6
CONTINUOUS
 10
-0.928642
 20
-2.861311
  0
VERTEX
  8
PLAN_1
 62
     2
  6
CONTINUOUS
 10
-0.930913
 20
-2.861882
  0
VERTEX
  8
PLAN_1
 62
     2
  6
CONTINUOUS
 10
-0.933185
 20
-2.862449
  0
VERTEX
  8
PLAN_1
 62
     2
  6
CONTINUOUS
 10
-0.936591
 20
-2.863016
  0
VERTEX
  8
PLAN_1
 62
     2
  6
CONTINUOUS
 10
-0.940000
 20
-2.863016
  0
VERTEX
  8
PLAN_1
 62
     2
  6
CONTINUOUS
 10
-0.942272
 20
-2.863016
  0
VERTEX
  8
PLAN_1
 62
     2
  6
CONTINUOUS
 10
-0.944543
 20
-2.862449
  0
VERTEX
  8
PLAN_1
 62
     2
  6
CONTINUOUS
 10
-0.947386
 20
-2.861882
  0
VERTEX
  8
PLAN_1
 62
     2
  6
CONTINUOUS
 10
-0.949657
 20
-2.860744
  0
VERTEX
  8
PLAN_1
 62
     2
  6
CONTINUOUS
 10
-0.951929
 20
-2.859039
  0
VERTEX
  8
PLAN_1
 62
     2
  6
CONTINUOUS
 10
-0.954768
 20
-2.857335
  0
VERTEX
  8
PLAN_1
 62
     2
  6
CONTINUOUS
 10
-0.957039
 20
-2.855063
  0
VERTEX
  8
PLAN_1
 62
     2
  6
CONTINUOUS
 10
-0.958744
 20
-2.852224
  0
VERTEX
  8
PLAN_1
 62
     2
  6
CONTINUOUS
 10
-0.960449
 20
-2.849953
  0
VERTEX
  8
PLAN_1
 62
     2
  6
CONTINUOUS
 10
-0.961583
 20
-2.847110
  0
VERTEX
  8
PLAN_1
 62
     2
  6
CONTINUOUS
 10
-0.962720
 20
-2.843705
  0
VERTEX
  8
PLAN_1
 62
     2
  6
CONTINUOUS
 10
-0.963287
 20
-2.840862
  0
VERTEX
  8
PLAN_1
 62
     2
  6
CONTINUOUS
 10
-0.963854
 20
-2.837457
  0
VERTEX
  8
PLAN_1
 62
     2
  6
CONTINUOUS
 10
-0.964425
 20
-2.834047
  0
VERTEX
  8
PLAN_1
 62
     2
  6
CONTINUOUS
 10
-0.964425
 20
-2.830642
  0
VERTEX
  8
PLAN_1
 62
     2
  6
CONTINUOUS
 10
-0.964425
 20
-2.827232
  0
VERTEX
  8
PLAN_1
 62
     2
  6
CONTINUOUS
 10
-0.964425
 20
-2.820984
  0
VERTEX
  8
PLAN_1
 62
     2
  6
CONTINUOUS
 10
-0.963287
 20
-2.814169
  0
VERTEX
  8
PLAN_1
 62
     2
  6
CONTINUOUS
 10
-0.961583
 20
-2.807350
  0
VERTEX
  8
PLAN_1
 62
     2
  6
CONTINUOUS
 10
-0.959311
 20
-2.801673
  0
VERTEX
  8
PLAN_1
 62
     2
  6
CONTINUOUS
 10
-0.957606
 20
-2.798831
  0
VERTEX
  8
PLAN_1
 62
     2
  6
CONTINUOUS
 10
-0.955906
 20
-2.795992
  0
VERTEX
  8
PLAN_1
 62
     2
  6
CONTINUOUS
 10
-0.953634
 20
-2.793720
  0
VERTEX
  8
PLAN_1
 62
     2
  6
CONTINUOUS
 10
-0.950791
 20
-2.791449
  0
VERTEX
  8
PLAN_1
 62
     2
  6
CONTINUOUS
 10
-0.947953
 20
-2.790311
  0
VERTEX
  8
PLAN_1
 62
     2
  6
CONTINUOUS
 10
-0.945110
 20
-2.788606
  0
VERTEX
  8
PLAN_1
 62
     2
  6
CONTINUOUS
 10
-0.941138
 20
-2.788039
  0
VERTEX
  8
PLAN_1
 62
     2
  6
CONTINUOUS
 10
-0.937728
 20
-2.788039
  0
VERTEX
  8
PLAN_1
 62
     2
  6
CONTINUOUS
 10
-0.934319
 20
-2.788039
  0
VERTEX
  8
PLAN_1
 62
     2
  6
CONTINUOUS
 10
-0.930913
 20
-2.788606
  0
VERTEX
  8
PLAN_1
 62
     2
  6
CONTINUOUS
 10
-0.927504
 20
-2.790311
  0
VERTEX
  8
PLAN_1
 62
     2
  6
CONTINUOUS
 10
-0.924094
 20
-2.792016
  0
VERTEX
  8
PLAN_1
 62
     2
  6
CONTINUOUS
 10
-0.921256
 20
-2.794854
  0
VERTEX
  8
PLAN_1
 62
     2
  6
CONTINUOUS
 10
-0.918417
 20
-2.798264
  0
VERTEX
  8
PLAN_1
 62
     2
  6
CONTINUOUS
 10
-0.916713
 20
-2.802240
  0
VERTEX
  8
PLAN_1
 62
     2
  6
CONTINUOUS
 10
-0.916146
 20
-2.807350
  0
VERTEX
  8
PLAN_1
 62
     2
  6
CONTINUOUS
 10
-0.925232
 20
-2.807350
  0
SEQEND
  8
0
  0
POLYLINE
  8
PLAN_1
 62
     2
  6
CONTINUOUS
 66
     1
 40
0.003000
 41
0.003000
  0
VERTEX
  8
PLAN_1
 62
     2
  6
CONTINUOUS
 10
-0.938295
 20
-2.854496
  0
VERTEX
  8
PLAN_1
 62
     2
  6
CONTINUOUS
 10
-0.935457
 20
-2.854496
  0
VERTEX
  8
PLAN_1
 62
     2
  6
CONTINUOUS
 10
-0.932614
 20
-2.853358
  0
VERTEX
  8
PLAN_1
 62
     2
  6
CONTINUOUS
 10
-0.929776
 20
-2.852224
  0
VERTEX
  8
PLAN_1
 62
     2
  6
CONTINUOUS
 10
-0.928071
 20
-2.849953
  0
VERTEX
  8
PLAN_1
 62
     2
  6
CONTINUOUS
 10
-0.926366
 20
-2.847681
  0
VERTEX
  8
PLAN_1
 62
     2
  6
CONTINUOUS
 10
-0.925232
 20
-2.844839
  0
VERTEX
  8
PLAN_1
 62
     2
  6
CONTINUOUS
 10
-0.924094
 20
-2.841433
  0
VERTEX
  8
PLAN_1
 62
     2
  6
CONTINUOUS
 10
-0.924094
 20
-2.838024
  0
VERTEX
  8
PLAN_1
 62
     2
  6
CONTINUOUS
 10
-0.924094
 20
-2.835752
  0
VERTEX
  8
PLAN_1
 62
     2
  6
CONTINUOUS
 10
-0.924665
 20
-2.832913
  0
VERTEX
  8
PLAN_1
 62
     2
  6
CONTINUOUS
 10
-0.925799
 20
-2.830071
  0
VERTEX
  8
PLAN_1
 62
     2
  6
CONTINUOUS
 10
-0.926937
 20
-2.827799
  0
VERTEX
  8
PLAN_1
 62
     2
  6
CONTINUOUS
 10
-0.929209
 20
-2.825528
  0
VERTEX
  8
PLAN_1
 62
     2
  6
CONTINUOUS
 10
-0.931480
 20
-2.824394
  0
VERTEX
  8
PLAN_1
 62
     2
  6
CONTINUOUS
 10
-0.934890
 20
-2.823256
  0
VERTEX
  8
PLAN_1
 62
     2
  6
CONTINUOUS
 10
-0.938862
 20
-2.822689
  0
VERTEX
  8
PLAN_1
 62
     2
  6
CONTINUOUS
 10
-0.942272
 20
-2.822689
  0
VERTEX
  8
PLAN_1
 62
     2
  6
CONTINUOUS
 10
-0.945681
 20
-2.823823
  0
VERTEX
  8
PLAN_1
 62
     2
  6
CONTINUOUS
 10
-0.947953
 20
-2.825528
  0
VERTEX
  8
PLAN_1
 62
     2
  6
CONTINUOUS
 10
-0.950224
 20
-2.827232
  0
VERTEX
  8
PLAN_1
 62
     2
  6
CONTINUOUS
 10
-0.951929
 20
-2.829504
  0
VERTEX
  8
PLAN_1
 62
     2
  6
CONTINUOUS
 10
-0.953063
 20
-2.832343
  0
VERTEX
  8
PLAN_1
 62
     2
  6
CONTINUOUS
 10
-0.953634
 20
-2.835185
  0
VERTEX
  8
PLAN_1
 62
     2
  6
CONTINUOUS
 10
-0.953634
 20
-2.838591
  0
VERTEX
  8
PLAN_1
 62
     2
  6
CONTINUOUS
 10
-0.953634
 20
-2.841433
  0
VERTEX
  8
PLAN_1
 62
     2
  6
CONTINUOUS
 10
-0.953063
 20
-2.844272
  0
VERTEX
  8
PLAN_1
 62
     2
  6
CONTINUOUS
 10
-0.951929
 20
-2.847110
  0
VERTEX
  8
PLAN_1
 62
     2
  6
CONTINUOUS
 10
-0.950224
 20
-2.849386
  0
VERTEX
  8
PLAN_1
 62
     2
  6
CONTINUOUS
 10
-0.947953
 20
-2.851657
  0
VERTEX
  8
PLAN_1
 62
     2
  6
CONTINUOUS
 10
-0.945110
 20
-2.853358
  0
VERTEX
  8
PLAN_1
 62
     2
  6
CONTINUOUS
 10
-0.942272
 20
-2.854496
  0
VERTEX
  8
PLAN_1
 62
     2
  6
CONTINUOUS
 10
-0.938295
 20
-2.854496
  0
SEQEND
  8
0
  0
POLYLINE
  8
PLAN_1
 62
     2
  6
CONTINUOUS
 66
     1
 40
0.003000
 41
0.003000
  0
VERTEX
  8
PLAN_1
 62
     2
  6
CONTINUOUS
 10
-0.881496
 20
-2.863016
  0
VERTEX
  8
PLAN_1
 62
     2
  6
CONTINUOUS
 10
-0.885472
 20
-2.862449
  0
VERTEX
  8
PLAN_1
 62
     2
  6
CONTINUOUS
 10
-0.888882
 20
-2.861882
  0
VERTEX
  8
PLAN_1
 62
     2
  6
CONTINUOUS
 10
-0.891720
 20
-2.860744
  0
VERTEX
  8
PLAN_1
 62
     2
  6
CONTINUOUS
 10
-0.894559
 20
-2.859039
  0
VERTEX
  8
PLAN_1
 62
     2
  6
CONTINUOUS
 10
-0.896831
 20
-2.857335
  0
VERTEX
  8
PLAN_1
 62
     2
  6
CONTINUOUS
 10
-0.899102
 20
-2.855063
  0
VERTEX
  8
PLAN_1
 62
     2
  6
CONTINUOUS
 10
-0.900807
 20
-2.852791
  0
VERTEX
  8
PLAN_1
 62
     2
  6
CONTINUOUS
 10
-0.901945
 20
-2.849953
  0
VERTEX
  8
PLAN_1
 62
     2
  6
CONTINUOUS
 10
-0.904217
 20
-2.843705
  0
VERTEX
  8
PLAN_1
 62
     2
  6
CONTINUOUS
 10
-0.905921
 20
-2.837457
  0
VERTEX
  8
PLAN_1
 62
     2
  6
CONTINUOUS
 10
-0.906488
 20
-2.831209
  0
VERTEX
  8
PLAN_1
 62
     2
  6
CONTINUOUS
 10
-0.906488
 20
-2.825528
  0
VERTEX
  8
PLAN_1
 62
     2
  6
CONTINUOUS
 10
-0.906488
 20
-2.819280
  0
VERTEX
  8
PLAN_1
 62
     2
  6
CONTINUOUS
 10
-0.905921
 20
-2.813031
  0
VERTEX
  8
PLAN_1
 62
     2
  6
CONTINUOUS
 10
-0.904217
 20
-2.806783
  0
VERTEX
  8
PLAN_1
 62
     2
  6
CONTINUOUS
 10
-0.901945
 20
-2.801102
  0
VERTEX
  8
PLAN_1
 62
     2
  6
CONTINUOUS
 10
-0.900807
 20
-2.798264
  0
VERTEX
  8
PLAN_1
 62
     2
  6
CONTINUOUS
 10
-0.899102
 20
-2.795992
  0
VERTEX
  8
PLAN_1
 62
     2
  6
CONTINUOUS
 10
-0.896831
 20
-2.793720
  0
VERTEX
  8
PLAN_1
 62
     2
  6
CONTINUOUS
 10
-0.894559
 20
-2.791449
  0
VERTEX
  8
PLAN_1
 62
     2
  6
CONTINUOUS
 10
-0.891720
 20
-2.790311
  0
VERTEX
  8
PLAN_1
 62
     2
  6
CONTINUOUS
 10
-0.888882
 20
-2.788606
  0
VERTEX
  8
PLAN_1
 62
     2
  6
CONTINUOUS
 10
-0.885472
 20
-2.788039
  0
VERTEX
  8
PLAN_1
 62
     2
  6
CONTINUOUS
 10
-0.881496
 20
-2.788039
  0
VERTEX
  8
PLAN_1
 62
     2
  6
CONTINUOUS
 10
-0.878087
 20
-2.788039
  0
VERTEX
  8
PLAN_1
 62
     2
  6
CONTINUOUS
 10
-0.874681
 20
-2.788606
  0
VERTEX
  8
PLAN_1
 62
     2
  6
CONTINUOUS
 10
-0.871272
 20
-2.790311
  0
VERTEX
  8
PLAN_1
 62
     2
  6
CONTINUOUS
 10
-0.869000
 20
-2.791449
  0
VERTEX
  8
PLAN_1
 62
     2
  6
CONTINUOUS
 10
-0.866728
 20
-2.793720
  0
VERTEX
  8
PLAN_1
 62
     2
  6
CONTINUOUS
 10
-0.864457
 20
-2.795992
  0
VERTEX
  8
PLAN_1
 62
     2
  6
CONTINUOUS
 10
-0.862752
 20
-2.798264
  0
VERTEX
  8
PLAN_1
 62
     2
  6
CONTINUOUS
 10
-0.861047
 20
-2.801102
  0
VERTEX
  8
PLAN_1
 62
     2
  6
CONTINUOUS
 10
-0.858776
 20
-2.806783
  0
VERTEX
  8
PLAN_1
 62
     2
  6
CONTINUOUS
 10
-0.857642
 20
-2.813031
  0
VERTEX
  8
PLAN_1
 62
     2
  6
CONTINUOUS
 10
-0.857071
 20
-2.819280
  0
VERTEX
  8
PLAN_1
 62
     2
  6
CONTINUOUS
 10
-0.856504
 20
-2.825528
  0
VERTEX
  8
PLAN_1
 62
     2
  6
CONTINUOUS
 10
-0.857071
 20
-2.831209
  0
VERTEX
  8
PLAN_1
 62
     2
  6
CONTINUOUS
 10
-0.857642
 20
-2.837457
  0
VERTEX
  8
PLAN_1
 62
     2
  6
CONTINUOUS
 10
-0.858776
 20
-2.843705
  0
VERTEX
  8
PLAN_1
 62
     2
  6
CONTINUOUS
 10
-0.861047
 20
-2.849953
  0
VERTEX
  8
PLAN_1
 62
     2
  6
CONTINUOUS
 10
-0.862752
 20
-2.852791
  0
VERTEX
  8
PLAN_1
 62
     2
  6
CONTINUOUS
 10
-0.864457
 20
-2.855063
  0
VERTEX
  8
PLAN_1
 62
     2
  6
CONTINUOUS
 10
-0.866728
 20
-2.857335
  0
VERTEX
  8
PLAN_1
 62
     2
  6
CONTINUOUS
 10
-0.869000
 20
-2.859039
  0
VERTEX
  8
PLAN_1
 62
     2
  6
CONTINUOUS
 10
-0.871272
 20
-2.860744
  0
VERTEX
  8
PLAN_1
 62
     2
  6
CONTINUOUS
 10
-0.874681
 20
-2.861882
  0
VERTEX
  8
PLAN_1
 62
     2
  6
CONTINUOUS
 10
-0.878087
 20
-2.862449
  0
VERTEX
  8
PLAN_1
 62
     2
  6
CONTINUOUS
 10
-0.881496
 20
-2.863016
  0
SEQEND
  8
0
  0
POLYLINE
  8
PLAN_1
 62
     2
  6
CONTINUOUS
 66
     1
 40
0.003000
 41
0.003000
  0
VERTEX
  8
PLAN_1
 62
     2
  6
CONTINUOUS
 10
-0.881496
 20
-2.795992
  0
VERTEX
  8
PLAN_1
 62
     2
  6
CONTINUOUS
 10
-0.885472
 20
-2.796559
  0
VERTEX
  8
PLAN_1
 62
     2
  6
CONTINUOUS
 10
-0.888311
 20
-2.798264
  0
VERTEX
  8
PLAN_1
 62
     2
  6
CONTINUOUS
 10
-0.891154
 20
-2.800535
  0
VERTEX
  8
PLAN_1
 62
     2
  6
CONTINUOUS
 10
-0.893425
 20
-2.803945
  0
VERTEX
  8
PLAN_1
 62
     2
  6
CONTINUOUS
 10
-0.895130
 20
-2.807921
  0
VERTEX
  8
PLAN_1
 62
     2
  6
CONTINUOUS
 10
-0.896264
 20
-2.813031
  0
VERTEX
  8
PLAN_1
 62
     2
  6
CONTINUOUS
 10
-0.896831
 20
-2.818713
  0
VERTEX
  8
PLAN_1
 62
     2
  6
CONTINUOUS
 10
-0.896831
 20
-2.825528
  0
VERTEX
  8
PLAN_1
 62
     2
  6
CONTINUOUS
 10
-0.896831
 20
-2.831776
  0
VERTEX
  8
PLAN_1
 62
     2
  6
CONTINUOUS
 10
-0.896264
 20
-2.837457
  0
VERTEX
  8
PLAN_1
 62
     2
  6
CONTINUOUS
 10
-0.895130
 20
-2.842567
  0
VERTEX
  8
PLAN_1
 62
     2
  6
CONTINUOUS
 10
-0.893425
 20
-2.847110
  0
VERTEX
  8
PLAN_1
 62
     2
  6
CONTINUOUS
 10
-0.891154
 20
-2.850520
  0
VERTEX
  8
PLAN_1
 62
     2
  6
CONTINUOUS
 10
-0.888311
 20
-2.852791
  0
VERTEX
  8
PLAN_1
 62
     2
  6
CONTINUOUS
 10
-0.885472
 20
-2.854496
  0
VERTEX
  8
PLAN_1
 62
     2
  6
CONTINUOUS
 10
-0.881496
 20
-2.854496
  0
VERTEX
  8
PLAN_1
 62
     2
  6
CONTINUOUS
 10
-0.878087
 20
-2.854496
  0
VERTEX
  8
PLAN_1
 62
     2
  6
CONTINUOUS
 10
-0.874681
 20
-2.852791
  0
VERTEX
  8
PLAN_1
 62
     2
  6
CONTINUOUS
 10
-0.872409
 20
-2.850520
  0
VERTEX
  8
PLAN_1
 62
     2
  6
CONTINUOUS
 10
-0.870138
 20
-2.847110
  0
VERTEX
  8
PLAN_1
 62
     2
  6
CONTINUOUS
 10
-0.868433
 20
-2.842567
  0
VERTEX
  8
PLAN_1
 62
     2
  6
CONTINUOUS
 10
-0.867295
 20
-2.837457
  0
VERTEX
  8
PLAN_1
 62
     2
  6
CONTINUOUS
 10
-0.866728
 20
-2.831776
  0
VERTEX
  8
PLAN_1
 62
     2
  6
CONTINUOUS
 10
-0.866161
 20
-2.825528
  0
VERTEX
  8
PLAN_1
 62
     2
  6
CONTINUOUS
 10
-0.866728
 20
-2.818713
  0
VERTEX
  8
PLAN_1
 62
     2
  6
CONTINUOUS
 10
-0.867295
 20
-2.813031
  0
VERTEX
  8
PLAN_1
 62
     2
  6
CONTINUOUS
 10
-0.868433
 20
-2.807921
  0
VERTEX
  8
PLAN_1
 62
     2
  6
CONTINUOUS
 10
-0.870138
 20
-2.803945
  0
VERTEX
  8
PLAN_1
 62
     2
  6
CONTINUOUS
 10
-0.872409
 20
-2.800535
  0
VERTEX
  8
PLAN_1
 62
     2
  6
CONTINUOUS
 10
-0.874681
 20
-2.798264
  0
VERTEX
  8
PLAN_1
 62
     2
  6
CONTINUOUS
 10
-0.878087
 20
-2.796559
  0
VERTEX
  8
PLAN_1
 62
     2
  6
CONTINUOUS
 10
-0.881496
 20
-2.795992
  0
SEQEND
  8
0
  0
POLYLINE
  8
PLAN_1
 62
     2
  6
CONTINUOUS
 66
     1
 40
0.003972
 41
0.003972
  0
VERTEX
  8
PLAN_1
 62
     2
  6
CONTINUOUS
 10
-1.519358
 20
4.264248
  0
VERTEX
  8
PLAN_1
 62
     2
  6
CONTINUOUS
 10
0.267567
 20
4.264248
  0
SEQEND
  8
0
  0
SOLID
  8
PLAN_1
 62
     2
 10
0.297102
 20
4.264248
 11
0.238031
 21
4.280154
 12
0.297102
 22
4.264248
 13
0.238031
 23
4.248343
  0
POLYLINE
  8
PLAN_1
 62
     2
  6
CONTINUOUS
 66
     1
 40
0.003000
 41
0.003000
  0
VERTEX
  8
PLAN_1
 62
     2
  6
CONTINUOUS
 10
0.297102
 20
4.264248
  0
VERTEX
  8
PLAN_1
 62
     2
  6
CONTINUOUS
 10
0.238031
 20
4.280154
  0
VERTEX
  8
PLAN_1
 62
     2
  6
CONTINUOUS
 10
0.238031
 20
4.248343
  0
VERTEX
  8
PLAN_1
 62
     2
  6
CONTINUOUS
 10
0.297102
 20
4.264248
  0
SEQEND
  8
0
  0
SOLID
  8
PLAN_1
 62
     2
 10
-1.548898
 20
4.264248
 11
-1.490394
 21
4.280154
 12
-1.548898
 22
4.264248
 13
-1.490394
 23
4.248343
  0
POLYLINE
  8
PLAN_1
 62
     2
  6
CONTINUOUS
 66
     1
 40
0.003000
 41
0.003000
  0
VERTEX
  8
PLAN_1
 62
     2
  6
CONTINUOUS
 10
-1.548898
 20
4.264248
  0
VERTEX
  8
PLAN_1
 62
     2
  6
CONTINUOUS
 10
-1.490394
 20
4.280154
  0
VERTEX
  8
PLAN_1
 62
     2
  6
CONTINUOUS
 10
-1.490394
 20
4.248343
  0
VERTEX
  8
PLAN_1
 62
     2
  6
CONTINUOUS
 10
-1.548898
 20
4.264248
  0
SEQEND
  8
0
  0
POLYLINE
  8
PLAN_1
 62
     2
  6
CONTINUOUS
 66
     1
 40
0.003972
 41
0.003972
  0
VERTEX
  8
PLAN_1
 62
     2
  6
CONTINUOUS
 10
-1.918094
 20
4.445441
  0
VERTEX
  8
PLAN_1
 62
     2
  6
CONTINUOUS
 10
0.267567
 20
4.445441
  0
SEQEND
  8
0
  0
SOLID
  8
PLAN_1
 62
     2
 10
0.297102
 20
4.445441
 11
0.238031
 21
4.460776
 12
0.297102
 22
4.445441
 13
0.238031
 23
4.429535
  0
POLYLINE
  8
PLAN_1
 62
     2
  6
CONTINUOUS
 66
     1
 40
0.003000
 41
0.003000
  0
VERTEX
  8
PLAN_1
 62
     2
  6
CONTINUOUS
 10
0.297102
 20
4.445441
  0
VERTEX
  8
PLAN_1
 62
     2
  6
CONTINUOUS
 10
0.238031
 20
4.460776
  0
VERTEX
  8
PLAN_1
 62
     2
  6
CONTINUOUS
 10
0.238031
 20
4.429535
  0
VERTEX
  8
PLAN_1
 62
     2
  6
CONTINUOUS
 10
0.297102
 20
4.445441
  0
SEQEND
  8
0
  0
SOLID
  8
PLAN_1
 62
     2
 10
-1.947634
 20
4.445441
 11
-1.888559
 21
4.460776
 12
-1.947634
 22
4.445441
 13
-1.888559
 23
4.429535
  0
POLYLINE
  8
PLAN_1
 62
     2
  6
CONTINUOUS
 66
     1
 40
0.003000
 41
0.003000
  0
VERTEX
  8
PLAN_1
 62
     2
  6
CONTINUOUS
 10
-1.947634
 20
4.445441
  0
VERTEX
  8
PLAN_1
 62
     2
  6
CONTINUOUS
 10
-1.888559
 20
4.460776
  0
VERTEX
  8
PLAN_1
 62
     2
  6
CONTINUOUS
 10
-1.888559
 20
4.429535
  0
VERTEX
  8
PLAN_1
 62
     2
  6
CONTINUOUS
 10
-1.947634
 20
4.445441
  0
SEQEND
  8
0
  0
POLYLINE
  8
PLAN_1
 62
     2
  6
CONTINUOUS
 66
     1
 40
0.003972
 41
0.003972
  0
VERTEX
  8
PLAN_1
 62
     2
  6
CONTINUOUS
 10
-2.218000
 20
4.264248
  0
VERTEX
  8
PLAN_1
 62
     2
  6
CONTINUOUS
 10
-1.886854
 20
4.264248
  0
SEQEND
  8
0
  0
SOLID
  8
PLAN_1
 62
     2
 10
-1.857319
 20
4.264248
 11
-1.916394
 21
4.280154
 12
-1.857319
 22
4.264248
 13
-1.916394
 23
4.248343
  0
POLYLINE
  8
PLAN_1
 62
     2
  6
CONTINUOUS
 66
     1
 40
0.003000
 41
0.003000
  0
VERTEX
  8
PLAN_1
 62
     2
  6
CONTINUOUS
 10
-1.857319
 20
4.264248
  0
VERTEX
  8
PLAN_1
 62
     2
  6
CONTINUOUS
 10
-1.916394
 20
4.280154
  0
VERTEX
  8
PLAN_1
 62
     2
  6
CONTINUOUS
 10
-1.916394
 20
4.248343
  0
VERTEX
  8
PLAN_1
 62
     2
  6
CONTINUOUS
 10
-1.857319
 20
4.264248
  0
SEQEND
  8
0
  0
SOLID
  8
PLAN_1
 62
     2
 10
-2.037378
 20
4.264248
 11
-1.978303
 21
4.280154
 12
-2.037378
 22
4.264248
 13
-1.978303
 23
4.248343
  0
POLYLINE
  8
PLAN_1
 62
     2
  6
CONTINUOUS
 66
     1
 40
0.003000
 41
0.003000
  0
VERTEX
  8
PLAN_1
 62
     2
  6
CONTINUOUS
 10
-2.037378
 20
4.264248
  0
VERTEX
  8
PLAN_1
 62
     2
  6
CONTINUOUS
 10
-1.978303
 20
4.280154
  0
VERTEX
  8
PLAN_1
 62
     2
  6
CONTINUOUS
 10
-1.978303
 20
4.248343
  0
VERTEX
  8
PLAN_1
 62
     2
  6
CONTINUOUS
 10
-2.037378
 20
4.264248
  0
SEQEND
  8
0
  0
POLYLINE
  8
PLAN_1
 62
     2
  6
CONTINUOUS
 66
     1
 40
0.003972
 41
0.003972
  0
VERTEX
  8
PLAN_1
 62
     2
  6
CONTINUOUS
 10
-2.037378
 20
4.287535
  0
VERTEX
  8
PLAN_1
 62
     2
  6
CONTINUOUS
 10
-2.037378
 20
4.109185
  0
SEQEND
  8
0
  0
POLYLINE
  8
PLAN_1
 62
     2
  6
CONTINUOUS
 66
     1
 40
0.003972
 41
0.003972
  0
VERTEX
  8
PLAN_1
 62
     2
  6
CONTINUOUS
 10
-1.857319
 20
4.287535
  0
VERTEX
  8
PLAN_1
 62
     2
  6
CONTINUOUS
 10
-1.857319
 20
4.109185
  0
SEQEND
  8
0
  0
POLYLINE
  8
PLAN_1
 62
     2
  6
CONTINUOUS
 66
     1
 40
0.003972
 41
0.003972
  0
VERTEX
  8
PLAN_1
 62
     2
  6
CONTINUOUS
 10
-1.548898
 20
4.287535
  0
VERTEX
  8
PLAN_1
 62
     2
  6
CONTINUOUS
 10
-1.548898
 20
3.964343
  0
SEQEND
  8
0
  0
POLYLINE
  8
PLAN_1
 62
     2
  6
CONTINUOUS
 66
     1
 40
0.003972
 41
0.003972
  0
VERTEX
  8
PLAN_1
 62
     2
  6
CONTINUOUS
 10
0.297102
 20
0.952240
  0
VERTEX
  8
PLAN_1
 62
     2
  6
CONTINUOUS
 10
0.297102
 20
4.051815
  0
SEQEND
  8
0
  0
POLYLINE
  8
PLAN_1
 62
     2
  6
CONTINUOUS
 66
     1
 40
0.003972
 41
0.003972
  0
VERTEX
  8
PLAN_1
 62
     2
  6
CONTINUOUS
 10
0.297102
 20
4.122815
  0
VERTEX
  8
PLAN_1
 62
     2
  6
CONTINUOUS
 10
0.297102
 20
4.468728
  0
SEQEND
  8
0
  0
POLYLINE
  8
PLAN_1
 62
     2
  6
CONTINUOUS
 66
     1
 40
0.003972
 41
0.003972
  0
VERTEX
  8
PLAN_1
 62
     2
  6
CONTINUOUS
 10
-1.947634
 20
4.382394
  0
VERTEX
  8
PLAN_1
 62
     2
  6
CONTINUOUS
 10
-1.947634
 20
4.468728
  0
SEQEND
  8
0
  0
POLYLINE
  8
PLAN_1
 62
     2
  6
CONTINUOUS
 66
     1
 40
0.003000
 41
0.003000
  0
VERTEX
  8
PLAN_1
 62
     2
  6
CONTINUOUS
 10
-2.192441
 20
4.330138
  0
VERTEX
  8
PLAN_1
 62
     2
  6
CONTINUOUS
 10
-2.191303
 20
4.331272
  0
VERTEX
  8
PLAN_1
 62
     2
  6
CONTINUOUS
 10
-2.189598
 20
4.331839
  0
VERTEX
  8
PLAN_1
 62
     2
  6
CONTINUOUS
 10
-2.188465
 20
4.332976
  0
VERTEX
  8
PLAN_1
 62
     2
  6
CONTINUOUS
 10
-2.186760
 20
4.333543
  0
VERTEX
  8
PLAN_1
 62
     2
  6
CONTINUOUS
 10
-2.185055
 20
4.334110
  0
VERTEX
  8
PLAN_1
 62
     2
  6
CONTINUOUS
 10
-2.182783
 20
4.334681
  0
VERTEX
  8
PLAN_1
 62
     2
  6
CONTINUOUS
 10
-2.180512
 20
4.334681
  0
VERTEX
  8
PLAN_1
 62
     2
  6
CONTINUOUS
 10
-2.178240
 20
4.334681
  0
VERTEX
  8
PLAN_1
 62
     2
  6
CONTINUOUS
 10
-2.173697
 20
4.334681
  0
VERTEX
  8
PLAN_1
 62
     2
  6
CONTINUOUS
 10
-2.169720
 20
4.333543
  0
VERTEX
  8
PLAN_1
 62
     2
  6
CONTINUOUS
 10
-2.165177
 20
4.331272
  0
VERTEX
  8
PLAN_1
 62
     2
  6
CONTINUOUS
 10
-2.161768
 20
4.329000
  0
VERTEX
  8
PLAN_1
 62
     2
  6
CONTINUOUS
 10
-2.158929
 20
4.325591
  0
VERTEX
  8
PLAN_1
 62
     2
  6
CONTINUOUS
 10
-2.156087
 20
4.321614
  0
VERTEX
  8
PLAN_1
 62
     2
  6
CONTINUOUS
 10
-2.154953
 20
4.317071
  0
VERTEX
  8
PLAN_1
 62
     2
  6
CONTINUOUS
 10
-2.154386
 20
4.311394
  0
VERTEX
  8
PLAN_1
 62
     2
  6
CONTINUOUS
 10
-2.154386
 20
4.307984
  0
VERTEX
  8
PLAN_1
 62
     2
  6
CONTINUOUS
 10
-2.154953
 20
4.304008
  0
VERTEX
  8
PLAN_1
 62
     2
  6
CONTINUOUS
 10
-2.156657
 20
4.300031
  0
VERTEX
  8
PLAN_1
 62
     2
  6
CONTINUOUS
 10
-2.158929
 20
4.295488
  0
VERTEX
  8
PLAN_1
 62
     2
  6
CONTINUOUS
 10
-2.160634
 20
4.293783
  0
VERTEX
  8
PLAN_1
 62
     2
  6
CONTINUOUS
 10
-2.162335
 20
4.291512
  0
VERTEX
  8
PLAN_1
 62
     2
  6
CONTINUOUS
 10
-2.164606
 20
4.290378
  0
VERTEX
  8
PLAN_1
 62
     2
  6
CONTINUOUS
 10
-2.166882
 20
4.288673
  0
VERTEX
  8
PLAN_1
 62
     2
  6
CONTINUOUS
 10
-2.169720
 20
4.287535
  0
VERTEX
  8
PLAN_1
 62
     2
  6
CONTINUOUS
 10
-2.173130
 20
4.286402
  0
VERTEX
  8
PLAN_1
 62
     2
  6
CONTINUOUS
 10
-2.176535
 20
4.285831
  0
VERTEX
  8
PLAN_1
 62
     2
  6
CONTINUOUS
 10
-2.180512
 20
4.285831
  0
VERTEX
  8
PLAN_1
 62
     2
  6
CONTINUOUS
 10
-2.184488
 20
4.285831
  0
VERTEX
  8
PLAN_1
 62
     2
  6
CONTINUOUS
 10
-2.188465
 20
4.286402
  0
VERTEX
  8
PLAN_1
 62
     2
  6
CONTINUOUS
 10
-2.191870
 20
4.288102
  0
VERTEX
  8
PLAN_1
 62
     2
  6
CONTINUOUS
 10
-2.195280
 20
4.289807
  0
VERTEX
  8
PLAN_1
 62
     2
  6
CONTINUOUS
 10
-2.198689
 20
4.292650
  0
VERTEX
  8
PLAN_1
 62
     2
  6
CONTINUOUS
 10
-2.201528
 20
4.296055
  0
VERTEX
  8
PLAN_1
 62
     2
  6
CONTINUOUS
 10
-2.203232
 20
4.300598
  0
VERTEX
  8
PLAN_1
 62
     2
  6
CONTINUOUS
 10
-2.204366
 20
4.305713
  0
VERTEX
  8
PLAN_1
 62
     2
  6
CONTINUOUS
 10
-2.194713
 20
4.305713
  0
VERTEX
  8
PLAN_1
 62
     2
  6
CONTINUOUS
 10
-2.194146
 20
4.302870
  0
VERTEX
  8
PLAN_1
 62
     2
  6
CONTINUOUS
 10
-2.193008
 20
4.300598
  0
VERTEX
  8
PLAN_1
 62
     2
  6
CONTINUOUS
 10
-2.191870
 20
4.298327
  0
VERTEX
  8
PLAN_1
 62
     2
  6
CONTINUOUS
 10
-2.189598
 20
4.296622
  0
VERTEX
  8
PLAN_1
 62
     2
  6
CONTINUOUS
 10
-2.187898
 20
4.295488
  0
VERTEX
  8
PLAN_1
 62
     2
  6
CONTINUOUS
 10
-2.185055
 20
4.294350
  0
VERTEX
  8
PLAN_1
 62
     2
  6
CONTINUOUS
 10
-2.182217
 20
4.293783
  0
VERTEX
  8
PLAN_1
 62
     2
  6
CONTINUOUS
 10
-2.179378
 20
4.293783
  0
VERTEX
  8
PLAN_1
 62
     2
  6
CONTINUOUS
 10
-2.175969
 20
4.293783
  0
VERTEX
  8
PLAN_1
 62
     2
  6
CONTINUOUS
 10
-2.173130
 20
4.294921
  0
VERTEX
  8
PLAN_1
 62
     2
  6
CONTINUOUS
 10
-2.170287
 20
4.296622
  0
VERTEX
  8
PLAN_1
 62
     2
  6
CONTINUOUS
 10
-2.168016
 20
4.298898
  0
VERTEX
  8
PLAN_1
 62
     2
  6
CONTINUOUS
 10
-2.166311
 20
4.301169
  0
VERTEX
  8
PLAN_1
 62
     2
  6
CONTINUOUS
 10
-2.165177
 20
4.304008
  0
VERTEX
  8
PLAN_1
 62
     2
  6
CONTINUOUS
 10
-2.164039
 20
4.306846
  0
VERTEX
  8
PLAN_1
 62
     2
  6
CONTINUOUS
 10
-2.164039
 20
4.310256
  0
VERTEX
  8
PLAN_1
 62
     2
  6
CONTINUOUS
 10
-2.164039
 20
4.314232
  0
VERTEX
  8
PLAN_1
 62
     2
  6
CONTINUOUS
 10
-2.165177
 20
4.317642
  0
VERTEX
  8
PLAN_1
 62
     2
  6
CONTINUOUS
 10
-2.166882
 20
4.320480
  0
VERTEX
  8
PLAN_1
 62
     2
  6
CONTINUOUS
 10
-2.168583
 20
4.322752
  0
VERTEX
  8
PLAN_1
 62
     2
  6
CONTINUOUS
 10
-2.170854
 20
4.324457
  0
VERTEX
  8
PLAN_1
 62
     2
  6
CONTINUOUS
 10
-2.173697
 20
4.325591
  0
VERTEX
  8
PLAN_1
 62
     2
  6
CONTINUOUS
 10
-2.177102
 20
4.326161
  0
VERTEX
  8
PLAN_1
 62
     2
  6
CONTINUOUS
 10
-2.179945
 20
4.326728
  0
VERTEX
  8
PLAN_1
 62
     2
  6
CONTINUOUS
 10
-2.182217
 20
4.326728
  0
VERTEX
  8
PLAN_1
 62
     2
  6
CONTINUOUS
 10
-2.183921
 20
4.326161
  0
VERTEX
  8
PLAN_1
 62
     2
  6
CONTINUOUS
 10
-2.186193
 20
4.325591
  0
VERTEX
  8
PLAN_1
 62
     2
  6
CONTINUOUS
 10
-2.187898
 20
4.325024
  0
VERTEX
  8
PLAN_1
 62
     2
  6
CONTINUOUS
 10
-2.189598
 20
4.323890
  0
VERTEX
  8
PLAN_1
 62
     2
  6
CONTINUOUS
 10
-2.190736
 20
4.322752
  0
VERTEX
  8
PLAN_1
 62
     2
  6
CONTINUOUS
 10
-2.192441
 20
4.321047
  0
VERTEX
  8
PLAN_1
 62
     2
  6
CONTINUOUS
 10
-2.193575
 20
4.319913
  0
VERTEX
  8
PLAN_1
 62
     2
  6
CONTINUOUS
 10
-2.201528
 20
4.319913
  0
VERTEX
  8
PLAN_1
 62
     2
  6
CONTINUOUS
 10
-2.196417
 20
4.359102
  0
VERTEX
  8
PLAN_1
 62
     2
  6
CONTINUOUS
 10
-2.158358
 20
4.359102
  0
VERTEX
  8
PLAN_1
 62
     2
  6
CONTINUOUS
 10
-2.158358
 20
4.350583
  0
VERTEX
  8
PLAN_1
 62
     2
  6
CONTINUOUS
 10
-2.189031
 20
4.350583
  0
VERTEX
  8
PLAN_1
 62
     2
  6
CONTINUOUS
 10
-2.192441
 20
4.330138
  0
SEQEND
  8
0
  0
POLYLINE
  8
PLAN_1
 62
     2
  6
CONTINUOUS
 66
     1
 40
0.003000
 41
0.003000
  0
VERTEX
  8
PLAN_1
 62
     2
  6
CONTINUOUS
 10
-2.140752
 20
4.298898
  0
VERTEX
  8
PLAN_1
 62
     2
  6
CONTINUOUS
 10
-2.129961
 20
4.298898
  0
VERTEX
  8
PLAN_1
 62
     2
  6
CONTINUOUS
 10
-2.129961
 20
4.288673
  0
VERTEX
  8
PLAN_1
 62
     2
  6
CONTINUOUS
 10
-2.130528
 20
4.284130
  0
VERTEX
  8
PLAN_1
 62
     2
  6
CONTINUOUS
 10
-2.131094
 20
4.280154
  0
VERTEX
  8
PLAN_1
 62
     2
  6
CONTINUOUS
 10
-2.132799
 20
4.277311
  0
VERTEX
  8
PLAN_1
 62
     2
  6
CONTINUOUS
 10
-2.134504
 20
4.275606
  0
VERTEX
  8
PLAN_1
 62
     2
  6
CONTINUOUS
 10
-2.136209
 20
4.273906
  0
VERTEX
  8
PLAN_1
 62
     2
  6
CONTINUOUS
 10
-2.137913
 20
4.273335
  0
VERTEX
  8
PLAN_1
 62
     2
  6
CONTINUOUS
 10
-2.139614
 20
4.272768
  0
VERTEX
  8
PLAN_1
 62
     2
  6
CONTINUOUS
 10
-2.140752
 20
4.272768
  0
VERTEX
  8
PLAN_1
 62
     2
  6
CONTINUOUS
 10
-2.140752
 20
4.277311
  0
VERTEX
  8
PLAN_1
 62
     2
  6
CONTINUOUS
 10
-2.139047
 20
4.277882
  0
VERTEX
  8
PLAN_1
 62
     2
  6
CONTINUOUS
 10
-2.137913
 20
4.278449
  0
VERTEX
  8
PLAN_1
 62
     2
  6
CONTINUOUS
 10
-2.137343
 20
4.279583
  0
VERTEX
  8
PLAN_1
 62
     2
  6
CONTINUOUS
 10
-2.136209
 20
4.280720
  0
VERTEX
  8
PLAN_1
 62
     2
  6
CONTINUOUS
 10
-2.135642
 20
4.282425
  0
VERTEX
  8
PLAN_1
 62
     2
  6
CONTINUOUS
 10
-2.135642
 20
4.284130
  0
VERTEX
  8
PLAN_1
 62
     2
  6
CONTINUOUS
 10
-2.135071
 20
4.285831
  0
VERTEX
  8
PLAN_1
 62
     2
  6
CONTINUOUS
 10
-2.135071
 20
4.287535
  0
VERTEX
  8
PLAN_1
 62
     2
  6
CONTINUOUS
 10
-2.140752
 20
4.287535
  0
VERTEX
  8
PLAN_1
 62
     2
  6
CONTINUOUS
 10
-2.140752
 20
4.298898
  0
SEQEND
  8
0
  0
POLYLINE
  8
PLAN_1
 62
     2
  6
CONTINUOUS
 66
     1
 40
0.003000
 41
0.003000
  0
VERTEX
  8
PLAN_1
 62
     2
  6
CONTINUOUS
 10
-2.105535
 20
4.330138
  0
VERTEX
  8
PLAN_1
 62
     2
  6
CONTINUOUS
 10
-2.104402
 20
4.331272
  0
VERTEX
  8
PLAN_1
 62
     2
  6
CONTINUOUS
 10
-2.102697
 20
4.331839
  0
VERTEX
  8
PLAN_1
 62
     2
  6
CONTINUOUS
 10
-2.101559
 20
4.332976
  0
VERTEX
  8
PLAN_1
 62
     2
  6
CONTINUOUS
 10
-2.099854
 20
4.333543
  0
VERTEX
  8
PLAN_1
 62
     2
  6
CONTINUOUS
 10
-2.098154
 20
4.334110
  0
VERTEX
  8
PLAN_1
 62
     2
  6
CONTINUOUS
 10
-2.095882
 20
4.334681
  0
VERTEX
  8
PLAN_1
 62
     2
  6
CONTINUOUS
 10
-2.093606
 20
4.334681
  0
VERTEX
  8
PLAN_1
 62
     2
  6
CONTINUOUS
 10
-2.091335
 20
4.334681
  0
VERTEX
  8
PLAN_1
 62
     2
  6
CONTINUOUS
 10
-2.086791
 20
4.334681
  0
VERTEX
  8
PLAN_1
 62
     2
  6
CONTINUOUS
 10
-2.082815
 20
4.333543
  0
VERTEX
  8
PLAN_1
 62
     2
  6
CONTINUOUS
 10
-2.078839
 20
4.331272
  0
VERTEX
  8
PLAN_1
 62
     2
  6
CONTINUOUS
 10
-2.074862
 20
4.329000
  0
VERTEX
  8
PLAN_1
 62
     2
  6
CONTINUOUS
 10
-2.072024
 20
4.325591
  0
VERTEX
  8
PLAN_1
 62
     2
  6
CONTINUOUS
 10
-2.069185
 20
4.321614
  0
VERTEX
  8
PLAN_1
 62
     2
  6
CONTINUOUS
 10
-2.068047
 20
4.317071
  0
VERTEX
  8
PLAN_1
 62
     2
  6
CONTINUOUS
 10
-2.067480
 20
4.311394
  0
VERTEX
  8
PLAN_1
 62
     2
  6
CONTINUOUS
 10
-2.067480
 20
4.307984
  0
VERTEX
  8
PLAN_1
 62
     2
  6
CONTINUOUS
 10
-2.068047
 20
4.304008
  0
VERTEX
  8
PLAN_1
 62
     2
  6
CONTINUOUS
 10
-2.069752
 20
4.300031
  0
VERTEX
  8
PLAN_1
 62
     2
  6
CONTINUOUS
 10
-2.072024
 20
4.295488
  0
VERTEX
  8
PLAN_1
 62
     2
  6
CONTINUOUS
 10
-2.073728
 20
4.293783
  0
VERTEX
  8
PLAN_1
 62
     2
  6
CONTINUOUS
 10
-2.075433
 20
4.291512
  0
VERTEX
  8
PLAN_1
 62
     2
  6
CONTINUOUS
 10
-2.077705
 20
4.290378
  0
VERTEX
  8
PLAN_1
 62
     2
  6
CONTINUOUS
 10
-2.079976
 20
4.288673
  0
VERTEX
  8
PLAN_1
 62
     2
  6
CONTINUOUS
 10
-2.082815
 20
4.287535
  0
VERTEX
  8
PLAN_1
 62
     2
  6
CONTINUOUS
 10
-2.086224
 20
4.286402
  0
VERTEX
  8
PLAN_1
 62
     2
  6
CONTINUOUS
 10
-2.089634
 20
4.285831
  0
VERTEX
  8
PLAN_1
 62
     2
  6
CONTINUOUS
 10
-2.094177
 20
4.285831
  0
VERTEX
  8
PLAN_1
 62
     2
  6
CONTINUOUS
 10
-2.097583
 20
4.285831
  0
VERTEX
  8
PLAN_1
 62
     2
  6
CONTINUOUS
 10
-2.101559
 20
4.286402
  0
VERTEX
  8
PLAN_1
 62
     2
  6
CONTINUOUS
 10
-2.104969
 20
4.288102
  0
VERTEX
  8
PLAN_1
 62
     2
  6
CONTINUOUS
 10
-2.108378
 20
4.289807
  0
VERTEX
  8
PLAN_1
 62
     2
  6
CONTINUOUS
 10
-2.111783
 20
4.292650
  0
VERTEX
  8
PLAN_1
 62
     2
  6
CONTINUOUS
 10
-2.114622
 20
4.296055
  0
VERTEX
  8
PLAN_1
 62
     2
  6
CONTINUOUS
 10
-2.116327
 20
4.300598
  0
VERTEX
  8
PLAN_1
 62
     2
  6
CONTINUOUS
 10
-2.117465
 20
4.305713
  0
VERTEX
  8
PLAN_1
 62
     2
  6
CONTINUOUS
 10
-2.107807
 20
4.305713
  0
VERTEX
  8
PLAN_1
 62
     2
  6
CONTINUOUS
 10
-2.107240
 20
4.302870
  0
VERTEX
  8
PLAN_1
 62
     2
  6
CONTINUOUS
 10
-2.106673
 20
4.300598
  0
VERTEX
  8
PLAN_1
 62
     2
  6
CONTINUOUS
 10
-2.104969
 20
4.298327
  0
VERTEX
  8
PLAN_1
 62
     2
  6
CONTINUOUS
 10
-2.103264
 20
4.296622
  0
VERTEX
  8
PLAN_1
 62
     2
  6
CONTINUOUS
 10
-2.100992
 20
4.295488
  0
VERTEX
  8
PLAN_1
 62
     2
  6
CONTINUOUS
 10
-2.098154
 20
4.294350
  0
VERTEX
  8
PLAN_1
 62
     2
  6
CONTINUOUS
 10
-2.095311
 20
4.293783
  0
VERTEX
  8
PLAN_1
 62
     2
  6
CONTINUOUS
 10
-2.092472
 20
4.293783
  0
VERTEX
  8
PLAN_1
 62
     2
  6
CONTINUOUS
 10
-2.089063
 20
4.293783
  0
VERTEX
  8
PLAN_1
 62
     2
  6
CONTINUOUS
 10
-2.086224
 20
4.294921
  0
VERTEX
  8
PLAN_1
 62
     2
  6
CONTINUOUS
 10
-2.083386
 20
4.296622
  0
VERTEX
  8
PLAN_1
 62
     2
  6
CONTINUOUS
 10
-2.081110
 20
4.298898
  0
VERTEX
  8
PLAN_1
 62
     2
  6
CONTINUOUS
 10
-2.079409
 20
4.301169
  0
VERTEX
  8
PLAN_1
 62
     2
  6
CONTINUOUS
 10
-2.078272
 20
4.304008
  0
VERTEX
  8
PLAN_1
 62
     2
  6
CONTINUOUS
 10
-2.077705
 20
4.306846
  0
VERTEX
  8
PLAN_1
 62
     2
  6
CONTINUOUS
 10
-2.077138
 20
4.310256
  0
VERTEX
  8
PLAN_1
 62
     2
  6
CONTINUOUS
 10
-2.077705
 20
4.314232
  0
VERTEX
  8
PLAN_1
 62
     2
  6
CONTINUOUS
 10
-2.078272
 20
4.317642
  0
VERTEX
  8
PLAN_1
 62
     2
  6
CONTINUOUS
 10
-2.079976
 20
4.320480
  0
VERTEX
  8
PLAN_1
 62
     2
  6
CONTINUOUS
 10
-2.081681
 20
4.322752
  0
VERTEX
  8
PLAN_1
 62
     2
  6
CONTINUOUS
 10
-2.084520
 20
4.324457
  0
VERTEX
  8
PLAN_1
 62
     2
  6
CONTINUOUS
 10
-2.086791
 20
4.325591
  0
VERTEX
  8
PLAN_1
 62
     2
  6
CONTINUOUS
 10
-2.090201
 20
4.326161
  0
VERTEX
  8
PLAN_1
 62
     2
  6
CONTINUOUS
 10
-2.093606
 20
4.326728
  0
VERTEX
  8
PLAN_1
 62
     2
  6
CONTINUOUS
 10
-2.095311
 20
4.326728
  0
VERTEX
  8
PLAN_1
 62
     2
  6
CONTINUOUS
 10
-2.097016
 20
4.326161
  0
VERTEX
  8
PLAN_1
 62
     2
  6
CONTINUOUS
 10
-2.099287
 20
4.325591
  0
VERTEX
  8
PLAN_1
 62
     2
  6
CONTINUOUS
 10
-2.100992
 20
4.325024
  0
VERTEX
  8
PLAN_1
 62
     2
  6
CONTINUOUS
 10
-2.102697
 20
4.323890
  0
VERTEX
  8
PLAN_1
 62
     2
  6
CONTINUOUS
 10
-2.103831
 20
4.322752
  0
VERTEX
  8
PLAN_1
 62
     2
  6
CONTINUOUS
 10
-2.105535
 20
4.321047
  0
VERTEX
  8
PLAN_1
 62
     2
  6
CONTINUOUS
 10
-2.106673
 20
4.319913
  0
VERTEX
  8
PLAN_1
 62
     2
  6
CONTINUOUS
 10
-2.114622
 20
4.319913
  0
VERTEX
  8
PLAN_1
 62
     2
  6
CONTINUOUS
 10
-2.109512
 20
4.359102
  0
VERTEX
  8
PLAN_1
 62
     2
  6
CONTINUOUS
 10
-2.071457
 20
4.359102
  0
VERTEX
  8
PLAN_1
 62
     2
  6
CONTINUOUS
 10
-2.071457
 20
4.350583
  0
VERTEX
  8
PLAN_1
 62
     2
  6
CONTINUOUS
 10
-2.102697
 20
4.350583
  0
VERTEX
  8
PLAN_1
 62
     2
  6
CONTINUOUS
 10
-2.105535
 20
4.330138
  0
SEQEND
  8
0
  0
POLYLINE
  8
PLAN_1
 62
     2
  6
CONTINUOUS
 66
     1
 40
0.003000
 41
0.003000
  0
VERTEX
  8
PLAN_1
 62
     2
  6
CONTINUOUS
 10
-0.867862
 20
4.511327
  0
VERTEX
  8
PLAN_1
 62
     2
  6
CONTINUOUS
 10
-0.866728
 20
4.512465
  0
VERTEX
  8
PLAN_1
 62
     2
  6
CONTINUOUS
 10
-0.865024
 20
4.513031
  0
VERTEX
  8
PLAN_1
 62
     2
  6
CONTINUOUS
 10
-0.863890
 20
4.514169
  0
VERTEX
  8
PLAN_1
 62
     2
  6
CONTINUOUS
 10
-0.862185
 20
4.514736
  0
VERTEX
  8
PLAN_1
 62
     2
  6
CONTINUOUS
 10
-0.859913
 20
4.515303
  0
VERTEX
  8
PLAN_1
 62
     2
  6
CONTINUOUS
 10
-0.858209
 20
4.515870
  0
VERTEX
  8
PLAN_1
 62
     2
  6
CONTINUOUS
 10
-0.855937
 20
4.515870
  0
VERTEX
  8
PLAN_1
 62
     2
  6
CONTINUOUS
 10
-0.853665
 20
4.515870
  0
VERTEX
  8
PLAN_1
 62
     2
  6
CONTINUOUS
 10
-0.849118
 20
4.515870
  0
VERTEX
  8
PLAN_1
 62
     2
  6
CONTINUOUS
 10
-0.844575
 20
4.514169
  0
VERTEX
  8
PLAN_1
 62
     2
  6
CONTINUOUS
 10
-0.840598
 20
4.512465
  0
VERTEX
  8
PLAN_1
 62
     2
  6
CONTINUOUS
 10
-0.837193
 20
4.510193
  0
VERTEX
  8
PLAN_1
 62
     2
  6
CONTINUOUS
 10
-0.833783
 20
4.506783
  0
VERTEX
  8
PLAN_1
 62
     2
  6
CONTINUOUS
 10
-0.831512
 20
4.502807
  0
VERTEX
  8
PLAN_1
 62
     2
  6
CONTINUOUS
 10
-0.830374
 20
4.497697
  0
VERTEX
  8
PLAN_1
 62
     2
  6
CONTINUOUS
 10
-0.829807
 20
4.492583
  0
VERTEX
  8
PLAN_1
 62
     2
  6
CONTINUOUS
 10
-0.829807
 20
4.489177
  0
VERTEX
  8
PLAN_1
 62
     2
  6
CONTINUOUS
 10
-0.830374
 20
4.485201
  0
VERTEX
  8
PLAN_1
 62
     2
  6
CONTINUOUS
 10
-0.832079
 20
4.480657
  0
VERTEX
  8
PLAN_1
 62
     2
  6
CONTINUOUS
 10
-0.834350
 20
4.476681
  0
VERTEX
  8
PLAN_1
 62
     2
  6
CONTINUOUS
 10
-0.836055
 20
4.474976
  0
VERTEX
  8
PLAN_1
 62
     2
  6
CONTINUOUS
 10
-0.837760
 20
4.472705
  0
VERTEX
  8
PLAN_1
 62
     2
  6
CONTINUOUS
 10
-0.840031
 20
4.471000
  0
VERTEX
  8
PLAN_1
 62
     2
  6
CONTINUOUS
 10
-0.842303
 20
4.469862
  0
VERTEX
  8
PLAN_1
 62
     2
  6
CONTINUOUS
 10
-0.845146
 20
4.468728
  0
VERTEX
  8
PLAN_1
 62
     2
  6
CONTINUOUS
 10
-0.848551
 20
4.467591
  0
VERTEX
  8
PLAN_1
 62
     2
  6
CONTINUOUS
 10
-0.851961
 20
4.467024
  0
VERTEX
  8
PLAN_1
 62
     2
  6
CONTINUOUS
 10
-0.855937
 20
4.467024
  0
VERTEX
  8
PLAN_1
 62
     2
  6
CONTINUOUS
 10
-0.859913
 20
4.467024
  0
VERTEX
  8
PLAN_1
 62
     2
  6
CONTINUOUS
 10
-0.863319
 20
4.467591
  0
VERTEX
  8
PLAN_1
 62
     2
  6
CONTINUOUS
 10
-0.867295
 20
4.468728
  0
VERTEX
  8
PLAN_1
 62
     2
  6
CONTINUOUS
 10
-0.870705
 20
4.471000
  0
VERTEX
  8
PLAN_1
 62
     2
  6
CONTINUOUS
 10
-0.874110
 20
4.473272
  0
VERTEX
  8
PLAN_1
 62
     2
  6
CONTINUOUS
 10
-0.876386
 20
4.477248
  0
VERTEX
  8
PLAN_1
 62
     2
  6
CONTINUOUS
 10
-0.878657
 20
4.481224
  0
VERTEX
  8
PLAN_1
 62
     2
  6
CONTINUOUS
 10
-0.879791
 20
4.486906
  0
VERTEX
  8
PLAN_1
 62
     2
  6
CONTINUOUS
 10
-0.870138
 20
4.486906
  0
VERTEX
  8
PLAN_1
 62
     2
  6
CONTINUOUS
 10
-0.869567
 20
4.484063
  0
VERTEX
  8
PLAN_1
 62
     2
  6
CONTINUOUS
 10
-0.868433
 20
4.481791
  0
VERTEX
  8
PLAN_1
 62
     2
  6
CONTINUOUS
 10
-0.867295
 20
4.479520
  0
VERTEX
  8
PLAN_1
 62
     2
  6
CONTINUOUS
 10
-0.865024
 20
4.477815
  0
VERTEX
  8
PLAN_1
 62
     2
  6
CONTINUOUS
 10
-0.862752
 20
4.476681
  0
VERTEX
  8
PLAN_1
 62
     2
  6
CONTINUOUS
 10
-0.860480
 20
4.475543
  0
VERTEX
  8
PLAN_1
 62
     2
  6
CONTINUOUS
 10
-0.857642
 20
4.474976
  0
VERTEX
  8
PLAN_1
 62
     2
  6
CONTINUOUS
 10
-0.854799
 20
4.474976
  0
VERTEX
  8
PLAN_1
 62
     2
  6
CONTINUOUS
 10
-0.851394
 20
4.474976
  0
VERTEX
  8
PLAN_1
 62
     2
  6
CONTINUOUS
 10
-0.848551
 20
4.476110
  0
VERTEX
  8
PLAN_1
 62
     2
  6
CONTINUOUS
 10
-0.845713
 20
4.477815
  0
VERTEX
  8
PLAN_1
 62
     2
  6
CONTINUOUS
 10
-0.843441
 20
4.479520
  0
VERTEX
  8
PLAN_1
 62
     2
  6
CONTINUOUS
 10
-0.841736
 20
4.482358
  0
VERTEX
  8
PLAN_1
 62
     2
  6
CONTINUOUS
 10
-0.840598
 20
4.485201
  0
VERTEX
  8
PLAN_1
 62
     2
  6
CONTINUOUS
 10
-0.839465
 20
4.488039
  0
VERTEX
  8
PLAN_1
 62
     2
  6
CONTINUOUS
 10
-0.839465
 20
4.491449
  0
VERTEX
  8
PLAN_1
 62
     2
  6
CONTINUOUS
 10
-0.839465
 20
4.495425
  0
VERTEX
  8
PLAN_1
 62
     2
  6
CONTINUOUS
 10
-0.840598
 20
4.498264
  0
VERTEX
  8
PLAN_1
 62
     2
  6
CONTINUOUS
 10
-0.842303
 20
4.501102
  0
VERTEX
  8
PLAN_1
 62
     2
  6
CONTINUOUS
 10
-0.844008
 20
4.503378
  0
VERTEX
  8
PLAN_1
 62
     2
  6
CONTINUOUS
 10
-0.846280
 20
4.505650
  0
VERTEX
  8
PLAN_1
 62
     2
  6
CONTINUOUS
 10
-0.849118
 20
4.506783
  0
VERTEX
  8
PLAN_1
 62
     2
  6
CONTINUOUS
 10
-0.852528
 20
4.507350
  0
VERTEX
  8
PLAN_1
 62
     2
  6
CONTINUOUS
 10
-0.855366
 20
4.507921
  0
VERTEX
  8
PLAN_1
 62
     2
  6
CONTINUOUS
 10
-0.857642
 20
4.507921
  0
VERTEX
  8
PLAN_1
 62
     2
  6
CONTINUOUS
 10
-0.859343
 20
4.507350
  0
VERTEX
  8
PLAN_1
 62
     2
  6
CONTINUOUS
 10
-0.861047
 20
4.506783
  0
VERTEX
  8
PLAN_1
 62
     2
  6
CONTINUOUS
 10
-0.862752
 20
4.506217
  0
VERTEX
  8
PLAN_1
 62
     2
  6
CONTINUOUS
 10
-0.864457
 20
4.505079
  0
VERTEX
  8
PLAN_1
 62
     2
  6
CONTINUOUS
 10
-0.866161
 20
4.503945
  0
VERTEX
  8
PLAN_1
 62
     2
  6
CONTINUOUS
 10
-0.867862
 20
4.502240
  0
VERTEX
  8
PLAN_1
 62
     2
  6
CONTINUOUS
 10
-0.869000
 20
4.500535
  0
VERTEX
  8
PLAN_1
 62
     2
  6
CONTINUOUS
 10
-0.876953
 20
4.501102
  0
VERTEX
  8
PLAN_1
 62
     2
  6
CONTINUOUS
 10
-0.871272
 20
4.540295
  0
VERTEX
  8
PLAN_1
 62
     2
  6
CONTINUOUS
 10
-0.833783
 20
4.540295
  0
VERTEX
  8
PLAN_1
 62
     2
  6
CONTINUOUS
 10
-0.833783
 20
4.531209
  0
VERTEX
  8
PLAN_1
 62
     2
  6
CONTINUOUS
 10
-0.864457
 20
4.531209
  0
VERTEX
  8
PLAN_1
 62
     2
  6
CONTINUOUS
 10
-0.867862
 20
4.511327
  0
SEQEND
  8
0
  0
POLYLINE
  8
PLAN_1
 62
     2
  6
CONTINUOUS
 66
     1
 40
0.003000
 41
0.003000
  0
VERTEX
  8
PLAN_1
 62
     2
  6
CONTINUOUS
 10
-0.820720
 20
4.515870
  0
VERTEX
  8
PLAN_1
 62
     2
  6
CONTINUOUS
 10
-0.820154
 20
4.519846
  0
VERTEX
  8
PLAN_1
 62
     2
  6
CONTINUOUS
 10
-0.819583
 20
4.523823
  0
VERTEX
  8
PLAN_1
 62
     2
  6
CONTINUOUS
 10
-0.819016
 20
4.527232
  0
VERTEX
  8
PLAN_1
 62
     2
  6
CONTINUOUS
 10
-0.817882
 20
4.530071
  0
VERTEX
  8
PLAN_1
 62
     2
  6
CONTINUOUS
 10
-0.816177
 20
4.532343
  0
VERTEX
  8
PLAN_1
 62
     2
  6
CONTINUOUS
 10
-0.814472
 20
4.534614
  0
VERTEX
  8
PLAN_1
 62
     2
  6
CONTINUOUS
 10
-0.812768
 20
4.536319
  0
VERTEX
  8
PLAN_1
 62
     2
  6
CONTINUOUS
 10
-0.811063
 20
4.538024
  0
VERTEX
  8
PLAN_1
 62
     2
  6
CONTINUOUS
 10
-0.806520
 20
4.539728
  0
VERTEX
  8
PLAN_1
 62
     2
  6
CONTINUOUS
 10
-0.802543
 20
4.541433
  0
VERTEX
  8
PLAN_1
 62
     2
  6
CONTINUOUS
 10
-0.798567
 20
4.542000
  0
VERTEX
  8
PLAN_1
 62
     2
  6
CONTINUOUS
 10
-0.795161
 20
4.542000
  0
VERTEX
  8
PLAN_1
 62
     2
  6
CONTINUOUS
 10
-0.790614
 20
4.541433
  0
VERTEX
  8
PLAN_1
 62
     2
  6
CONTINUOUS
 10
-0.786071
 20
4.540295
  0
VERTEX
  8
PLAN_1
 62
     2
  6
CONTINUOUS
 10
-0.782665
 20
4.538591
  0
VERTEX
  8
PLAN_1
 62
     2
  6
CONTINUOUS
 10
-0.779256
 20
4.536319
  0
VERTEX
  8
PLAN_1
 62
     2
  6
CONTINUOUS
 10
-0.776417
 20
4.532913
  0
VERTEX
  8
PLAN_1
 62
     2
  6
CONTINUOUS
 10
-0.774146
 20
4.529504
  0
VERTEX
  8
PLAN_1
 62
     2
  6
CONTINUOUS
 10
-0.773008
 20
4.524961
  0
VERTEX
  8
PLAN_1
 62
     2
  6
CONTINUOUS
 10
-0.772441
 20
4.520417
  0
VERTEX
  8
PLAN_1
 62
     2
  6
CONTINUOUS
 10
-0.773008
 20
4.515303
  0
VERTEX
  8
PLAN_1
 62
     2
  6
CONTINUOUS
 10
-0.774146
 20
4.511898
  0
VERTEX
  8
PLAN_1
 62
     2
  6
CONTINUOUS
 10
-0.775846
 20
4.507921
  0
VERTEX
  8
PLAN_1
 62
     2
  6
CONTINUOUS
 10
-0.778118
 20
4.505079
  0
VERTEX
  8
PLAN_1
 62
     2
  6
CONTINUOUS
 10
-0.780961
 20
4.502807
  0
VERTEX
  8
PLAN_1
 62
     2
  6
CONTINUOUS
 10
-0.784366
 20
4.499969
  0
VERTEX
  8
PLAN_1
 62
     2
  6
CONTINUOUS
 10
-0.787776
 20
4.497697
  0
VERTEX
  8
PLAN_1
 62
     2
  6
CONTINUOUS
 10
-0.791752
 20
4.495425
  0
VERTEX
  8
PLAN_1
 62
     2
  6
CONTINUOUS
 10
-0.799705
 20
4.491449
  0
VERTEX
  8
PLAN_1
 62
     2
  6
CONTINUOUS
 10
-0.803110
 20
4.489177
  0
VERTEX
  8
PLAN_1
 62
     2
  6
CONTINUOUS
 10
-0.805386
 20
4.487472
  0
VERTEX
  8
PLAN_1
 62
     2
  6
CONTINUOUS
 10
-0.807657
 20
4.485201
  0
VERTEX
  8
PLAN_1
 62
     2
  6
CONTINUOUS
 10
-0.809358
 20
4.483496
  0
VERTEX
  8
PLAN_1
 62
     2
  6
CONTINUOUS
 10
-0.810496
 20
4.481791
  0
VERTEX
  8
PLAN_1
 62
     2
  6
CONTINUOUS
 10
-0.811634
 20
4.480087
  0
VERTEX
  8
PLAN_1
 62
     2
  6
CONTINUOUS
 10
-0.811634
 20
4.478953
  0
VERTEX
  8
PLAN_1
 62
     2
  6
CONTINUOUS
 10
-0.812201
 20
4.477248
  0
VERTEX
  8
PLAN_1
 62
     2
  6
CONTINUOUS
 10
-0.772441
 20
4.477248
  0
VERTEX
  8
PLAN_1
 62
     2
  6
CONTINUOUS
 10
-0.772441
 20
4.468728
  0
VERTEX
  8
PLAN_1
 62
     2
  6
CONTINUOUS
 10
-0.822425
 20
4.468728
  0
VERTEX
  8
PLAN_1
 62
     2
  6
CONTINUOUS
 10
-0.821854
 20
4.474409
  0
VERTEX
  8
PLAN_1
 62
     2
  6
CONTINUOUS
 10
-0.820720
 20
4.478953
  0
VERTEX
  8
PLAN_1
 62
     2
  6
CONTINUOUS
 10
-0.819583
 20
4.482929
  0
VERTEX
  8
PLAN_1
 62
     2
  6
CONTINUOUS
 10
-0.817311
 20
4.486906
  0
VERTEX
  8
PLAN_1
 62
     2
  6
CONTINUOUS
 10
-0.815039
 20
4.490311
  0
VERTEX
  8
PLAN_1
 62
     2
  6
CONTINUOUS
 10
-0.812201
 20
4.493154
  0
VERTEX
  8
PLAN_1
 62
     2
  6
CONTINUOUS
 10
-0.808791
 20
4.495425
  0
VERTEX
  8
PLAN_1
 62
     2
  6
CONTINUOUS
 10
-0.805386
 20
4.497697
  0
VERTEX
  8
PLAN_1
 62
     2
  6
CONTINUOUS
 10
-0.795728
 20
4.503378
  0
VERTEX
  8
PLAN_1
 62
     2
  6
CONTINUOUS
 10
-0.792890
 20
4.505079
  0
VERTEX
  8
PLAN_1
 62
     2
  6
CONTINUOUS
 10
-0.790047
 20
4.506783
  0
VERTEX
  8
PLAN_1
 62
     2
  6
CONTINUOUS
 10
-0.787776
 20
4.508488
  0
VERTEX
  8
PLAN_1
 62
     2
  6
CONTINUOUS
 10
-0.786071
 20
4.510193
  0
VERTEX
  8
PLAN_1
 62
     2
  6
CONTINUOUS
 10
-0.784366
 20
4.511898
  0
VERTEX
  8
PLAN_1
 62
     2
  6
CONTINUOUS
 10
-0.783232
 20
4.514736
  0
VERTEX
  8
PLAN_1
 62
     2
  6
CONTINUOUS
 10
-0.782665
 20
4.517008
  0
VERTEX
  8
PLAN_1
 62
     2
  6
CONTINUOUS
 10
-0.782094
 20
4.520417
  0
VERTEX
  8
PLAN_1
 62
     2
  6
CONTINUOUS
 10
-0.782094
 20
4.522689
  0
VERTEX
  8
PLAN_1
 62
     2
  6
CONTINUOUS
 10
-0.782665
 20
4.524961
  0
VERTEX
  8
PLAN_1
 62
     2
  6
CONTINUOUS
 10
-0.783799
 20
4.527232
  0
VERTEX
  8
PLAN_1
 62
     2
  6
CONTINUOUS
 10
-0.785504
 20
4.529504
  0
VERTEX
  8
PLAN_1
 62
     2
  6
CONTINUOUS
 10
-0.787209
 20
4.531209
  0
VERTEX
  8
PLAN_1
 62
     2
  6
CONTINUOUS
 10
-0.790047
 20
4.532343
  0
VERTEX
  8
PLAN_1
 62
     2
  6
CONTINUOUS
 10
-0.792890
 20
4.533480
  0
VERTEX
  8
PLAN_1
 62
     2
  6
CONTINUOUS
 10
-0.796862
 20
4.534047
  0
VERTEX
  8
PLAN_1
 62
     2
  6
CONTINUOUS
 10
-0.799138
 20
4.533480
  0
VERTEX
  8
PLAN_1
 62
     2
  6
CONTINUOUS
 10
-0.801409
 20
4.533480
  0
VERTEX
  8
PLAN_1
 62
     2
  6
CONTINUOUS
 10
-0.803110
 20
4.532343
  0
VERTEX
  8
PLAN_1
 62
     2
  6
CONTINUOUS
 10
-0.804815
 20
4.531776
  0
VERTEX
  8
PLAN_1
 62
     2
  6
CONTINUOUS
 10
-0.807087
 20
4.529504
  0
VERTEX
  8
PLAN_1
 62
     2
  6
CONTINUOUS
 10
-0.809358
 20
4.526665
  0
VERTEX
  8
PLAN_1
 62
     2
  6
CONTINUOUS
 10
-0.810496
 20
4.523823
  0
VERTEX
  8
PLAN_1
 62
     2
  6
CONTINUOUS
 10
-0.811063
 20
4.520984
  0
VERTEX
  8
PLAN_1
 62
     2
  6
CONTINUOUS
 10
-0.811063
 20
4.518146
  0
VERTEX
  8
PLAN_1
 62
     2
  6
CONTINUOUS
 10
-0.811634
 20
4.515870
  0
VERTEX
  8
PLAN_1
 62
     2
  6
CONTINUOUS
 10
-0.820720
 20
4.515870
  0
SEQEND
  8
0
  0
POLYLINE
  8
PLAN_1
 62
     2
  6
CONTINUOUS
 66
     1
 40
0.003000
 41
0.003000
  0
VERTEX
  8
PLAN_1
 62
     2
  6
CONTINUOUS
 10
0.449327
 20
0.567705
  0
VERTEX
  8
PLAN_1
 62
     2
  6
CONTINUOUS
 10
0.449327
 20
0.557480
  0
VERTEX
  8
PLAN_1
 62
     2
  6
CONTINUOUS
 10
0.397071
 20
0.557480
  0
VERTEX
  8
PLAN_1
 62
     2
  6
CONTINUOUS
 10
0.397071
 20
0.540441
  0
VERTEX
  8
PLAN_1
 62
     2
  6
CONTINUOUS
 10
0.389689
 20
0.540441
  0
VERTEX
  8
PLAN_1
 62
     2
  6
CONTINUOUS
 10
0.389689
 20
0.544984
  0
VERTEX
  8
PLAN_1
 62
     2
  6
CONTINUOUS
 10
0.389118
 20
0.548394
  0
VERTEX
  8
PLAN_1
 62
     2
  6
CONTINUOUS
 10
0.388551
 20
0.551232
  0
VERTEX
  8
PLAN_1
 62
     2
  6
CONTINUOUS
 10
0.386846
 20
0.554071
  0
VERTEX
  8
PLAN_1
 62
     2
  6
CONTINUOUS
 10
0.385146
 20
0.555776
  0
VERTEX
  8
PLAN_1
 62
     2
  6
CONTINUOUS
 10
0.382874
 20
0.557480
  0
VERTEX
  8
PLAN_1
 62
     2
  6
CONTINUOUS
 10
0.380031
 20
0.559185
  0
VERTEX
  8
PLAN_1
 62
     2
  6
CONTINUOUS
 10
0.376055
 20
0.560319
  0
VERTEX
  8
PLAN_1
 62
     2
  6
CONTINUOUS
 10
0.376055
 20
0.567705
  0
VERTEX
  8
PLAN_1
 62
     2
  6
CONTINUOUS
 10
0.449327
 20
0.567705
  0
SEQEND
  8
0
  0
POLYLINE
  8
PLAN_1
 62
     2
  6
CONTINUOUS
 66
     1
 40
0.003000
 41
0.003000
  0
VERTEX
  8
PLAN_1
 62
     2
  6
CONTINUOUS
 10
0.407295
 20
0.611441
  0
VERTEX
  8
PLAN_1
 62
     2
  6
CONTINUOUS
 10
0.407295
 20
0.612008
  0
VERTEX
  8
PLAN_1
 62
     2
  6
CONTINUOUS
 10
0.407295
 20
0.612575
  0
VERTEX
  8
PLAN_1
 62
     2
  6
CONTINUOUS
 10
0.407862
 20
0.613146
  0
VERTEX
  8
PLAN_1
 62
     2
  6
CONTINUOUS
 10
0.407862
 20
0.613713
  0
VERTEX
  8
PLAN_1
 62
     2
  6
CONTINUOUS
 10
0.407862
 20
0.614280
  0
VERTEX
  8
PLAN_1
 62
     2
  6
CONTINUOUS
 10
0.407862
 20
0.614846
  0
VERTEX
  8
PLAN_1
 62
     2
  6
CONTINUOUS
 10
0.407862
 20
0.615417
  0
VERTEX
  8
PLAN_1
 62
     2
  6
CONTINUOUS
 10
0.407862
 20
0.615984
  0
VERTEX
  8
PLAN_1
 62
     2
  6
CONTINUOUS
 10
0.407295
 20
0.618823
  0
VERTEX
  8
PLAN_1
 62
     2
  6
CONTINUOUS
 10
0.407295
 20
0.621094
  0
VERTEX
  8
PLAN_1
 62
     2
  6
CONTINUOUS
 10
0.406161
 20
0.623366
  0
VERTEX
  8
PLAN_1
 62
     2
  6
CONTINUOUS
 10
0.405024
 20
0.625642
  0
VERTEX
  8
PLAN_1
 62
     2
  6
CONTINUOUS
 10
0.403319
 20
0.627343
  0
VERTEX
  8
PLAN_1
 62
     2
  6
CONTINUOUS
 10
0.401614
 20
0.629047
  0
VERTEX
  8
PLAN_1
 62
     2
  6
CONTINUOUS
 10
0.398776
 20
0.629614
  0
VERTEX
  8
PLAN_1
 62
     2
  6
CONTINUOUS
 10
0.395937
 20
0.630185
  0
VERTEX
  8
PLAN_1
 62
     2
  6
CONTINUOUS
 10
0.394232
 20
0.630185
  0
VERTEX
  8
PLAN_1
 62
     2
  6
CONTINUOUS
 10
0.391961
 20
0.629614
  0
VERTEX
  8
PLAN_1
 62
     2
  6
CONTINUOUS
 10
0.390256
 20
0.628480
  0
VERTEX
  8
PLAN_1
 62
     2
  6
CONTINUOUS
 10
0.388551
 20
0.627343
  0
VERTEX
  8
PLAN_1
 62
     2
  6
CONTINUOUS
 10
0.386846
 20
0.625642
  0
VERTEX
  8
PLAN_1
 62
     2
  6
CONTINUOUS
 10
0.385146
 20
0.623366
  0
VERTEX
  8
PLAN_1
 62
     2
  6
CONTINUOUS
 10
0.384575
 20
0.620528
  0
VERTEX
  8
PLAN_1
 62
     2
  6
CONTINUOUS
 10
0.384008
 20
0.616551
  0
VERTEX
  8
PLAN_1
 62
     2
  6
CONTINUOUS
 10
0.384575
 20
0.612008
  0
VERTEX
  8
PLAN_1
 62
     2
  6
CONTINUOUS
 10
0.385713
 20
0.609169
  0
VERTEX
  8
PLAN_1
 62
     2
  6
CONTINUOUS
 10
0.387984
 20
0.606327
  0
VERTEX
  8
PLAN_1
 62
     2
  6
CONTINUOUS
 10
0.390256
 20
0.604622
  0
VERTEX
  8
PLAN_1
 62
     2
  6
CONTINUOUS
 10
0.392528
 20
0.603488
  0
VERTEX
  8
PLAN_1
 62
     2
  6
CONTINUOUS
 10
0.395366
 20
0.602921
  0
VERTEX
  8
PLAN_1
 62
     2
  6
CONTINUOUS
 10
0.397642
 20
0.602350
  0
VERTEX
  8
PLAN_1
 62
     2
  6
CONTINUOUS
 10
0.399913
 20
0.602350
  0
VERTEX
  8
PLAN_1
 62
     2
  6
CONTINUOUS
 10
0.399913
 20
0.593264
  0
VERTEX
  8
PLAN_1
 62
     2
  6
CONTINUOUS
 10
0.395937
 20
0.593831
  0
VERTEX
  8
PLAN_1
 62
     2
  6
CONTINUOUS
 10
0.391394
 20
0.594402
  0
VERTEX
  8
PLAN_1
 62
     2
  6
CONTINUOUS
 10
0.387417
 20
0.595535
  0
VERTEX
  8
PLAN_1
 62
     2
  6
CONTINUOUS
 10
0.384008
 20
0.597807
  0
VERTEX
  8
PLAN_1
 62
     2
  6
CONTINUOUS
 10
0.382303
 20
0.599512
  0
VERTEX
  8
PLAN_1
 62
     2
  6
CONTINUOUS
 10
0.380598
 20
0.601217
  0
VERTEX
  8
PLAN_1
 62
     2
  6
CONTINUOUS
 10
0.379465
 20
0.602921
  0
VERTEX
  8
PLAN_1
 62
     2
  6
CONTINUOUS
 10
0.378327
 20
0.605193
  0
VERTEX
  8
PLAN_1
 62
     2
  6
CONTINUOUS
 10
0.377193
 20
0.607465
  0
VERTEX
  8
PLAN_1
 62
     2
  6
CONTINUOUS
 10
0.376626
 20
0.610303
  0
VERTEX
  8
PLAN_1
 62
     2
  6
CONTINUOUS
 10
0.376055
 20
0.613713
  0
VERTEX
  8
PLAN_1
 62
     2
  6
CONTINUOUS
 10
0.376055
 20
0.617118
  0
VERTEX
  8
PLAN_1
 62
     2
  6
CONTINUOUS
 10
0.376626
 20
0.622232
  0
VERTEX
  8
PLAN_1
 62
     2
  6
CONTINUOUS
 10
0.377193
 20
0.626209
  0
VERTEX
  8
PLAN_1
 62
     2
  6
CONTINUOUS
 10
0.378898
 20
0.630185
  0
VERTEX
  8
PLAN_1
 62
     2
  6
CONTINUOUS
 10
0.381169
 20
0.633591
  0
VERTEX
  8
PLAN_1
 62
     2
  6
CONTINUOUS
 10
0.384008
 20
0.635862
  0
VERTEX
  8
PLAN_1
 62
     2
  6
CONTINUOUS
 10
0.387417
 20
0.638138
  0
VERTEX
  8
PLAN_1
 62
     2
  6
CONTINUOUS
 10
0.391394
 20
0.639272
  0
VERTEX
  8
PLAN_1
 62
     2
  6
CONTINUOUS
 10
0.395366
 20
0.639272
  0
VERTEX
  8
PLAN_1
 62
     2
  6
CONTINUOUS
 10
0.398776
 20
0.639272
  0
VERTEX
  8
PLAN_1
 62
     2
  6
CONTINUOUS
 10
0.401614
 20
0.638705
  0
VERTEX
  8
PLAN_1
 62
     2
  6
CONTINUOUS
 10
0.403890
 20
0.637567
  0
VERTEX
  8
PLAN_1
 62
     2
  6
CONTINUOUS
 10
0.405591
 20
0.636433
  0
VERTEX
  8
PLAN_1
 62
     2
  6
CONTINUOUS
 10
0.407295
 20
0.634728
  0
VERTEX
  8
PLAN_1
 62
     2
  6
CONTINUOUS
 10
0.409000
 20
0.633591
  0
VERTEX
  8
PLAN_1
 62
     2
  6
CONTINUOUS
 10
0.409567
 20
0.631890
  0
VERTEX
  8
PLAN_1
 62
     2
  6
CONTINUOUS
 10
0.410138
 20
0.630185
  0
VERTEX
  8
PLAN_1
 62
     2
  6
CONTINUOUS
 10
0.410705
 20
0.630185
  0
VERTEX
  8
PLAN_1
 62
     2
  6
CONTINUOUS
 10
0.411272
 20
0.632457
  0
VERTEX
  8
PLAN_1
 62
     2
  6
CONTINUOUS
 10
0.412976
 20
0.635295
  0
VERTEX
  8
PLAN_1
 62
     2
  6
CONTINUOUS
 10
0.414110
 20
0.637000
  0
VERTEX
  8
PLAN_1
 62
     2
  6
CONTINUOUS
 10
0.416386
 20
0.638705
  0
VERTEX
  8
PLAN_1
 62
     2
  6
CONTINUOUS
 10
0.418657
 20
0.640409
  0
VERTEX
  8
PLAN_1
 62
     2
  6
CONTINUOUS
 10
0.420929
 20
0.641543
  0
VERTEX
  8
PLAN_1
 62
     2
  6
CONTINUOUS
 10
0.424335
 20
0.642110
  0
VERTEX
  8
PLAN_1
 62
     2
  6
CONTINUOUS
 10
0.427744
 20
0.642110
  0
VERTEX
  8
PLAN_1
 62
     2
  6
CONTINUOUS
 10
0.432287
 20
0.642110
  0
VERTEX
  8
PLAN_1
 62
     2
  6
CONTINUOUS
 10
0.436264
 20
0.640976
  0
VERTEX
  8
PLAN_1
 62
     2
  6
CONTINUOUS
 10
0.440240
 20
0.638705
  0
VERTEX
  8
PLAN_1
 62
     2
  6
CONTINUOUS
 10
0.443650
 20
0.636433
  0
VERTEX
  8
PLAN_1
 62
     2
  6
CONTINUOUS
 10
0.447055
 20
0.632457
  0
VERTEX
  8
PLAN_1
 62
     2
  6
CONTINUOUS
 10
0.449327
 20
0.627913
  0
VERTEX
  8
PLAN_1
 62
     2
  6
CONTINUOUS
 10
0.450465
 20
0.622232
  0
VERTEX
  8
PLAN_1
 62
     2
  6
CONTINUOUS
 10
0.451031
 20
0.615984
  0
VERTEX
  8
PLAN_1
 62
     2
  6
CONTINUOUS
 10
0.451031
 20
0.614280
  0
VERTEX
  8
PLAN_1
 62
     2
  6
CONTINUOUS
 10
0.451031
 20
0.612008
  0
VERTEX
  8
PLAN_1
 62
     2
  6
CONTINUOUS
 10
0.450465
 20
0.610303
  0
VERTEX
  8
PLAN_1
 62
     2
  6
CONTINUOUS
 10
0.449898
 20
0.608598
  0
VERTEX
  8
PLAN_1
 62
     2
  6
CONTINUOUS
 10
0.449898
 20
0.606898
  0
VERTEX
  8
PLAN_1
 62
     2
  6
CONTINUOUS
 10
0.449327
 20
0.605193
  0
VERTEX
  8
PLAN_1
 62
     2
  6
CONTINUOUS
 10
0.448760
 20
0.604055
  0
VERTEX
  8
PLAN_1
 62
     2
  6
CONTINUOUS
 10
0.447626
 20
0.602350
  0
VERTEX
  8
PLAN_1
 62
     2
  6
CONTINUOUS
 10
0.445921
 20
0.599512
  0
VERTEX
  8
PLAN_1
 62
     2
  6
CONTINUOUS
 10
0.444217
 20
0.597240
  0
VERTEX
  8
PLAN_1
 62
     2
  6
CONTINUOUS
 10
0.441378
 20
0.595535
  0
VERTEX
  8
PLAN_1
 62
     2
  6
CONTINUOUS
 10
0.439102
 20
0.594402
  0
VERTEX
  8
PLAN_1
 62
     2
  6
CONTINUOUS
 10
0.436264
 20
0.593264
  0
VERTEX
  8
PLAN_1
 62
     2
  6
CONTINUOUS
 10
0.432854
 20
0.592126
  0
VERTEX
  8
PLAN_1
 62
     2
  6
CONTINUOUS
 10
0.430016
 20
0.592126
  0
VERTEX
  8
PLAN_1
 62
     2
  6
CONTINUOUS
 10
0.426606
 20
0.591559
  0
VERTEX
  8
PLAN_1
 62
     2
  6
CONTINUOUS
 10
0.426606
 20
0.601217
  0
VERTEX
  8
PLAN_1
 62
     2
  6
CONTINUOUS
 10
0.429449
 20
0.601217
  0
VERTEX
  8
PLAN_1
 62
     2
  6
CONTINUOUS
 10
0.432287
 20
0.601783
  0
VERTEX
  8
PLAN_1
 62
     2
  6
CONTINUOUS
 10
0.435130
 20
0.602350
  0
VERTEX
  8
PLAN_1
 62
     2
  6
CONTINUOUS
 10
0.437402
 20
0.604055
  0
VERTEX
  8
PLAN_1
 62
     2
  6
CONTINUOUS
 10
0.439673
 20
0.605760
  0
VERTEX
  8
PLAN_1
 62
     2
  6
CONTINUOUS
 10
0.441378
 20
0.608598
  0
VERTEX
  8
PLAN_1
 62
     2
  6
CONTINUOUS
 10
0.442512
 20
0.612008
  0
VERTEX
  8
PLAN_1
 62
     2
  6
CONTINUOUS
 10
0.443079
 20
0.616551
  0
VERTEX
  8
PLAN_1
 62
     2
  6
CONTINUOUS
 10
0.442512
 20
0.619961
  0
VERTEX
  8
PLAN_1
 62
     2
  6
CONTINUOUS
 10
0.441945
 20
0.623366
  0
VERTEX
  8
PLAN_1
 62
     2
  6
CONTINUOUS
 10
0.440807
 20
0.625642
  0
VERTEX
  8
PLAN_1
 62
     2
  6
CONTINUOUS
 10
0.439102
 20
0.627913
  0
VERTEX
  8
PLAN_1
 62
     2
  6
CONTINUOUS
 10
0.436831
 20
0.630185
  0
VERTEX
  8
PLAN_1
 62
     2
  6
CONTINUOUS
 10
0.434559
 20
0.631319
  0
VERTEX
  8
PLAN_1
 62
     2
  6
CONTINUOUS
 10
0.431720
 20
0.632457
  0
VERTEX
  8
PLAN_1
 62
     2
  6
CONTINUOUS
 10
0.428882
 20
0.632457
  0
VERTEX
  8
PLAN_1
 62
     2
  6
CONTINUOUS
 10
0.424335
 20
0.631890
  0
VERTEX
  8
PLAN_1
 62
     2
  6
CONTINUOUS
 10
0.421496
 20
0.630752
  0
VERTEX
  8
PLAN_1
 62
     2
  6
CONTINUOUS
 10
0.419224
 20
0.629047
  0
VERTEX
  8
PLAN_1
 62
     2
  6
CONTINUOUS
 10
0.417520
 20
0.626209
  0
VERTEX
  8
PLAN_1
 62
     2
  6
CONTINUOUS
 10
0.416386
 20
0.623366
  0
VERTEX
  8
PLAN_1
 62
     2
  6
CONTINUOUS
 10
0.415815
 20
0.620528
  0
VERTEX
  8
PLAN_1
 62
     2
  6
CONTINUOUS
 10
0.415248
 20
0.618256
  0
VERTEX
  8
PLAN_1
 62
     2
  6
CONTINUOUS
 10
0.415248
 20
0.615417
  0
VERTEX
  8
PLAN_1
 62
     2
  6
CONTINUOUS
 10
0.415248
 20
0.614846
  0
VERTEX
  8
PLAN_1
 62
     2
  6
CONTINUOUS
 10
0.415248
 20
0.614280
  0
VERTEX
  8
PLAN_1
 62
     2
  6
CONTINUOUS
 10
0.415248
 20
0.613713
  0
VERTEX
  8
PLAN_1
 62
     2
  6
CONTINUOUS
 10
0.415248
 20
0.613146
  0
VERTEX
  8
PLAN_1
 62
     2
  6
CONTINUOUS
 10
0.415248
 20
0.612575
  0
VERTEX
  8
PLAN_1
 62
     2
  6
CONTINUOUS
 10
0.415248
 20
0.612008
  0
VERTEX
  8
PLAN_1
 62
     2
  6
CONTINUOUS
 10
0.415248
 20
0.611441
  0
VERTEX
  8
PLAN_1
 62
     2
  6
CONTINUOUS
 10
0.407295
 20
0.611441
  0
SEQEND
  8
0
  0
POLYLINE
  8
PLAN_1
 62
     2
  6
CONTINUOUS
 66
     1
 40
0.003000
 41
0.003000
  0
VERTEX
  8
PLAN_1
 62
     2
  6
CONTINUOUS
 10
0.401047
 20
0.650063
  0
VERTEX
  8
PLAN_1
 62
     2
  6
CONTINUOUS
 10
0.395937
 20
0.650634
  0
VERTEX
  8
PLAN_1
 62
     2
  6
CONTINUOUS
 10
0.391394
 20
0.651768
  0
VERTEX
  8
PLAN_1
 62
     2
  6
CONTINUOUS
 10
0.387417
 20
0.653472
  0
VERTEX
  8
PLAN_1
 62
     2
  6
CONTINUOUS
 10
0.383441
 20
0.656311
  0
VERTEX
  8
PLAN_1
 62
     2
  6
CONTINUOUS
 10
0.380598
 20
0.659720
  0
VERTEX
  8
PLAN_1
 62
     2
  6
CONTINUOUS
 10
0.377760
 20
0.663697
  0
VERTEX
  8
PLAN_1
 62
     2
  6
CONTINUOUS
 10
0.376626
 20
0.668240
  0
VERTEX
  8
PLAN_1
 62
     2
  6
CONTINUOUS
 10
0.376055
 20
0.673921
  0
VERTEX
  8
PLAN_1
 62
     2
  6
CONTINUOUS
 10
0.376055
 20
0.677898
  0
VERTEX
  8
PLAN_1
 62
     2
  6
CONTINUOUS
 10
0.377193
 20
0.681870
  0
VERTEX
  8
PLAN_1
 62
     2
  6
CONTINUOUS
 10
0.378327
 20
0.684713
  0
VERTEX
  8
PLAN_1
 62
     2
  6
CONTINUOUS
 10
0.379465
 20
0.687551
  0
VERTEX
  8
PLAN_1
 62
     2
  6
CONTINUOUS
 10
0.381169
 20
0.689823
  0
VERTEX
  8
PLAN_1
 62
     2
  6
CONTINUOUS
 10
0.383441
 20
0.692094
  0
VERTEX
  8
PLAN_1
 62
     2
  6
CONTINUOUS
 10
0.385713
 20
0.693799
  0
VERTEX
  8
PLAN_1
 62
     2
  6
CONTINUOUS
 10
0.388551
 20
0.695504
  0
VERTEX
  8
PLAN_1
 62
     2
  6
CONTINUOUS
 10
0.393665
 20
0.697209
  0
VERTEX
  8
PLAN_1
 62
     2
  6
CONTINUOUS
 10
0.399343
 20
0.698913
  0
VERTEX
  8
PLAN_1
 62
     2
  6
CONTINUOUS
 10
0.405024
 20
0.699480
  0
VERTEX
  8
PLAN_1
 62
     2
  6
CONTINUOUS
 10
0.410138
 20
0.699480
  0
VERTEX
  8
PLAN_1
 62
     2
  6
CONTINUOUS
 10
0.414110
 20
0.699480
  0
VERTEX
  8
PLAN_1
 62
     2
  6
CONTINUOUS
 10
0.419791
 20
0.698913
  0
VERTEX
  8
PLAN_1
 62
     2
  6
CONTINUOUS
 10
0.426606
 20
0.697776
  0
VERTEX
  8
PLAN_1
 62
     2
  6
CONTINUOUS
 10
0.433425
 20
0.695504
  0
VERTEX
  8
PLAN_1
 62
     2
  6
CONTINUOUS
 10
0.436831
 20
0.694366
  0
VERTEX
  8
PLAN_1
 62
     2
  6
CONTINUOUS
 10
0.440240
 20
0.692094
  0
VERTEX
  8
PLAN_1
 62
     2
  6
CONTINUOUS
 10
0.443079
 20
0.690394
  0
VERTEX
  8
PLAN_1
 62
     2
  6
CONTINUOUS
 10
0.445921
 20
0.687551
  0
VERTEX
  8
PLAN_1
 62
     2
  6
CONTINUOUS
 10
0.448193
 20
0.684713
  0
VERTEX
  8
PLAN_1
 62
     2
  6
CONTINUOUS
 10
0.449898
 20
0.681303
  0
VERTEX
  8
PLAN_1
 62
     2
  6
CONTINUOUS
 10
0.450465
 20
0.677327
  0
VERTEX
  8
PLAN_1
 62
     2
  6
CONTINUOUS
 10
0.451031
 20
0.672783
  0
VERTEX
  8
PLAN_1
 62
     2
  6
CONTINUOUS
 10
0.451031
 20
0.669945
  0
VERTEX
  8
PLAN_1
 62
     2
  6
CONTINUOUS
 10
0.450465
 20
0.667102
  0
VERTEX
  8
PLAN_1
 62
     2
  6
CONTINUOUS
 10
0.449898
 20
0.664264
  0
VERTEX
  8
PLAN_1
 62
     2
  6
CONTINUOUS
 10
0.448760
 20
0.661992
  0
VERTEX
  8
PLAN_1
 62
     2
  6
CONTINUOUS
 10
0.446488
 20
0.658583
  0
VERTEX
  8
PLAN_1
 62
     2
  6
CONTINUOUS
 10
0.444217
 20
0.655744
  0
VERTEX
  8
PLAN_1
 62
     2
  6
CONTINUOUS
 10
0.440807
 20
0.653472
  0
VERTEX
  8
PLAN_1
 62
     2
  6
CONTINUOUS
 10
0.437402
 20
0.652335
  0
VERTEX
  8
PLAN_1
 62
     2
  6
CONTINUOUS
 10
0.434559
 20
0.651201
  0
VERTEX
  8
PLAN_1
 62
     2
  6
CONTINUOUS
 10
0.431720
 20
0.651201
  0
VERTEX
  8
PLAN_1
 62
     2
  6
CONTINUOUS
 10
0.431720
 20
0.660287
  0
VERTEX
  8
PLAN_1
 62
     2
  6
CONTINUOUS
 10
0.433992
 20
0.660854
  0
VERTEX
  8
PLAN_1
 62
     2
  6
CONTINUOUS
 10
0.436264
 20
0.661425
  0
VERTEX
  8
PLAN_1
 62
     2
  6
CONTINUOUS
 10
0.438535
 20
0.662559
  0
VERTEX
  8
PLAN_1
 62
     2
  6
CONTINUOUS
 10
0.440240
 20
0.663697
  0
VERTEX
  8
PLAN_1
 62
     2
  6
CONTINUOUS
 10
0.441378
 20
0.665402
  0
VERTEX
  8
PLAN_1
 62
     2
  6
CONTINUOUS
 10
0.442512
 20
0.667673
  0
VERTEX
  8
PLAN_1
 62
     2
  6
CONTINUOUS
 10
0.443079
 20
0.669945
  0
VERTEX
  8
PLAN_1
 62
     2
  6
CONTINUOUS
 10
0.443650
 20
0.672783
  0
VERTEX
  8
PLAN_1
 62
     2
  6
CONTINUOUS
 10
0.443079
 20
0.676193
  0
VERTEX
  8
PLAN_1
 62
     2
  6
CONTINUOUS
 10
0.441945
 20
0.679031
  0
VERTEX
  8
PLAN_1
 62
     2
  6
CONTINUOUS
 10
0.439673
 20
0.681870
  0
VERTEX
  8
PLAN_1
 62
     2
  6
CONTINUOUS
 10
0.436831
 20
0.684146
  0
VERTEX
  8
PLAN_1
 62
     2
  6
CONTINUOUS
 10
0.432854
 20
0.686417
  0
VERTEX
  8
PLAN_1
 62
     2
  6
CONTINUOUS
 10
0.428311
 20
0.688118
  0
VERTEX
  8
PLAN_1
 62
     2
  6
CONTINUOUS
 10
0.422634
 20
0.689256
  0
VERTEX
  8
PLAN_1
 62
     2
  6
CONTINUOUS
 10
0.416386
 20
0.690394
  0
VERTEX
  8
PLAN_1
 62
     2
  6
CONTINUOUS
 10
0.415815
 20
0.689823
  0
VERTEX
  8
PLAN_1
 62
     2
  6
CONTINUOUS
 10
0.418087
 20
0.688689
  0
VERTEX
  8
PLAN_1
 62
     2
  6
CONTINUOUS
 10
0.419791
 20
0.686984
  0
VERTEX
  8
PLAN_1
 62
     2
  6
CONTINUOUS
 10
0.420929
 20
0.685280
  0
VERTEX
  8
PLAN_1
 62
     2
  6
CONTINUOUS
 10
0.422634
 20
0.683008
  0
VERTEX
  8
PLAN_1
 62
     2
  6
CONTINUOUS
 10
0.423201
 20
0.680736
  0
VERTEX
  8
PLAN_1
 62
     2
  6
CONTINUOUS
 10
0.424335
 20
0.678465
  0
VERTEX
  8
PLAN_1
 62
     2
  6
CONTINUOUS
 10
0.424335
 20
0.675622
  0
VERTEX
  8
PLAN_1
 62
     2
  6
CONTINUOUS
 10
0.424906
 20
0.673350
  0
VERTEX
  8
PLAN_1
 62
     2
  6
CONTINUOUS
 10
0.424335
 20
0.668240
  0
VERTEX
  8
PLAN_1
 62
     2
  6
CONTINUOUS
 10
0.423201
 20
0.664264
  0
VERTEX
  8
PLAN_1
 62
     2
  6
CONTINUOUS
 10
0.420929
 20
0.660287
  0
VERTEX
  8
PLAN_1
 62
     2
  6
CONTINUOUS
 10
0.418087
 20
0.656878
  0
VERTEX
  8
PLAN_1
 62
     2
  6
CONTINUOUS
 10
0.414681
 20
0.654039
  0
VERTEX
  8
PLAN_1
 62
     2
  6
CONTINUOUS
 10
0.410705
 20
0.651768
  0
VERTEX
  8
PLAN_1
 62
     2
  6
CONTINUOUS
 10
0.406161
 20
0.650634
  0
VERTEX
  8
PLAN_1
 62
     2
  6
CONTINUOUS
 10
0.401047
 20
0.650063
  0
SEQEND
  8
0
  0
POLYLINE
  8
PLAN_1
 62
     2
  6
CONTINUOUS
 66
     1
 40
0.003000
 41
0.003000
  0
VERTEX
  8
PLAN_1
 62
     2
  6
CONTINUOUS
 10
0.399913
 20
0.688689
  0
VERTEX
  8
PLAN_1
 62
     2
  6
CONTINUOUS
 10
0.396504
 20
0.688689
  0
VERTEX
  8
PLAN_1
 62
     2
  6
CONTINUOUS
 10
0.393665
 20
0.688118
  0
VERTEX
  8
PLAN_1
 62
     2
  6
CONTINUOUS
 10
0.391394
 20
0.686984
  0
VERTEX
  8
PLAN_1
 62
     2
  6
CONTINUOUS
 10
0.389118
 20
0.685280
  0
VERTEX
  8
PLAN_1
 62
     2
  6
CONTINUOUS
 10
0.386846
 20
0.683008
  0
VERTEX
  8
PLAN_1
 62
     2
  6
CONTINUOUS
 10
0.385713
 20
0.680736
  0
VERTEX
  8
PLAN_1
 62
     2
  6
CONTINUOUS
 10
0.384575
 20
0.677327
  0
VERTEX
  8
PLAN_1
 62
     2
  6
CONTINUOUS
 10
0.384008
 20
0.673921
  0
VERTEX
  8
PLAN_1
 62
     2
  6
CONTINUOUS
 10
0.384575
 20
0.671079
  0
VERTEX
  8
PLAN_1
 62
     2
  6
CONTINUOUS
 10
0.385146
 20
0.668240
  0
VERTEX
  8
PLAN_1
 62
     2
  6
CONTINUOUS
 10
0.386846
 20
0.665969
  0
VERTEX
  8
PLAN_1
 62
     2
  6
CONTINUOUS
 10
0.388551
 20
0.663697
  0
VERTEX
  8
PLAN_1
 62
     2
  6
CONTINUOUS
 10
0.391394
 20
0.661992
  0
VERTEX
  8
PLAN_1
 62
     2
  6
CONTINUOUS
 10
0.393665
 20
0.660854
  0
VERTEX
  8
PLAN_1
 62
     2
  6
CONTINUOUS
 10
0.397071
 20
0.660287
  0
VERTEX
  8
PLAN_1
 62
     2
  6
CONTINUOUS
 10
0.400480
 20
0.659720
  0
VERTEX
  8
PLAN_1
 62
     2
  6
CONTINUOUS
 10
0.405591
 20
0.660287
  0
VERTEX
  8
PLAN_1
 62
     2
  6
CONTINUOUS
 10
0.409000
 20
0.661425
  0
VERTEX
  8
PLAN_1
 62
     2
  6
CONTINUOUS
 10
0.411839
 20
0.663126
  0
VERTEX
  8
PLAN_1
 62
     2
  6
CONTINUOUS
 10
0.413543
 20
0.664831
  0
VERTEX
  8
PLAN_1
 62
     2
  6
CONTINUOUS
 10
0.415248
 20
0.667102
  0
VERTEX
  8
PLAN_1
 62
     2
  6
CONTINUOUS
 10
0.415815
 20
0.669945
  0
VERTEX
  8
PLAN_1
 62
     2
  6
CONTINUOUS
 10
0.416386
 20
0.672217
  0
VERTEX
  8
PLAN_1
 62
     2
  6
CONTINUOUS
 10
0.416386
 20
0.674488
  0
VERTEX
  8
PLAN_1
 62
     2
  6
CONTINUOUS
 10
0.416386
 20
0.676760
  0
VERTEX
  8
PLAN_1
 62
     2
  6
CONTINUOUS
 10
0.415815
 20
0.679031
  0
VERTEX
  8
PLAN_1
 62
     2
  6
CONTINUOUS
 10
0.415248
 20
0.681303
  0
VERTEX
  8
PLAN_1
 62
     2
  6
CONTINUOUS
 10
0.413543
 20
0.683575
  0
VERTEX
  8
PLAN_1
 62
     2
  6
CONTINUOUS
 10
0.411272
 20
0.685280
  0
VERTEX
  8
PLAN_1
 62
     2
  6
CONTINUOUS
 10
0.408433
 20
0.686984
  0
VERTEX
  8
PLAN_1
 62
     2
  6
CONTINUOUS
 10
0.404457
 20
0.688118
  0
VERTEX
  8
PLAN_1
 62
     2
  6
CONTINUOUS
 10
0.399913
 20
0.688689
  0
SEQEND
  8
0
  0
SOLID
  8
PLAN_1
 62
     2
 10
0.449327
 20
0.726744
 11
0.449327
 21
0.715953
 12
0.437969
 22
0.726744
 13
0.437969
 23
0.715953
  0
POLYLINE
  8
PLAN_1
 62
     2
  6
CONTINUOUS
 66
     1
 40
0.003000
 41
0.003000
  0
VERTEX
  8
PLAN_1
 62
     2
  6
CONTINUOUS
 10
0.449327
 20
0.726744
  0
VERTEX
  8
PLAN_1
 62
     2
  6
CONTINUOUS
 10
0.449327
 20
0.715953
  0
VERTEX
  8
PLAN_1
 62
     2
  6
CONTINUOUS
 10
0.437969
 20
0.715953
  0
VERTEX
  8
PLAN_1
 62
     2
  6
CONTINUOUS
 10
0.437969
 20
0.726744
  0
VERTEX
  8
PLAN_1
 62
     2
  6
CONTINUOUS
 10
0.449327
 20
0.726744
  0
SEQEND
  8
0
  0
SOLID
  8
PLAN_1
 62
     2
 10
0.449327
 20
0.761394
 11
0.449327
 21
0.750598
 12
0.437969
 22
0.761394
 13
0.437969
 23
0.750598
  0
POLYLINE
  8
PLAN_1
 62
     2
  6
CONTINUOUS
 66
     1
 40
0.003000
 41
0.003000
  0
VERTEX
  8
PLAN_1
 62
     2
  6
CONTINUOUS
 10
0.449327
 20
0.761394
  0
VERTEX
  8
PLAN_1
 62
     2
  6
CONTINUOUS
 10
0.449327
 20
0.750598
  0
VERTEX
  8
PLAN_1
 62
     2
  6
CONTINUOUS
 10
0.437969
 20
0.750598
  0
VERTEX
  8
PLAN_1
 62
     2
  6
CONTINUOUS
 10
0.437969
 20
0.761394
  0
VERTEX
  8
PLAN_1
 62
     2
  6
CONTINUOUS
 10
0.449327
 20
0.761394
  0
SEQEND
  8
0
  0
SOLID
  8
PLAN_1
 62
     2
 10
0.449327
 20
0.796039
 11
0.449327
 21
0.785248
 12
0.437969
 22
0.796039
 13
0.437969
 23
0.785248
  0
POLYLINE
  8
PLAN_1
 62
     2
  6
CONTINUOUS
 66
     1
 40
0.003000
 41
0.003000
  0
VERTEX
  8
PLAN_1
 62
     2
  6
CONTINUOUS
 10
0.449327
 20
0.796039
  0
VERTEX
  8
PLAN_1
 62
     2
  6
CONTINUOUS
 10
0.449327
 20
0.785248
  0
VERTEX
  8
PLAN_1
 62
     2
  6
CONTINUOUS
 10
0.437969
 20
0.785248
  0
VERTEX
  8
PLAN_1
 62
     2
  6
CONTINUOUS
 10
0.437969
 20
0.796039
  0
VERTEX
  8
PLAN_1
 62
     2
  6
CONTINUOUS
 10
0.449327
 20
0.796039
  0
SEQEND
  8
0
  0
POLYLINE
  8
PLAN_1
 62
     2
  6
CONTINUOUS
 66
     1
 40
0.003000
 41
0.003000
  0
VERTEX
  8
PLAN_1
 62
     2
  6
CONTINUOUS
 10
0.449327
 20
0.845457
  0
VERTEX
  8
PLAN_1
 62
     2
  6
CONTINUOUS
 10
0.449327
 20
0.835799
  0
VERTEX
  8
PLAN_1
 62
     2
  6
CONTINUOUS
 10
0.397071
 20
0.835799
  0
VERTEX
  8
PLAN_1
 62
     2
  6
CONTINUOUS
 10
0.397071
 20
0.818760
  0
VERTEX
  8
PLAN_1
 62
     2
  6
CONTINUOUS
 10
0.389689
 20
0.818760
  0
VERTEX
  8
PLAN_1
 62
     2
  6
CONTINUOUS
 10
0.389689
 20
0.822736
  0
VERTEX
  8
PLAN_1
 62
     2
  6
CONTINUOUS
 10
0.389118
 20
0.826146
  0
VERTEX
  8
PLAN_1
 62
     2
  6
CONTINUOUS
 10
0.388551
 20
0.828984
  0
VERTEX
  8
PLAN_1
 62
     2
  6
CONTINUOUS
 10
0.386846
 20
0.831823
  0
VERTEX
  8
PLAN_1
 62
     2
  6
CONTINUOUS
 10
0.385146
 20
0.833528
  0
VERTEX
  8
PLAN_1
 62
     2
  6
CONTINUOUS
 10
0.382874
 20
0.835799
  0
VERTEX
  8
PLAN_1
 62
     2
  6
CONTINUOUS
 10
0.380031
 20
0.836937
  0
VERTEX
  8
PLAN_1
 62
     2
  6
CONTINUOUS
 10
0.376055
 20
0.838071
  0
VERTEX
  8
PLAN_1
 62
     2
  6
CONTINUOUS
 10
0.376055
 20
0.845457
  0
VERTEX
  8
PLAN_1
 62
     2
  6
CONTINUOUS
 10
0.449327
 20
0.845457
  0
SEQEND
  8
0
  0
POLYLINE
  8
PLAN_1
 62
     2
  6
CONTINUOUS
 66
     1
 40
0.003000
 41
0.003000
  0
VERTEX
  8
PLAN_1
 62
     2
  6
CONTINUOUS
 10
0.410138
 20
0.907937
  0
VERTEX
  8
PLAN_1
 62
     2
  6
CONTINUOUS
 10
0.411839
 20
0.911343
  0
VERTEX
  8
PLAN_1
 62
     2
  6
CONTINUOUS
 10
0.414110
 20
0.913614
  0
VERTEX
  8
PLAN_1
 62
     2
  6
CONTINUOUS
 10
0.416386
 20
0.915890
  0
VERTEX
  8
PLAN_1
 62
     2
  6
CONTINUOUS
 10
0.418657
 20
0.917591
  0
VERTEX
  8
PLAN_1
 62
     2
  6
CONTINUOUS
 10
0.420929
 20
0.918728
  0
VERTEX
  8
PLAN_1
 62
     2
  6
CONTINUOUS
 10
0.423201
 20
0.919295
  0
VERTEX
  8
PLAN_1
 62
     2
  6
CONTINUOUS
 10
0.426039
 20
0.919295
  0
VERTEX
  8
PLAN_1
 62
     2
  6
CONTINUOUS
 10
0.427744
 20
0.919862
  0
VERTEX
  8
PLAN_1
 62
     2
  6
CONTINUOUS
 10
0.432287
 20
0.919295
  0
VERTEX
  8
PLAN_1
 62
     2
  6
CONTINUOUS
 10
0.436831
 20
0.918161
  0
VERTEX
  8
PLAN_1
 62
     2
  6
CONTINUOUS
 10
0.440240
 20
0.916457
  0
VERTEX
  8
PLAN_1
 62
     2
  6
CONTINUOUS
 10
0.444217
 20
0.913614
  0
VERTEX
  8
PLAN_1
 62
     2
  6
CONTINUOUS
 10
0.447055
 20
0.910209
  0
VERTEX
  8
PLAN_1
 62
     2
  6
CONTINUOUS
 10
0.449327
 20
0.906232
  0
VERTEX
  8
PLAN_1
 62
     2
  6
CONTINUOUS
 10
0.450465
 20
0.901118
  0
VERTEX
  8
PLAN_1
 62
     2
  6
CONTINUOUS
 10
0.451031
 20
0.894870
  0
VERTEX
  8
PLAN_1
 62
     2
  6
CONTINUOUS
 10
0.451031
 20
0.893169
  0
VERTEX
  8
PLAN_1
 62
     2
  6
CONTINUOUS
 10
0.451031
 20
0.891465
  0
VERTEX
  8
PLAN_1
 62
     2
  6
CONTINUOUS
 10
0.450465
 20
0.889193
  0
VERTEX
  8
PLAN_1
 62
     2
  6
CONTINUOUS
 10
0.449898
 20
0.886921
  0
VERTEX
  8
PLAN_1
 62
     2
  6
CONTINUOUS
 10
0.449327
 20
0.884650
  0
VERTEX
  8
PLAN_1
 62
     2
  6
CONTINUOUS
 10
0.448193
 20
0.881807
  0
VERTEX
  8
PLAN_1
 62
     2
  6
CONTINUOUS
 10
0.447055
 20
0.879535
  0
VERTEX
  8
PLAN_1
 62
     2
  6
CONTINUOUS
 10
0.445350
 20
0.877264
  0
VERTEX
  8
PLAN_1
 62
     2
  6
CONTINUOUS
 10
0.443079
 20
0.874992
  0
VERTEX
  8
PLAN_1
 62
     2
  6
CONTINUOUS
 10
0.440807
 20
0.873287
  0
VERTEX
  8
PLAN_1
 62
     2
  6
CONTINUOUS
 10
0.438535
 20
0.871583
  0
VERTEX
  8
PLAN_1
 62
     2
  6
CONTINUOUS
 10
0.435697
 20
0.871016
  0
VERTEX
  8
PLAN_1
 62
     2
  6
CONTINUOUS
 10
0.433425
 20
0.870449
  0
VERTEX
  8
PLAN_1
 62
     2
  6
CONTINUOUS
 10
0.431720
 20
0.869878
  0
VERTEX
  8
PLAN_1
 62
     2
  6
CONTINUOUS
 10
0.429449
 20
0.869878
  0
VERTEX
  8
PLAN_1
 62
     2
  6
CONTINUOUS
 10
0.428311
 20
0.869878
  0
VERTEX
  8
PLAN_1
 62
     2
  6
CONTINUOUS
 10
0.424906
 20
0.869878
  0
VERTEX
  8
PLAN_1
 62
     2
  6
CONTINUOUS
 10
0.422063
 20
0.870449
  0
VERTEX
  8
PLAN_1
 62
     2
  6
CONTINUOUS
 10
0.419224
 20
0.871583
  0
VERTEX
  8
PLAN_1
 62
     2
  6
CONTINUOUS
 10
0.416953
 20
0.873287
  0
VERTEX
  8
PLAN_1
 62
     2
  6
CONTINUOUS
 10
0.414681
 20
0.874992
  0
VERTEX
  8
PLAN_1
 62
     2
  6
CONTINUOUS
 10
0.412976
 20
0.877264
  0
VERTEX
  8
PLAN_1
 62
     2
  6
CONTINUOUS
 10
0.411839
 20
0.879535
  0
VERTEX
  8
PLAN_1
 62
     2
  6
CONTINUOUS
 10
0.410138
 20
0.882374
  0
VERTEX
  8
PLAN_1
 62
     2
  6
CONTINUOUS
 10
0.409567
 20
0.880102
  0
VERTEX
  8
PLAN_1
 62
     2
  6
CONTINUOUS
 10
0.407862
 20
0.877831
  0
VERTEX
  8
PLAN_1
 62
     2
  6
CONTINUOUS
 10
0.406728
 20
0.876126
  0
VERTEX
  8
PLAN_1
 62
     2
  6
CONTINUOUS
 10
0.405024
 20
0.874992
  0
VERTEX
  8
PLAN_1
 62
     2
  6
CONTINUOUS
 10
0.402752
 20
0.873854
  0
VERTEX
  8
PLAN_1
 62
     2
  6
CONTINUOUS
 10
0.401047
 20
0.873287
  0
VERTEX
  8
PLAN_1
 62
     2
  6
CONTINUOUS
 10
0.398776
 20
0.872720
  0
VERTEX
  8
PLAN_1
 62
     2
  6
CONTINUOUS
 10
0.395937
 20
0.872154
  0
VERTEX
  8
PLAN_1
 62
     2
  6
CONTINUOUS
 10
0.393094
 20
0.872720
  0
VERTEX
  8
PLAN_1
 62
     2
  6
CONTINUOUS
 10
0.389689
 20
0.873287
  0
VERTEX
  8
PLAN_1
 62
     2
  6
CONTINUOUS
 10
0.386280
 20
0.874992
  0
VERTEX
  8
PLAN_1
 62
     2
  6
CONTINUOUS
 10
0.383441
 20
0.876697
  0
VERTEX
  8
PLAN_1
 62
     2
  6
CONTINUOUS
 10
0.380598
 20
0.879535
  0
VERTEX
  8
PLAN_1
 62
     2
  6
CONTINUOUS
 10
0.377760
 20
0.883512
  0
VERTEX
  8
PLAN_1
 62
     2
  6
CONTINUOUS
 10
0.377193
 20
0.885783
  0
VERTEX
  8
PLAN_1
 62
     2
  6
CONTINUOUS
 10
0.376626
 20
0.888622
  0
VERTEX
  8
PLAN_1
 62
     2
  6
CONTINUOUS
 10
0.376055
 20
0.891465
  0
VERTEX
  8
PLAN_1
 62
     2
  6
CONTINUOUS
 10
0.376055
 20
0.894303
  0
VERTEX
  8
PLAN_1
 62
     2
  6
CONTINUOUS
 10
0.376626
 20
0.899984
  0
VERTEX
  8
PLAN_1
 62
     2
  6
CONTINUOUS
 10
0.377760
 20
0.905094
  0
VERTEX
  8
PLAN_1
 62
     2
  6
CONTINUOUS
 10
0.379465
 20
0.908504
  0
VERTEX
  8
PLAN_1
 62
     2
  6
CONTINUOUS
 10
0.382303
 20
0.911913
  0
VERTEX
  8
PLAN_1
 62
     2
  6
CONTINUOUS
 10
0.385146
 20
0.914185
  0
VERTEX
  8
PLAN_1
 62
     2
  6
CONTINUOUS
 10
0.387984
 20
0.915890
  0
VERTEX
  8
PLAN_1
 62
     2
  6
CONTINUOUS
 10
0.391394
 20
0.917024
  0
VERTEX
  8
PLAN_1
 62
     2
  6
CONTINUOUS
 10
0.394799
 20
0.917024
  0
VERTEX
  8
PLAN_1
 62
     2
  6
CONTINUOUS
 10
0.398209
 20
0.917024
  0
VERTEX
  8
PLAN_1
 62
     2
  6
CONTINUOUS
 10
0.401614
 20
0.915890
  0
VERTEX
  8
PLAN_1
 62
     2
  6
CONTINUOUS
 10
0.403890
 20
0.914752
  0
VERTEX
  8
PLAN_1
 62
     2
  6
CONTINUOUS
 10
0.405591
 20
0.913614
  0
VERTEX
  8
PLAN_1
 62
     2
  6
CONTINUOUS
 10
0.407295
 20
0.911913
  0
VERTEX
  8
PLAN_1
 62
     2
  6
CONTINUOUS
 10
0.408433
 20
0.910776
  0
VERTEX
  8
PLAN_1
 62
     2
  6
CONTINUOUS
 10
0.409567
 20
0.909071
  0
VERTEX
  8
PLAN_1
 62
     2
  6
CONTINUOUS
 10
0.410138
 20
0.907937
  0
SEQEND
  8
0
  0
POLYLINE
  8
PLAN_1
 62
     2
  6
CONTINUOUS
 66
     1
 40
0.003000
 41
0.003000
  0
VERTEX
  8
PLAN_1
 62
     2
  6
CONTINUOUS
 10
0.428311
 20
0.879535
  0
VERTEX
  8
PLAN_1
 62
     2
  6
CONTINUOUS
 10
0.430583
 20
0.879535
  0
VERTEX
  8
PLAN_1
 62
     2
  6
CONTINUOUS
 10
0.432854
 20
0.880102
  0
VERTEX
  8
PLAN_1
 62
     2
  6
CONTINUOUS
 10
0.435697
 20
0.881240
  0
VERTEX
  8
PLAN_1
 62
     2
  6
CONTINUOUS
 10
0.437969
 20
0.882945
  0
VERTEX
  8
PLAN_1
 62
     2
  6
CONTINUOUS
 10
0.439673
 20
0.884650
  0
VERTEX
  8
PLAN_1
 62
     2
  6
CONTINUOUS
 10
0.441378
 20
0.887488
  0
VERTEX
  8
PLAN_1
 62
     2
  6
CONTINUOUS
 10
0.442512
 20
0.890898
  0
VERTEX
  8
PLAN_1
 62
     2
  6
CONTINUOUS
 10
0.443079
 20
0.895441
  0
VERTEX
  8
PLAN_1
 62
     2
  6
CONTINUOUS
 10
0.442512
 20
0.897713
  0
VERTEX
  8
PLAN_1
 62
     2
  6
CONTINUOUS
 10
0.442512
 20
0.900551
  0
VERTEX
  8
PLAN_1
 62
     2
  6
CONTINUOUS
 10
0.441378
 20
0.902823
  0
VERTEX
  8
PLAN_1
 62
     2
  6
CONTINUOUS
 10
0.440240
 20
0.905094
  0
VERTEX
  8
PLAN_1
 62
     2
  6
CONTINUOUS
 10
0.438535
 20
0.906799
  0
VERTEX
  8
PLAN_1
 62
     2
  6
CONTINUOUS
 10
0.436264
 20
0.908504
  0
VERTEX
  8
PLAN_1
 62
     2
  6
CONTINUOUS
 10
0.432854
 20
0.909642
  0
VERTEX
  8
PLAN_1
 62
     2
  6
CONTINUOUS
 10
0.428882
 20
0.909642
  0
VERTEX
  8
PLAN_1
 62
     2
  6
CONTINUOUS
 10
0.425472
 20
0.909642
  0
VERTEX
  8
PLAN_1
 62
     2
  6
CONTINUOUS
 10
0.422634
 20
0.908504
  0
VERTEX
  8
PLAN_1
 62
     2
  6
CONTINUOUS
 10
0.420358
 20
0.907366
  0
VERTEX
  8
PLAN_1
 62
     2
  6
CONTINUOUS
 10
0.418087
 20
0.905665
  0
VERTEX
  8
PLAN_1
 62
     2
  6
CONTINUOUS
 10
0.416953
 20
0.903394
  0
VERTEX
  8
PLAN_1
 62
     2
  6
CONTINUOUS
 10
0.415815
 20
0.900551
  0
VERTEX
  8
PLAN_1
 62
     2
  6
CONTINUOUS
 10
0.415248
 20
0.897713
  0
VERTEX
  8
PLAN_1
 62
     2
  6
CONTINUOUS
 10
0.414681
 20
0.894870
  0
VERTEX
  8
PLAN_1
 62
     2
  6
CONTINUOUS
 10
0.415248
 20
0.890898
  0
VERTEX
  8
PLAN_1
 62
     2
  6
CONTINUOUS
 10
0.415815
 20
0.888055
  0
VERTEX
  8
PLAN_1
 62
     2
  6
CONTINUOUS
 10
0.417520
 20
0.885217
  0
VERTEX
  8
PLAN_1
 62
     2
  6
CONTINUOUS
 10
0.419224
 20
0.883512
  0
VERTEX
  8
PLAN_1
 62
     2
  6
CONTINUOUS
 10
0.420929
 20
0.881807
  0
VERTEX
  8
PLAN_1
 62
     2
  6
CONTINUOUS
 10
0.423201
 20
0.880673
  0
VERTEX
  8
PLAN_1
 62
     2
  6
CONTINUOUS
 10
0.426039
 20
0.880102
  0
VERTEX
  8
PLAN_1
 62
     2
  6
CONTINUOUS
 10
0.428311
 20
0.879535
  0
SEQEND
  8
0
  0
POLYLINE
  8
PLAN_1
 62
     2
  6
CONTINUOUS
 66
     1
 40
0.003000
 41
0.003000
  0
VERTEX
  8
PLAN_1
 62
     2
  6
CONTINUOUS
 10
0.395366
 20
0.907366
  0
VERTEX
  8
PLAN_1
 62
     2
  6
CONTINUOUS
 10
0.393094
 20
0.907366
  0
VERTEX
  8
PLAN_1
 62
     2
  6
CONTINUOUS
 10
0.391394
 20
0.906799
  0
VERTEX
  8
PLAN_1
 62
     2
  6
CONTINUOUS
 10
0.389689
 20
0.906232
  0
VERTEX
  8
PLAN_1
 62
     2
  6
CONTINUOUS
 10
0.387984
 20
0.905094
  0
VERTEX
  8
PLAN_1
 62
     2
  6
CONTINUOUS
 10
0.386280
 20
0.902823
  0
VERTEX
  8
PLAN_1
 62
     2
  6
CONTINUOUS
 10
0.385146
 20
0.900551
  0
VERTEX
  8
PLAN_1
 62
     2
  6
CONTINUOUS
 10
0.384575
 20
0.897713
  0
VERTEX
  8
PLAN_1
 62
     2
  6
CONTINUOUS
 10
0.384008
 20
0.893736
  0
VERTEX
  8
PLAN_1
 62
     2
  6
CONTINUOUS
 10
0.384575
 20
0.890898
  0
VERTEX
  8
PLAN_1
 62
     2
  6
CONTINUOUS
 10
0.385146
 20
0.888055
  0
VERTEX
  8
PLAN_1
 62
     2
  6
CONTINUOUS
 10
0.386846
 20
0.885783
  0
VERTEX
  8
PLAN_1
 62
     2
  6
CONTINUOUS
 10
0.387984
 20
0.884079
  0
VERTEX
  8
PLAN_1
 62
     2
  6
CONTINUOUS
 10
0.389689
 20
0.882945
  0
VERTEX
  8
PLAN_1
 62
     2
  6
CONTINUOUS
 10
0.391961
 20
0.882374
  0
VERTEX
  8
PLAN_1
 62
     2
  6
CONTINUOUS
 10
0.393665
 20
0.881807
  0
VERTEX
  8
PLAN_1
 62
     2
  6
CONTINUOUS
 10
0.395366
 20
0.881807
  0
VERTEX
  8
PLAN_1
 62
     2
  6
CONTINUOUS
 10
0.398209
 20
0.881807
  0
VERTEX
  8
PLAN_1
 62
     2
  6
CONTINUOUS
 10
0.400480
 20
0.882945
  0
VERTEX
  8
PLAN_1
 62
     2
  6
CONTINUOUS
 10
0.402185
 20
0.884079
  0
VERTEX
  8
PLAN_1
 62
     2
  6
CONTINUOUS
 10
0.403890
 20
0.885783
  0
VERTEX
  8
PLAN_1
 62
     2
  6
CONTINUOUS
 10
0.405024
 20
0.887488
  0
VERTEX
  8
PLAN_1
 62
     2
  6
CONTINUOUS
 10
0.406161
 20
0.889760
  0
VERTEX
  8
PLAN_1
 62
     2
  6
CONTINUOUS
 10
0.406728
 20
0.892031
  0
VERTEX
  8
PLAN_1
 62
     2
  6
CONTINUOUS
 10
0.406728
 20
0.894870
  0
VERTEX
  8
PLAN_1
 62
     2
  6
CONTINUOUS
 10
0.406728
 20
0.897713
  0
VERTEX
  8
PLAN_1
 62
     2
  6
CONTINUOUS
 10
0.406161
 20
0.899984
  0
VERTEX
  8
PLAN_1
 62
     2
  6
CONTINUOUS
 10
0.405024
 20
0.902256
  0
VERTEX
  8
PLAN_1
 62
     2
  6
CONTINUOUS
 10
0.403319
 20
0.903961
  0
VERTEX
  8
PLAN_1
 62
     2
  6
CONTINUOUS
 10
0.401614
 20
0.905665
  0
VERTEX
  8
PLAN_1
 62
     2
  6
CONTINUOUS
 10
0.399913
 20
0.906799
  0
VERTEX
  8
PLAN_1
 62
     2
  6
CONTINUOUS
 10
0.397642
 20
0.907366
  0
VERTEX
  8
PLAN_1
 62
     2
  6
CONTINUOUS
 10
0.395366
 20
0.907366
  0
SEQEND
  8
0
  0
POLYLINE
  8
PLAN_1
 62
     2
  6
CONTINUOUS
 66
     1
 40
0.003000
 41
0.003000
  0
VERTEX
  8
PLAN_1
 62
     2
  6
CONTINUOUS
 10
0.431154
 20
0.967575
  0
VERTEX
  8
PLAN_1
 62
     2
  6
CONTINUOUS
 10
0.449327
 20
0.967575
  0
VERTEX
  8
PLAN_1
 62
     2
  6
CONTINUOUS
 10
0.449327
 20
0.958488
  0
VERTEX
  8
PLAN_1
 62
     2
  6
CONTINUOUS
 10
0.431154
 20
0.958488
  0
VERTEX
  8
PLAN_1
 62
     2
  6
CONTINUOUS
 10
0.431154
 20
0.926681
  0
VERTEX
  8
PLAN_1
 62
     2
  6
CONTINUOUS
 10
0.422634
 20
0.926681
  0
VERTEX
  8
PLAN_1
 62
     2
  6
CONTINUOUS
 10
0.376055
 20
0.959622
  0
VERTEX
  8
PLAN_1
 62
     2
  6
CONTINUOUS
 10
0.376055
 20
0.967575
  0
VERTEX
  8
PLAN_1
 62
     2
  6
CONTINUOUS
 10
0.423201
 20
0.967575
  0
VERTEX
  8
PLAN_1
 62
     2
  6
CONTINUOUS
 10
0.423201
 20
0.978366
  0
VERTEX
  8
PLAN_1
 62
     2
  6
CONTINUOUS
 10
0.431154
 20
0.978366
  0
VERTEX
  8
PLAN_1
 62
     2
  6
CONTINUOUS
 10
0.431154
 20
0.967575
  0
SEQEND
  8
0
  0
SOLID
  8
PLAN_1
 62
     2
 10
0.423201
 20
0.934634
 11
0.423201
 21
0.958488
 12
0.390256
 22
0.957921
 13
0.390256
 23
0.958488
  0
POLYLINE
  8
PLAN_1
 62
     2
  6
CONTINUOUS
 66
     1
 40
0.003000
 41
0.003000
  0
VERTEX
  8
PLAN_1
 62
     2
  6
CONTINUOUS
 10
0.423201
 20
0.934634
  0
VERTEX
  8
PLAN_1
 62
     2
  6
CONTINUOUS
 10
0.423201
 20
0.958488
  0
VERTEX
  8
PLAN_1
 62
     2
  6
CONTINUOUS
 10
0.390256
 20
0.958488
  0
VERTEX
  8
PLAN_1
 62
     2
  6
CONTINUOUS
 10
0.390256
 20
0.957921
  0
VERTEX
  8
PLAN_1
 62
     2
  6
CONTINUOUS
 10
0.423201
 20
0.934634
  0
SEQEND
  8
0
  0
POLYLINE
  8
PLAN_1
 62
     2
  6
CONTINUOUS
 66
     1
 40
0.003000
 41
0.003000
  0
VERTEX
  8
PLAN_1
 62
     2
  6
CONTINUOUS
 10
-0.640094
 20
4.305713
  0
VERTEX
  8
PLAN_1
 62
     2
  6
CONTINUOUS
 10
-0.640094
 20
4.287535
  0
VERTEX
  8
PLAN_1
 62
     2
  6
CONTINUOUS
 10
-0.649185
 20
4.287535
  0
VERTEX
  8
PLAN_1
 62
     2
  6
CONTINUOUS
 10
-0.649185
 20
4.305713
  0
VERTEX
  8
PLAN_1
 62
     2
  6
CONTINUOUS
 10
-0.681559
 20
4.305713
  0
VERTEX
  8
PLAN_1
 62
     2
  6
CONTINUOUS
 10
-0.681559
 20
4.314232
  0
VERTEX
  8
PLAN_1
 62
     2
  6
CONTINUOUS
 10
-0.648047
 20
4.360807
  0
VERTEX
  8
PLAN_1
 62
     2
  6
CONTINUOUS
 10
-0.640094
 20
4.360807
  0
VERTEX
  8
PLAN_1
 62
     2
  6
CONTINUOUS
 10
-0.640094
 20
4.313665
  0
VERTEX
  8
PLAN_1
 62
     2
  6
CONTINUOUS
 10
-0.629303
 20
4.313665
  0
VERTEX
  8
PLAN_1
 62
     2
  6
CONTINUOUS
 10
-0.629303
 20
4.305713
  0
VERTEX
  8
PLAN_1
 62
     2
  6
CONTINUOUS
 10
-0.640094
 20
4.305713
  0
SEQEND
  8
0
  0
SOLID
  8
PLAN_1
 62
     2
 10
-0.673039
 20
4.313665
 11
-0.649185
 21
4.313665
 12
-0.649752
 22
4.346606
 13
-0.649185
 23
4.346606
  0
POLYLINE
  8
PLAN_1
 62
     2
  6
CONTINUOUS
 66
     1
 40
0.003000
 41
0.003000
  0
VERTEX
  8
PLAN_1
 62
     2
  6
CONTINUOUS
 10
-0.673039
 20
4.313665
  0
VERTEX
  8
PLAN_1
 62
     2
  6
CONTINUOUS
 10
-0.649185
 20
4.313665
  0
VERTEX
  8
PLAN_1
 62
     2
  6
CONTINUOUS
 10
-0.649185
 20
4.346606
  0
VERTEX
  8
PLAN_1
 62
     2
  6
CONTINUOUS
 10
-0.649752
 20
4.346606
  0
VERTEX
  8
PLAN_1
 62
     2
  6
CONTINUOUS
 10
-0.673039
 20
4.313665
  0
SEQEND
  8
0
  0
POLYLINE
  8
PLAN_1
 62
     2
  6
CONTINUOUS
 66
     1
 40
0.003000
 41
0.003000
  0
VERTEX
  8
PLAN_1
 62
     2
  6
CONTINUOUS
 10
-0.582161
 20
4.305713
  0
VERTEX
  8
PLAN_1
 62
     2
  6
CONTINUOUS
 10
-0.582161
 20
4.287535
  0
VERTEX
  8
PLAN_1
 62
     2
  6
CONTINUOUS
 10
-0.591248
 20
4.287535
  0
VERTEX
  8
PLAN_1
 62
     2
  6
CONTINUOUS
 10
-0.591248
 20
4.305713
  0
VERTEX
  8
PLAN_1
 62
     2
  6
CONTINUOUS
 10
-0.623622
 20
4.305713
  0
VERTEX
  8
PLAN_1
 62
     2
  6
CONTINUOUS
 10
-0.623622
 20
4.314232
  0
VERTEX
  8
PLAN_1
 62
     2
  6
CONTINUOUS
 10
-0.590110
 20
4.360807
  0
VERTEX
  8
PLAN_1
 62
     2
  6
CONTINUOUS
 10
-0.582161
 20
4.360807
  0
VERTEX
  8
PLAN_1
 62
     2
  6
CONTINUOUS
 10
-0.582161
 20
4.313665
  0
VERTEX
  8
PLAN_1
 62
     2
  6
CONTINUOUS
 10
-0.571366
 20
4.313665
  0
VERTEX
  8
PLAN_1
 62
     2
  6
CONTINUOUS
 10
-0.571366
 20
4.305713
  0
VERTEX
  8
PLAN_1
 62
     2
  6
CONTINUOUS
 10
-0.582161
 20
4.305713
  0
SEQEND
  8
0
  0
SOLID
  8
PLAN_1
 62
     2
 10
-0.615102
 20
4.313665
 11
-0.591248
 21
4.313665
 12
-0.591815
 22
4.346606
 13
-0.591248
 23
4.346606
  0
POLYLINE
  8
PLAN_1
 62
     2
  6
CONTINUOUS
 66
     1
 40
0.003000
 41
0.003000
  0
VERTEX
  8
PLAN_1
 62
     2
  6
CONTINUOUS
 10
-0.615102
 20
4.313665
  0
VERTEX
  8
PLAN_1
 62
     2
  6
CONTINUOUS
 10
-0.591248
 20
4.313665
  0
VERTEX
  8
PLAN_1
 62
     2
  6
CONTINUOUS
 10
-0.591248
 20
4.346606
  0
VERTEX
  8
PLAN_1
 62
     2
  6
CONTINUOUS
 10
-0.591815
 20
4.346606
  0
VERTEX
  8
PLAN_1
 62
     2
  6
CONTINUOUS
 10
-0.615102
 20
4.313665
  0
SEQEND
  8
0
  0
ENDSEC
  0
EOF
