  0
SECTION
  2
HEADER
  9
$ACADVER
  1
AC1006
  9
$EXTMIN
 10
-2.250000
 20
-4.641280
  9
$EXTMAX
 10
2.261000
 20
4.643000
  9
$LTSCALE
 40
0.000394
  9
$PDMODE
 70
    35
  9
$PDSIZE
 40
0.000315
  0
ENDSEC
  0
SECTION
  2
TABLES
  0
TABLE
  2
LTYPE
 70
     9
  0
LTYPE
  2
CONTINUOUS
 70
    64
  3
Solid line
 72
    65
 73
     0
 40
0.000000
  0
LTYPE
  2
DASHED
 70
    64
  3
__ __ __ __ __ __ __ __ __ __ __ __ __ __ __
 72
    65
 73
     2
 40
0.000003
 49
0.000002
 49
-0.000001
  0
LTYPE
  2
HIDDEN
 70
    64
  3
 _ _ _ _ _ _ _ _ _ _ _ _ _ _ _ _ _ _ _ _ _ _
 72
    65
 73
     2
 40
0.000001
 49
0.000001
 49
-0.000000
  0
LTYPE
  2
CENTER
 70
    64
  3
____ _ ____ _ ____ _ ____ _ ____ _ ____ _ ____
 72
    65
 73
     4
 40
0.000008
 49
0.000005
 49
-0.000001
 49
0.000001
 49
-0.000001
  0
LTYPE
  2
PHANTOM
 70
    64
  3
_____ _ _ _____ _ _ _____ _ _ _____ _ _ ____
 72
    65
 73
     6
 40
0.000010
 49
0.000005
 49
-0.000001
 49
0.000001
 49
-0.000001
 49
0.000001
 49
-0.000001
  0
LTYPE
  2
DOT
 70
    64
  3
...............................................
 72
    65
 73
     2
 40
0.000001
 49
0.000000
 49
-0.000001
  0
LTYPE
  2
DASHDOT
 70
    64
  3
__ . __ . __ . __ . __ . __ . __ . __ . __ . __
 72
    65
 73
     4
 40
0.000004
 49
0.000002
 49
-0.000001
 49
0.000000
 49
-0.000001
  0
LTYPE
  2
BORDER
 70
    64
  3
__ __ . __ __ . __ __ . __ __ . __ __ . __ __
 72
    65
 73
     6
 40
0.000007
 49
0.000002
 49
-0.000001
 49
0.000002
 49
-0.000001
 49
0.000000
 49
-0.000001
  0
LTYPE
  2
DIVIDE
 70
    64
  3
__ . . __ . . __ . . __ . . __ . . __ . . __
 72
    65
 73
     6
 40
0.000005
 49
0.000002
 49
-0.000001
 49
0.000000
 49
-0.000001
 49
0.000000
 49
-0.000001
  0
LTYPE
  2
DOTDOT
 70
    64
  3
 . .  . .  . .  . .  . .  . . 
 72
    65
 73
     5
 40
0.000002
 49
-0.000001
 49
0.000000
 49
-0.000001
 49
0.000000
 49
-0.000001
  0
ENDTAB
  0
TABLE
  2
STYLE
 70
     0
  0
ENDTAB
  0
TABLE
  2
LAYER
 70
     3
  0
LAYER
  2
FOREGROUND
 70
    64
 62
     7
  6
CONTINUOUS
  0
LAYER
  2
BACKGROUND
 70
    65
 62
    -7
  6
CONTINUOUS
  0
LAYER
  2
PLAN_1
 70
    64
 62
     7
  6
CONTINUOUS
  0
ENDTAB
  0
ENDSEC
  0
SECTION
  2
ENTITIES
  0
POLYLINE
  8
PLAN_1
  6
CONTINUOUS
 66
     1
 40
0.003000
 41
0.003000
  0
VERTEX
  8
PLAN_1
  6
CONTINUOUS
 10
0.243409
 20
-4.636059
  0
VERTEX
  8
PLAN_1
  6
CONTINUOUS
 10
0.210335
 20
-4.636059
  0
VERTEX
  8
PLAN_1
  6
CONTINUOUS
 10
0.156370
 20
-4.554240
  0
VERTEX
  8
PLAN_1
  6
CONTINUOUS
 10
0.101244
 20
-4.636059
  0
VERTEX
  8
PLAN_1
  6
CONTINUOUS
 10
0.068748
 20
-4.636059
  0
VERTEX
  8
PLAN_1
  6
CONTINUOUS
 10
0.140122
 20
-4.533933
  0
VERTEX
  8
PLAN_1
  6
CONTINUOUS
 10
0.073390
 20
-4.437028
  0
VERTEX
  8
PLAN_1
  6
CONTINUOUS
 10
0.107047
 20
-4.437028
  0
VERTEX
  8
PLAN_1
  6
CONTINUOUS
 10
0.157531
 20
-4.513043
  0
VERTEX
  8
PLAN_1
  6
CONTINUOUS
 10
0.208012
 20
-4.437028
  0
VERTEX
  8
PLAN_1
  6
CONTINUOUS
 10
0.240508
 20
-4.437028
  0
VERTEX
  8
PLAN_1
  6
CONTINUOUS
 10
0.173197
 20
-4.533933
  0
VERTEX
  8
PLAN_1
  6
CONTINUOUS
 10
0.243409
 20
-4.636059
  0
SEQEND
  8
0
  0
POLYLINE
  8
PLAN_1
  6
CONTINUOUS
 66
     1
 40
0.003000
 41
0.003000
  0
VERTEX
  8
PLAN_1
  6
CONTINUOUS
 10
0.409945
 20
-4.496795
  0
VERTEX
  8
PLAN_1
  6
CONTINUOUS
 10
0.408205
 20
-4.490409
  0
VERTEX
  8
PLAN_1
  6
CONTINUOUS
 10
0.405886
 20
-4.484610
  0
VERTEX
  8
PLAN_1
  6
CONTINUOUS
 10
0.403563
 20
-4.479969
  0
VERTEX
  8
PLAN_1
  6
CONTINUOUS
 10
0.400661
 20
-4.475323
  0
VERTEX
  8
PLAN_1
  6
CONTINUOUS
 10
0.397181
 20
-4.471843
  0
VERTEX
  8
PLAN_1
  6
CONTINUOUS
 10
0.393701
 20
-4.468362
  0
VERTEX
  8
PLAN_1
  6
CONTINUOUS
 10
0.390217
 20
-4.465461
  0
VERTEX
  8
PLAN_1
  6
CONTINUOUS
 10
0.386157
 20
-4.463138
  0
VERTEX
  8
PLAN_1
  6
CONTINUOUS
 10
0.382094
 20
-4.460819
  0
VERTEX
  8
PLAN_1
  6
CONTINUOUS
 10
0.378031
 20
-4.459079
  0
VERTEX
  8
PLAN_1
  6
CONTINUOUS
 10
0.373969
 20
-4.457917
  0
VERTEX
  8
PLAN_1
  6
CONTINUOUS
 10
0.369909
 20
-4.456756
  0
VERTEX
  8
PLAN_1
  6
CONTINUOUS
 10
0.361783
 20
-4.455594
  0
VERTEX
  8
PLAN_1
  6
CONTINUOUS
 10
0.354240
 20
-4.455594
  0
VERTEX
  8
PLAN_1
  6
CONTINUOUS
 10
0.347280
 20
-4.455594
  0
VERTEX
  8
PLAN_1
  6
CONTINUOUS
 10
0.340894
 20
-4.456756
  0
VERTEX
  8
PLAN_1
  6
CONTINUOUS
 10
0.334512
 20
-4.457917
  0
VERTEX
  8
PLAN_1
  6
CONTINUOUS
 10
0.328709
 20
-4.460236
  0
VERTEX
  8
PLAN_1
  6
CONTINUOUS
 10
0.322906
 20
-4.463138
  0
VERTEX
  8
PLAN_1
  6
CONTINUOUS
 10
0.317685
 20
-4.466622
  0
VERTEX
  8
PLAN_1
  6
CONTINUOUS
 10
0.312461
 20
-4.470681
  0
VERTEX
  8
PLAN_1
  6
CONTINUOUS
 10
0.307819
 20
-4.475323
  0
VERTEX
  8
PLAN_1
  6
CONTINUOUS
 10
0.303756
 20
-4.480547
  0
VERTEX
  8
PLAN_1
  6
CONTINUOUS
 10
0.299697
 20
-4.486350
  0
VERTEX
  8
PLAN_1
  6
CONTINUOUS
 10
0.296795
 20
-4.492732
  0
VERTEX
  8
PLAN_1
  6
CONTINUOUS
 10
0.293894
 20
-4.499697
  0
VERTEX
  8
PLAN_1
  6
CONTINUOUS
 10
0.291571
 20
-4.507819
  0
VERTEX
  8
PLAN_1
  6
CONTINUOUS
 10
0.289831
 20
-4.515945
  0
VERTEX
  8
PLAN_1
  6
CONTINUOUS
 10
0.289252
 20
-4.524646
  0
VERTEX
  8
PLAN_1
  6
CONTINUOUS
 10
0.288669
 20
-4.534512
  0
VERTEX
  8
PLAN_1
  6
CONTINUOUS
 10
0.289252
 20
-4.543217
  0
VERTEX
  8
PLAN_1
  6
CONTINUOUS
 10
0.289831
 20
-4.551339
  0
VERTEX
  8
PLAN_1
  6
CONTINUOUS
 10
0.290409
 20
-4.559465
  0
VERTEX
  8
PLAN_1
  6
CONTINUOUS
 10
0.292154
 20
-4.567008
  0
VERTEX
  8
PLAN_1
  6
CONTINUOUS
 10
0.293894
 20
-4.574551
  0
VERTEX
  8
PLAN_1
  6
CONTINUOUS
 10
0.296795
 20
-4.581512
  0
VERTEX
  8
PLAN_1
  6
CONTINUOUS
 10
0.299697
 20
-4.587898
  0
VERTEX
  8
PLAN_1
  6
CONTINUOUS
 10
0.303177
 20
-4.593701
  0
VERTEX
  8
PLAN_1
  6
CONTINUOUS
 10
0.307240
 20
-4.598921
  0
VERTEX
  8
PLAN_1
  6
CONTINUOUS
 10
0.312461
 20
-4.603563
  0
VERTEX
  8
PLAN_1
  6
CONTINUOUS
 10
0.317685
 20
-4.607626
  0
VERTEX
  8
PLAN_1
  6
CONTINUOUS
 10
0.323488
 20
-4.611106
  0
VERTEX
  8
PLAN_1
  6
CONTINUOUS
 10
0.330449
 20
-4.614008
  0
VERTEX
  8
PLAN_1
  6
CONTINUOUS
 10
0.337992
 20
-4.615748
  0
VERTEX
  8
PLAN_1
  6
CONTINUOUS
 10
0.346118
 20
-4.616909
  0
VERTEX
  8
PLAN_1
  6
CONTINUOUS
 10
0.354823
 20
-4.617488
  0
VERTEX
  8
PLAN_1
  6
CONTINUOUS
 10
0.361783
 20
-4.616909
  0
VERTEX
  8
PLAN_1
  6
CONTINUOUS
 10
0.369909
 20
-4.615169
  0
VERTEX
  8
PLAN_1
  6
CONTINUOUS
 10
0.373969
 20
-4.614008
  0
VERTEX
  8
PLAN_1
  6
CONTINUOUS
 10
0.378031
 20
-4.612268
  0
VERTEX
  8
PLAN_1
  6
CONTINUOUS
 10
0.382094
 20
-4.609945
  0
VERTEX
  8
PLAN_1
  6
CONTINUOUS
 10
0.386157
 20
-4.607626
  0
VERTEX
  8
PLAN_1
  6
CONTINUOUS
 10
0.390217
 20
-4.604146
  0
VERTEX
  8
PLAN_1
  6
CONTINUOUS
 10
0.394280
 20
-4.600661
  0
VERTEX
  8
PLAN_1
  6
CONTINUOUS
 10
0.397760
 20
-4.596020
  0
VERTEX
  8
PLAN_1
  6
CONTINUOUS
 10
0.401244
 20
-4.590799
  0
VERTEX
  8
PLAN_1
  6
CONTINUOUS
 10
0.404724
 20
-4.584996
  0
VERTEX
  8
PLAN_1
  6
CONTINUOUS
 10
0.407626
 20
-4.578610
  0
VERTEX
  8
PLAN_1
  6
CONTINUOUS
 10
0.409945
 20
-4.571067
  0
VERTEX
  8
PLAN_1
  6
CONTINUOUS
 10
0.411689
 20
-4.562945
  0
VERTEX
  8
PLAN_1
  6
CONTINUOUS
 10
0.437799
 20
-4.562945
  0
VERTEX
  8
PLAN_1
  6
CONTINUOUS
 10
0.436638
 20
-4.569327
  0
VERTEX
  8
PLAN_1
  6
CONTINUOUS
 10
0.434898
 20
-4.576291
  0
VERTEX
  8
PLAN_1
  6
CONTINUOUS
 10
0.433157
 20
-4.582094
  0
VERTEX
  8
PLAN_1
  6
CONTINUOUS
 10
0.431417
 20
-4.587898
  0
VERTEX
  8
PLAN_1
  6
CONTINUOUS
 10
0.429094
 20
-4.593118
  0
VERTEX
  8
PLAN_1
  6
CONTINUOUS
 10
0.426776
 20
-4.597760
  0
VERTEX
  8
PLAN_1
  6
CONTINUOUS
 10
0.424453
 20
-4.602402
  0
VERTEX
  8
PLAN_1
  6
CONTINUOUS
 10
0.421551
 20
-4.606465
  0
VERTEX
  8
PLAN_1
  6
CONTINUOUS
 10
0.415748
 20
-4.614008
  0
VERTEX
  8
PLAN_1
  6
CONTINUOUS
 10
0.409366
 20
-4.620390
  0
VERTEX
  8
PLAN_1
  6
CONTINUOUS
 10
0.402402
 20
-4.626193
  0
VERTEX
  8
PLAN_1
  6
CONTINUOUS
 10
0.395441
 20
-4.630256
  0
VERTEX
  8
PLAN_1
  6
CONTINUOUS
 10
0.388476
 20
-4.633736
  0
VERTEX
  8
PLAN_1
  6
CONTINUOUS
 10
0.382094
 20
-4.636059
  0
VERTEX
  8
PLAN_1
  6
CONTINUOUS
 10
0.375130
 20
-4.638378
  0
VERTEX
  8
PLAN_1
  6
CONTINUOUS
 10
0.368748
 20
-4.639539
  0
VERTEX
  8
PLAN_1
  6
CONTINUOUS
 10
0.358303
 20
-4.641280
  0
VERTEX
  8
PLAN_1
  6
CONTINUOUS
 10
0.350760
 20
-4.641280
  0
VERTEX
  8
PLAN_1
  6
CONTINUOUS
 10
0.342055
 20
-4.640701
  0
VERTEX
  8
PLAN_1
  6
CONTINUOUS
 10
0.333933
 20
-4.640122
  0
VERTEX
  8
PLAN_1
  6
CONTINUOUS
 10
0.325807
 20
-4.637799
  0
VERTEX
  8
PLAN_1
  6
CONTINUOUS
 10
0.317685
 20
-4.635476
  0
VERTEX
  8
PLAN_1
  6
CONTINUOUS
 10
0.309559
 20
-4.631996
  0
VERTEX
  8
PLAN_1
  6
CONTINUOUS
 10
0.302598
 20
-4.627933
  0
VERTEX
  8
PLAN_1
  6
CONTINUOUS
 10
0.295634
 20
-4.622713
  0
VERTEX
  8
PLAN_1
  6
CONTINUOUS
 10
0.288669
 20
-4.616909
  0
VERTEX
  8
PLAN_1
  6
CONTINUOUS
 10
0.282866
 20
-4.609945
  0
VERTEX
  8
PLAN_1
  6
CONTINUOUS
 10
0.277646
 20
-4.602402
  0
VERTEX
  8
PLAN_1
  6
CONTINUOUS
 10
0.272421
 20
-4.593701
  0
VERTEX
  8
PLAN_1
  6
CONTINUOUS
 10
0.268362
 20
-4.584413
  0
VERTEX
  8
PLAN_1
  6
CONTINUOUS
 10
0.265461
 20
-4.573390
  0
VERTEX
  8
PLAN_1
  6
CONTINUOUS
 10
0.263138
 20
-4.561783
  0
VERTEX
  8
PLAN_1
  6
CONTINUOUS
 10
0.261398
 20
-4.549020
  0
VERTEX
  8
PLAN_1
  6
CONTINUOUS
 10
0.260819
 20
-4.535091
  0
VERTEX
  8
PLAN_1
  6
CONTINUOUS
 10
0.261398
 20
-4.524067
  0
VERTEX
  8
PLAN_1
  6
CONTINUOUS
 10
0.262559
 20
-4.513043
  0
VERTEX
  8
PLAN_1
  6
CONTINUOUS
 10
0.264878
 20
-4.503177
  0
VERTEX
  8
PLAN_1
  6
CONTINUOUS
 10
0.267201
 20
-4.493311
  0
VERTEX
  8
PLAN_1
  6
CONTINUOUS
 10
0.270681
 20
-4.484028
  0
VERTEX
  8
PLAN_1
  6
CONTINUOUS
 10
0.275323
 20
-4.475323
  0
VERTEX
  8
PLAN_1
  6
CONTINUOUS
 10
0.279969
 20
-4.467780
  0
VERTEX
  8
PLAN_1
  6
CONTINUOUS
 10
0.285768
 20
-4.460236
  0
VERTEX
  8
PLAN_1
  6
CONTINUOUS
 10
0.292154
 20
-4.453854
  0
VERTEX
  8
PLAN_1
  6
CONTINUOUS
 10
0.299114
 20
-4.448051
  0
VERTEX
  8
PLAN_1
  6
CONTINUOUS
 10
0.306657
 20
-4.443409
  0
VERTEX
  8
PLAN_1
  6
CONTINUOUS
 10
0.314783
 20
-4.439346
  0
VERTEX
  8
PLAN_1
  6
CONTINUOUS
 10
0.324067
 20
-4.435866
  0
VERTEX
  8
PLAN_1
  6
CONTINUOUS
 10
0.333350
 20
-4.433543
  0
VERTEX
  8
PLAN_1
  6
CONTINUOUS
 10
0.343217
 20
-4.431803
  0
VERTEX
  8
PLAN_1
  6
CONTINUOUS
 10
0.354240
 20
-4.431224
  0
VERTEX
  8
PLAN_1
  6
CONTINUOUS
 10
0.363524
 20
-4.431803
  0
VERTEX
  8
PLAN_1
  6
CONTINUOUS
 10
0.372228
 20
-4.432965
  0
VERTEX
  8
PLAN_1
  6
CONTINUOUS
 10
0.380354
 20
-4.434705
  0
VERTEX
  8
PLAN_1
  6
CONTINUOUS
 10
0.387898
 20
-4.437028
  0
VERTEX
  8
PLAN_1
  6
CONTINUOUS
 10
0.394858
 20
-4.439929
  0
VERTEX
  8
PLAN_1
  6
CONTINUOUS
 10
0.401244
 20
-4.443409
  0
VERTEX
  8
PLAN_1
  6
CONTINUOUS
 10
0.407626
 20
-4.447472
  0
VERTEX
  8
PLAN_1
  6
CONTINUOUS
 10
0.412846
 20
-4.451531
  0
VERTEX
  8
PLAN_1
  6
CONTINUOUS
 10
0.417488
 20
-4.456177
  0
VERTEX
  8
PLAN_1
  6
CONTINUOUS
 10
0.421551
 20
-4.461398
  0
VERTEX
  8
PLAN_1
  6
CONTINUOUS
 10
0.425614
 20
-4.466622
  0
VERTEX
  8
PLAN_1
  6
CONTINUOUS
 10
0.428516
 20
-4.472421
  0
VERTEX
  8
PLAN_1
  6
CONTINUOUS
 10
0.431417
 20
-4.478224
  0
VERTEX
  8
PLAN_1
  6
CONTINUOUS
 10
0.433157
 20
-4.484610
  0
VERTEX
  8
PLAN_1
  6
CONTINUOUS
 10
0.434898
 20
-4.490409
  0
VERTEX
  8
PLAN_1
  6
CONTINUOUS
 10
0.436059
 20
-4.496795
  0
VERTEX
  8
PLAN_1
  6
CONTINUOUS
 10
0.409945
 20
-4.496795
  0
SEQEND
  8
0
  0
POLYLINE
  8
PLAN_1
  6
CONTINUOUS
 66
     1
 40
0.003000
 41
0.003000
  0
VERTEX
  8
PLAN_1
  6
CONTINUOUS
 10
0.497567
 20
-4.636059
  0
VERTEX
  8
PLAN_1
  6
CONTINUOUS
 10
0.470295
 20
-4.636059
  0
VERTEX
  8
PLAN_1
  6
CONTINUOUS
 10
0.470295
 20
-4.437028
  0
VERTEX
  8
PLAN_1
  6
CONTINUOUS
 10
0.497567
 20
-4.437028
  0
VERTEX
  8
PLAN_1
  6
CONTINUOUS
 10
0.497567
 20
-4.533350
  0
VERTEX
  8
PLAN_1
  6
CONTINUOUS
 10
0.593890
 20
-4.437028
  0
VERTEX
  8
PLAN_1
  6
CONTINUOUS
 10
0.631028
 20
-4.437028
  0
VERTEX
  8
PLAN_1
  6
CONTINUOUS
 10
0.548051
 20
-4.517102
  0
VERTEX
  8
PLAN_1
  6
CONTINUOUS
 10
0.633350
 20
-4.636059
  0
VERTEX
  8
PLAN_1
  6
CONTINUOUS
 10
0.598531
 20
-4.636059
  0
VERTEX
  8
PLAN_1
  6
CONTINUOUS
 10
0.528902
 20
-4.536252
  0
VERTEX
  8
PLAN_1
  6
CONTINUOUS
 10
0.497567
 20
-4.565846
  0
VERTEX
  8
PLAN_1
  6
CONTINUOUS
 10
0.497567
 20
-4.636059
  0
SEQEND
  8
0
  0
POLYLINE
  8
PLAN_1
  6
CONTINUOUS
 66
     1
 40
0.003000
 41
0.003000
  0
VERTEX
  8
PLAN_1
  6
CONTINUOUS
 10
0.664685
 20
-4.571650
  0
VERTEX
  8
PLAN_1
  6
CONTINUOUS
 10
0.664685
 20
-4.585575
  0
VERTEX
  8
PLAN_1
  6
CONTINUOUS
 10
0.664685
 20
-4.590217
  0
VERTEX
  8
PLAN_1
  6
CONTINUOUS
 10
0.665264
 20
-4.594280
  0
VERTEX
  8
PLAN_1
  6
CONTINUOUS
 10
0.665843
 20
-4.597760
  0
VERTEX
  8
PLAN_1
  6
CONTINUOUS
 10
0.666425
 20
-4.600661
  0
VERTEX
  8
PLAN_1
  6
CONTINUOUS
 10
0.667587
 20
-4.604146
  0
VERTEX
  8
PLAN_1
  6
CONTINUOUS
 10
0.669327
 20
-4.606465
  0
VERTEX
  8
PLAN_1
  6
CONTINUOUS
 10
0.670488
 20
-4.608787
  0
VERTEX
  8
PLAN_1
  6
CONTINUOUS
 10
0.672228
 20
-4.611106
  0
VERTEX
  8
PLAN_1
  6
CONTINUOUS
 10
0.674547
 20
-4.612846
  0
VERTEX
  8
PLAN_1
  6
CONTINUOUS
 10
0.676870
 20
-4.614008
  0
VERTEX
  8
PLAN_1
  6
CONTINUOUS
 10
0.679189
 20
-4.615748
  0
VERTEX
  8
PLAN_1
  6
CONTINUOUS
 10
0.682091
 20
-4.616331
  0
VERTEX
  8
PLAN_1
  6
CONTINUOUS
 10
0.687894
 20
-4.618071
  0
VERTEX
  8
PLAN_1
  6
CONTINUOUS
 10
0.694280
 20
-4.618071
  0
VERTEX
  8
PLAN_1
  6
CONTINUOUS
 10
0.698921
 20
-4.618071
  0
VERTEX
  8
PLAN_1
  6
CONTINUOUS
 10
0.702980
 20
-4.617488
  0
VERTEX
  8
PLAN_1
  6
CONTINUOUS
 10
0.706465
 20
-4.616909
  0
VERTEX
  8
PLAN_1
  6
CONTINUOUS
 10
0.709945
 20
-4.615748
  0
VERTEX
  8
PLAN_1
  6
CONTINUOUS
 10
0.712846
 20
-4.614008
  0
VERTEX
  8
PLAN_1
  6
CONTINUOUS
 10
0.715748
 20
-4.612268
  0
VERTEX
  8
PLAN_1
  6
CONTINUOUS
 10
0.718067
 20
-4.610528
  0
VERTEX
  8
PLAN_1
  6
CONTINUOUS
 10
0.719811
 20
-4.608205
  0
VERTEX
  8
PLAN_1
  6
CONTINUOUS
 10
0.721551
 20
-4.605886
  0
VERTEX
  8
PLAN_1
  6
CONTINUOUS
 10
0.722713
 20
-4.602984
  0
VERTEX
  8
PLAN_1
  6
CONTINUOUS
 10
0.723870
 20
-4.600661
  0
VERTEX
  8
PLAN_1
  6
CONTINUOUS
 10
0.725031
 20
-4.597181
  0
VERTEX
  8
PLAN_1
  6
CONTINUOUS
 10
0.726193
 20
-4.590799
  0
VERTEX
  8
PLAN_1
  6
CONTINUOUS
 10
0.726193
 20
-4.583835
  0
VERTEX
  8
PLAN_1
  6
CONTINUOUS
 10
0.726193
 20
-4.437028
  0
VERTEX
  8
PLAN_1
  6
CONTINUOUS
 10
0.753465
 20
-4.437028
  0
VERTEX
  8
PLAN_1
  6
CONTINUOUS
 10
0.753465
 20
-4.582094
  0
VERTEX
  8
PLAN_1
  6
CONTINUOUS
 10
0.752886
 20
-4.590799
  0
VERTEX
  8
PLAN_1
  6
CONTINUOUS
 10
0.751724
 20
-4.598343
  0
VERTEX
  8
PLAN_1
  6
CONTINUOUS
 10
0.749984
 20
-4.604724
  0
VERTEX
  8
PLAN_1
  6
CONTINUOUS
 10
0.748244
 20
-4.611106
  0
VERTEX
  8
PLAN_1
  6
CONTINUOUS
 10
0.745343
 20
-4.616331
  0
VERTEX
  8
PLAN_1
  6
CONTINUOUS
 10
0.742441
 20
-4.621551
  0
VERTEX
  8
PLAN_1
  6
CONTINUOUS
 10
0.738378
 20
-4.625614
  0
VERTEX
  8
PLAN_1
  6
CONTINUOUS
 10
0.734898
 20
-4.629094
  0
VERTEX
  8
PLAN_1
  6
CONTINUOUS
 10
0.730256
 20
-4.632579
  0
VERTEX
  8
PLAN_1
  6
CONTINUOUS
 10
0.725610
 20
-4.634898
  0
VERTEX
  8
PLAN_1
  6
CONTINUOUS
 10
0.720969
 20
-4.637220
  0
VERTEX
  8
PLAN_1
  6
CONTINUOUS
 10
0.716327
 20
-4.638378
  0
VERTEX
  8
PLAN_1
  6
CONTINUOUS
 10
0.711106
 20
-4.639539
  0
VERTEX
  8
PLAN_1
  6
CONTINUOUS
 10
0.705882
 20
-4.640701
  0
VERTEX
  8
PLAN_1
  6
CONTINUOUS
 10
0.700661
 20
-4.641280
  0
VERTEX
  8
PLAN_1
  6
CONTINUOUS
 10
0.696020
 20
-4.641280
  0
VERTEX
  8
PLAN_1
  6
CONTINUOUS
 10
0.687315
 20
-4.640701
  0
VERTEX
  8
PLAN_1
  6
CONTINUOUS
 10
0.680350
 20
-4.640122
  0
VERTEX
  8
PLAN_1
  6
CONTINUOUS
 10
0.673390
 20
-4.638378
  0
VERTEX
  8
PLAN_1
  6
CONTINUOUS
 10
0.667587
 20
-4.636059
  0
VERTEX
  8
PLAN_1
  6
CONTINUOUS
 10
0.662362
 20
-4.633736
  0
VERTEX
  8
PLAN_1
  6
CONTINUOUS
 10
0.657720
 20
-4.630256
  0
VERTEX
  8
PLAN_1
  6
CONTINUOUS
 10
0.653657
 20
-4.627354
  0
VERTEX
  8
PLAN_1
  6
CONTINUOUS
 10
0.650177
 20
-4.623291
  0
VERTEX
  8
PLAN_1
  6
CONTINUOUS
 10
0.647276
 20
-4.619811
  0
VERTEX
  8
PLAN_1
  6
CONTINUOUS
 10
0.644957
 20
-4.615748
  0
VERTEX
  8
PLAN_1
  6
CONTINUOUS
 10
0.643213
 20
-4.611106
  0
VERTEX
  8
PLAN_1
  6
CONTINUOUS
 10
0.641472
 20
-4.607043
  0
VERTEX
  8
PLAN_1
  6
CONTINUOUS
 10
0.640311
 20
-4.602984
  0
VERTEX
  8
PLAN_1
  6
CONTINUOUS
 10
0.639732
 20
-4.598921
  0
VERTEX
  8
PLAN_1
  6
CONTINUOUS
 10
0.639154
 20
-4.595441
  0
VERTEX
  8
PLAN_1
  6
CONTINUOUS
 10
0.639154
 20
-4.591378
  0
VERTEX
  8
PLAN_1
  6
CONTINUOUS
 10
0.639154
 20
-4.571650
  0
VERTEX
  8
PLAN_1
  6
CONTINUOUS
 10
0.664685
 20
-4.571650
  0
SEQEND
  8
0
  0
POLYLINE
  8
PLAN_1
  6
CONTINUOUS
 66
     1
 40
0.003000
 41
0.003000
  0
VERTEX
  8
PLAN_1
  6
CONTINUOUS
 10
0.957138
 20
-4.481709
  0
VERTEX
  8
PLAN_1
  6
CONTINUOUS
 10
0.975709
 20
-4.481709
  0
VERTEX
  8
PLAN_1
  6
CONTINUOUS
 10
0.971646
 20
-4.496213
  0
VERTEX
  8
PLAN_1
  6
CONTINUOUS
 10
0.967583
 20
-4.511299
  0
VERTEX
  8
PLAN_1
  6
CONTINUOUS
 10
0.963524
 20
-4.525228
  0
VERTEX
  8
PLAN_1
  6
CONTINUOUS
 10
0.959461
 20
-4.538575
  0
VERTEX
  8
PLAN_1
  6
CONTINUOUS
 10
0.955976
 20
-4.550760
  0
VERTEX
  8
PLAN_1
  6
CONTINUOUS
 10
0.953657
 20
-4.560622
  0
VERTEX
  8
PLAN_1
  6
CONTINUOUS
 10
0.951335
 20
-4.567587
  0
VERTEX
  8
PLAN_1
  6
CONTINUOUS
 10
0.950756
 20
-4.572228
  0
VERTEX
  8
PLAN_1
  6
CONTINUOUS
 10
0.950756
 20
-4.573969
  0
VERTEX
  8
PLAN_1
  6
CONTINUOUS
 10
0.951335
 20
-4.575713
  0
VERTEX
  8
PLAN_1
  6
CONTINUOUS
 10
0.951917
 20
-4.576870
  0
VERTEX
  8
PLAN_1
  6
CONTINUOUS
 10
0.952496
 20
-4.578031
  0
VERTEX
  8
PLAN_1
  6
CONTINUOUS
 10
0.953079
 20
-4.579193
  0
VERTEX
  8
PLAN_1
  6
CONTINUOUS
 10
0.954236
 20
-4.579772
  0
VERTEX
  8
PLAN_1
  6
CONTINUOUS
 10
0.955398
 20
-4.580354
  0
VERTEX
  8
PLAN_1
  6
CONTINUOUS
 10
0.956559
 20
-4.580354
  0
VERTEX
  8
PLAN_1
  6
CONTINUOUS
 10
0.960622
 20
-4.579772
  0
VERTEX
  8
PLAN_1
  6
CONTINUOUS
 10
0.964102
 20
-4.578610
  0
VERTEX
  8
PLAN_1
  6
CONTINUOUS
 10
0.967583
 20
-4.577453
  0
VERTEX
  8
PLAN_1
  6
CONTINUOUS
 10
0.971067
 20
-4.575130
  0
VERTEX
  8
PLAN_1
  6
CONTINUOUS
 10
0.974547
 20
-4.572228
  0
VERTEX
  8
PLAN_1
  6
CONTINUOUS
 10
0.977449
 20
-4.569327
  0
VERTEX
  8
PLAN_1
  6
CONTINUOUS
 10
0.980929
 20
-4.565268
  0
VERTEX
  8
PLAN_1
  6
CONTINUOUS
 10
0.983831
 20
-4.561205
  0
VERTEX
  8
PLAN_1
  6
CONTINUOUS
 10
0.986154
 20
-4.557142
  0
VERTEX
  8
PLAN_1
  6
CONTINUOUS
 10
0.988472
 20
-4.552500
  0
VERTEX
  8
PLAN_1
  6
CONTINUOUS
 10
0.990795
 20
-4.547280
  0
VERTEX
  8
PLAN_1
  6
CONTINUOUS
 10
0.992535
 20
-4.542055
  0
VERTEX
  8
PLAN_1
  6
CONTINUOUS
 10
0.994276
 20
-4.536835
  0
VERTEX
  8
PLAN_1
  6
CONTINUOUS
 10
0.995437
 20
-4.531610
  0
VERTEX
  8
PLAN_1
  6
CONTINUOUS
 10
0.996016
 20
-4.525807
  0
VERTEX
  8
PLAN_1
  6
CONTINUOUS
 10
0.996016
 20
-4.520004
  0
VERTEX
  8
PLAN_1
  6
CONTINUOUS
 10
0.996016
 20
-4.511882
  0
VERTEX
  8
PLAN_1
  6
CONTINUOUS
 10
0.994854
 20
-4.504339
  0
VERTEX
  8
PLAN_1
  6
CONTINUOUS
 10
0.992535
 20
-4.497374
  0
VERTEX
  8
PLAN_1
  6
CONTINUOUS
 10
0.990213
 20
-4.490409
  0
VERTEX
  8
PLAN_1
  6
CONTINUOUS
 10
0.986732
 20
-4.484028
  0
VERTEX
  8
PLAN_1
  6
CONTINUOUS
 10
0.982669
 20
-4.478224
  0
VERTEX
  8
PLAN_1
  6
CONTINUOUS
 10
0.978028
 20
-4.473004
  0
VERTEX
  8
PLAN_1
  6
CONTINUOUS
 10
0.973386
 20
-4.467780
  0
VERTEX
  8
PLAN_1
  6
CONTINUOUS
 10
0.967583
 20
-4.463720
  0
VERTEX
  8
PLAN_1
  6
CONTINUOUS
 10
0.961780
 20
-4.459657
  0
VERTEX
  8
PLAN_1
  6
CONTINUOUS
 10
0.955398
 20
-4.456177
  0
VERTEX
  8
PLAN_1
  6
CONTINUOUS
 10
0.948433
 20
-4.453854
  0
VERTEX
  8
PLAN_1
  6
CONTINUOUS
 10
0.941472
 20
-4.451531
  0
VERTEX
  8
PLAN_1
  6
CONTINUOUS
 10
0.933929
 20
-4.449791
  0
VERTEX
  8
PLAN_1
  6
CONTINUOUS
 10
0.926386
 20
-4.449213
  0
VERTEX
  8
PLAN_1
  6
CONTINUOUS
 10
0.918843
 20
-4.448634
  0
VERTEX
  8
PLAN_1
  6
CONTINUOUS
 10
0.909555
 20
-4.449213
  0
VERTEX
  8
PLAN_1
  6
CONTINUOUS
 10
0.900854
 20
-4.450374
  0
VERTEX
  8
PLAN_1
  6
CONTINUOUS
 10
0.892728
 20
-4.452693
  0
VERTEX
  8
PLAN_1
  6
CONTINUOUS
 10
0.884606
 20
-4.455594
  0
VERTEX
  8
PLAN_1
  6
CONTINUOUS
 10
0.877063
 20
-4.459657
  0
VERTEX
  8
PLAN_1
  6
CONTINUOUS
 10
0.870098
 20
-4.463720
  0
VERTEX
  8
PLAN_1
  6
CONTINUOUS
 10
0.863717
 20
-4.468941
  0
VERTEX
  8
PLAN_1
  6
CONTINUOUS
 10
0.857913
 20
-4.474744
  0
VERTEX
  8
PLAN_1
  6
CONTINUOUS
 10
0.852689
 20
-4.481126
  0
VERTEX
  8
PLAN_1
  6
CONTINUOUS
 10
0.848047
 20
-4.488091
  0
VERTEX
  8
PLAN_1
  6
CONTINUOUS
 10
0.843988
 20
-4.495055
  0
VERTEX
  8
PLAN_1
  6
CONTINUOUS
 10
0.840504
 20
-4.502598
  0
VERTEX
  8
PLAN_1
  6
CONTINUOUS
 10
0.838185
 20
-4.511299
  0
VERTEX
  8
PLAN_1
  6
CONTINUOUS
 10
0.835862
 20
-4.519425
  0
VERTEX
  8
PLAN_1
  6
CONTINUOUS
 10
0.834701
 20
-4.528130
  0
VERTEX
  8
PLAN_1
  6
CONTINUOUS
 10
0.834122
 20
-4.537413
  0
VERTEX
  8
PLAN_1
  6
CONTINUOUS
 10
0.834701
 20
-4.546697
  0
VERTEX
  8
PLAN_1
  6
CONTINUOUS
 10
0.835862
 20
-4.555402
  0
VERTEX
  8
PLAN_1
  6
CONTINUOUS
 10
0.838185
 20
-4.563524
  0
VERTEX
  8
PLAN_1
  6
CONTINUOUS
 10
0.841087
 20
-4.571650
  0
VERTEX
  8
PLAN_1
  6
CONTINUOUS
 10
0.844567
 20
-4.579193
  0
VERTEX
  8
PLAN_1
  6
CONTINUOUS
 10
0.848630
 20
-4.586736
  0
VERTEX
  8
PLAN_1
  6
CONTINUOUS
 10
0.853850
 20
-4.593118
  0
VERTEX
  8
PLAN_1
  6
CONTINUOUS
 10
0.859075
 20
-4.598921
  0
VERTEX
  8
PLAN_1
  6
CONTINUOUS
 10
0.865457
 20
-4.604724
  0
VERTEX
  8
PLAN_1
  6
CONTINUOUS
 10
0.871839
 20
-4.609366
  0
VERTEX
  8
PLAN_1
  6
CONTINUOUS
 10
0.879382
 20
-4.614008
  0
VERTEX
  8
PLAN_1
  6
CONTINUOUS
 10
0.886925
 20
-4.617488
  0
VERTEX
  8
PLAN_1
  6
CONTINUOUS
 10
0.894469
 20
-4.620390
  0
VERTEX
  8
PLAN_1
  6
CONTINUOUS
 10
0.903173
 20
-4.622134
  0
VERTEX
  8
PLAN_1
  6
CONTINUOUS
 10
0.911878
 20
-4.623874
  0
VERTEX
  8
PLAN_1
  6
CONTINUOUS
 10
0.920583
 20
-4.623874
  0
VERTEX
  8
PLAN_1
  6
CONTINUOUS
 10
0.930445
 20
-4.623291
  0
VERTEX
  8
PLAN_1
  6
CONTINUOUS
 10
0.939732
 20
-4.622134
  0
VERTEX
  8
PLAN_1
  6
CONTINUOUS
 10
0.949016
 20
-4.619232
  0
VERTEX
  8
PLAN_1
  6
CONTINUOUS
 10
0.958299
 20
-4.615748
  0
VERTEX
  8
PLAN_1
  6
CONTINUOUS
 10
0.966421
 20
-4.611106
  0
VERTEX
  8
PLAN_1
  6
CONTINUOUS
 10
0.974547
 20
-4.605303
  0
VERTEX
  8
PLAN_1
  6
CONTINUOUS
 10
0.981512
 20
-4.599500
  0
VERTEX
  8
PLAN_1
  6
CONTINUOUS
 10
0.987894
 20
-4.592539
  0
VERTEX
  8
PLAN_1
  6
CONTINUOUS
 10
1.006461
 20
-4.592539
  0
VERTEX
  8
PLAN_1
  6
CONTINUOUS
 10
1.002980
 20
-4.597760
  0
VERTEX
  8
PLAN_1
  6
CONTINUOUS
 10
0.999500
 20
-4.602984
  0
VERTEX
  8
PLAN_1
  6
CONTINUOUS
 10
0.994854
 20
-4.608205
  0
VERTEX
  8
PLAN_1
  6
CONTINUOUS
 10
0.990795
 20
-4.612846
  0
VERTEX
  8
PLAN_1
  6
CONTINUOUS
 10
0.985571
 20
-4.616909
  0
VERTEX
  8
PLAN_1
  6
CONTINUOUS
 10
0.980929
 20
-4.620972
  0
VERTEX
  8
PLAN_1
  6
CONTINUOUS
 10
0.975709
 20
-4.625031
  0
VERTEX
  8
PLAN_1
  6
CONTINUOUS
 10
0.969906
 20
-4.627933
  0
VERTEX
  8
PLAN_1
  6
CONTINUOUS
 10
0.964102
 20
-4.631417
  0
VERTEX
  8
PLAN_1
  6
CONTINUOUS
 10
0.958299
 20
-4.633736
  0
VERTEX
  8
PLAN_1
  6
CONTINUOUS
 10
0.952496
 20
-4.636059
  0
VERTEX
  8
PLAN_1
  6
CONTINUOUS
 10
0.946114
 20
-4.637799
  0
VERTEX
  8
PLAN_1
  6
CONTINUOUS
 10
0.939732
 20
-4.639539
  0
VERTEX
  8
PLAN_1
  6
CONTINUOUS
 10
0.933346
 20
-4.640701
  0
VERTEX
  8
PLAN_1
  6
CONTINUOUS
 10
0.926965
 20
-4.641280
  0
VERTEX
  8
PLAN_1
  6
CONTINUOUS
 10
0.920000
 20
-4.641280
  0
VERTEX
  8
PLAN_1
  6
CONTINUOUS
 10
0.908976
 20
-4.640701
  0
VERTEX
  8
PLAN_1
  6
CONTINUOUS
 10
0.898531
 20
-4.638961
  0
VERTEX
  8
PLAN_1
  6
CONTINUOUS
 10
0.888087
 20
-4.636638
  0
VERTEX
  8
PLAN_1
  6
CONTINUOUS
 10
0.878803
 20
-4.633157
  0
VERTEX
  8
PLAN_1
  6
CONTINUOUS
 10
0.869520
 20
-4.628516
  0
VERTEX
  8
PLAN_1
  6
CONTINUOUS
 10
0.860232
 20
-4.623291
  0
VERTEX
  8
PLAN_1
  6
CONTINUOUS
 10
0.852110
 20
-4.617488
  0
VERTEX
  8
PLAN_1
  6
CONTINUOUS
 10
0.845146
 20
-4.610528
  0
VERTEX
  8
PLAN_1
  6
CONTINUOUS
 10
0.838185
 20
-4.602984
  0
VERTEX
  8
PLAN_1
  6
CONTINUOUS
 10
0.831799
 20
-4.595441
  0
VERTEX
  8
PLAN_1
  6
CONTINUOUS
 10
0.826579
 20
-4.586736
  0
VERTEX
  8
PLAN_1
  6
CONTINUOUS
 10
0.822516
 20
-4.577453
  0
VERTEX
  8
PLAN_1
  6
CONTINUOUS
 10
0.819035
 20
-4.567587
  0
VERTEX
  8
PLAN_1
  6
CONTINUOUS
 10
0.816134
 20
-4.557142
  0
VERTEX
  8
PLAN_1
  6
CONTINUOUS
 10
0.814394
 20
-4.546697
  0
VERTEX
  8
PLAN_1
  6
CONTINUOUS
 10
0.814394
 20
-4.535673
  0
VERTEX
  8
PLAN_1
  6
CONTINUOUS
 10
0.814394
 20
-4.525228
  0
VERTEX
  8
PLAN_1
  6
CONTINUOUS
 10
0.816134
 20
-4.514783
  0
VERTEX
  8
PLAN_1
  6
CONTINUOUS
 10
0.819035
 20
-4.504917
  0
VERTEX
  8
PLAN_1
  6
CONTINUOUS
 10
0.822516
 20
-4.495055
  0
VERTEX
  8
PLAN_1
  6
CONTINUOUS
 10
0.827157
 20
-4.485768
  0
VERTEX
  8
PLAN_1
  6
CONTINUOUS
 10
0.832382
 20
-4.477067
  0
VERTEX
  8
PLAN_1
  6
CONTINUOUS
 10
0.838185
 20
-4.469524
  0
VERTEX
  8
PLAN_1
  6
CONTINUOUS
 10
0.845146
 20
-4.461976
  0
VERTEX
  8
PLAN_1
  6
CONTINUOUS
 10
0.852689
 20
-4.455016
  0
VERTEX
  8
PLAN_1
  6
CONTINUOUS
 10
0.860815
 20
-4.449213
  0
VERTEX
  8
PLAN_1
  6
CONTINUOUS
 10
0.868937
 20
-4.443988
  0
VERTEX
  8
PLAN_1
  6
CONTINUOUS
 10
0.878220
 20
-4.439346
  0
VERTEX
  8
PLAN_1
  6
CONTINUOUS
 10
0.888087
 20
-4.435866
  0
VERTEX
  8
PLAN_1
  6
CONTINUOUS
 10
0.897953
 20
-4.433543
  0
VERTEX
  8
PLAN_1
  6
CONTINUOUS
 10
0.908398
 20
-4.431803
  0
VERTEX
  8
PLAN_1
  6
CONTINUOUS
 10
0.918843
 20
-4.431224
  0
VERTEX
  8
PLAN_1
  6
CONTINUOUS
 10
0.928126
 20
-4.431803
  0
VERTEX
  8
PLAN_1
  6
CONTINUOUS
 10
0.937409
 20
-4.432965
  0
VERTEX
  8
PLAN_1
  6
CONTINUOUS
 10
0.946693
 20
-4.435287
  0
VERTEX
  8
PLAN_1
  6
CONTINUOUS
 10
0.955398
 20
-4.437606
  0
VERTEX
  8
PLAN_1
  6
CONTINUOUS
 10
0.963524
 20
-4.441669
  0
VERTEX
  8
PLAN_1
  6
CONTINUOUS
 10
0.971646
 20
-4.445732
  0
VERTEX
  8
PLAN_1
  6
CONTINUOUS
 10
0.979189
 20
-4.450374
  0
VERTEX
  8
PLAN_1
  6
CONTINUOUS
 10
0.985571
 20
-4.455594
  0
VERTEX
  8
PLAN_1
  6
CONTINUOUS
 10
0.991957
 20
-4.461976
  0
VERTEX
  8
PLAN_1
  6
CONTINUOUS
 10
0.997756
 20
-4.468362
  0
VERTEX
  8
PLAN_1
  6
CONTINUOUS
 10
1.002402
 20
-4.475323
  0
VERTEX
  8
PLAN_1
  6
CONTINUOUS
 10
1.006461
 20
-4.483449
  0
VERTEX
  8
PLAN_1
  6
CONTINUOUS
 10
1.009945
 20
-4.491571
  0
VERTEX
  8
PLAN_1
  6
CONTINUOUS
 10
1.012264
 20
-4.499697
  0
VERTEX
  8
PLAN_1
  6
CONTINUOUS
 10
1.014004
 20
-4.508980
  0
VERTEX
  8
PLAN_1
  6
CONTINUOUS
 10
1.014004
 20
-4.518264
  0
VERTEX
  8
PLAN_1
  6
CONTINUOUS
 10
1.014004
 20
-4.526969
  0
VERTEX
  8
PLAN_1
  6
CONTINUOUS
 10
1.012264
 20
-4.535673
  0
VERTEX
  8
PLAN_1
  6
CONTINUOUS
 10
1.010524
 20
-4.544378
  0
VERTEX
  8
PLAN_1
  6
CONTINUOUS
 10
1.007622
 20
-4.551921
  0
VERTEX
  8
PLAN_1
  6
CONTINUOUS
 10
1.003559
 20
-4.558882
  0
VERTEX
  8
PLAN_1
  6
CONTINUOUS
 10
0.999500
 20
-4.565268
  0
VERTEX
  8
PLAN_1
  6
CONTINUOUS
 10
0.995437
 20
-4.571650
  0
VERTEX
  8
PLAN_1
  6
CONTINUOUS
 10
0.990213
 20
-4.576870
  0
VERTEX
  8
PLAN_1
  6
CONTINUOUS
 10
0.984992
 20
-4.582094
  0
VERTEX
  8
PLAN_1
  6
CONTINUOUS
 10
0.979768
 20
-4.586157
  0
VERTEX
  8
PLAN_1
  6
CONTINUOUS
 10
0.973969
 20
-4.589638
  0
VERTEX
  8
PLAN_1
  6
CONTINUOUS
 10
0.968744
 20
-4.592539
  0
VERTEX
  8
PLAN_1
  6
CONTINUOUS
 10
0.962941
 20
-4.595441
  0
VERTEX
  8
PLAN_1
  6
CONTINUOUS
 10
0.957720
 20
-4.596598
  0
VERTEX
  8
PLAN_1
  6
CONTINUOUS
 10
0.952496
 20
-4.597760
  0
VERTEX
  8
PLAN_1
  6
CONTINUOUS
 10
0.947854
 20
-4.598343
  0
VERTEX
  8
PLAN_1
  6
CONTINUOUS
 10
0.944374
 20
-4.597760
  0
VERTEX
  8
PLAN_1
  6
CONTINUOUS
 10
0.941472
 20
-4.597181
  0
VERTEX
  8
PLAN_1
  6
CONTINUOUS
 10
0.938571
 20
-4.596020
  0
VERTEX
  8
PLAN_1
  6
CONTINUOUS
 10
0.935669
 20
-4.594280
  0
VERTEX
  8
PLAN_1
  6
CONTINUOUS
 10
0.933346
 20
-4.591378
  0
VERTEX
  8
PLAN_1
  6
CONTINUOUS
 10
0.931606
 20
-4.588476
  0
VERTEX
  8
PLAN_1
  6
CONTINUOUS
 10
0.930445
 20
-4.584996
  0
VERTEX
  8
PLAN_1
  6
CONTINUOUS
 10
0.929866
 20
-4.580933
  0
VERTEX
  8
PLAN_1
  6
CONTINUOUS
 10
0.926386
 20
-4.584413
  0
VERTEX
  8
PLAN_1
  6
CONTINUOUS
 10
0.922902
 20
-4.587315
  0
VERTEX
  8
PLAN_1
  6
CONTINUOUS
 10
0.918843
 20
-4.590217
  0
VERTEX
  8
PLAN_1
  6
CONTINUOUS
 10
0.914780
 20
-4.593118
  0
VERTEX
  8
PLAN_1
  6
CONTINUOUS
 10
0.910717
 20
-4.594858
  0
VERTEX
  8
PLAN_1
  6
CONTINUOUS
 10
0.906075
 20
-4.596598
  0
VERTEX
  8
PLAN_1
  6
CONTINUOUS
 10
0.900854
 20
-4.597760
  0
VERTEX
  8
PLAN_1
  6
CONTINUOUS
 10
0.896213
 20
-4.598343
  0
VERTEX
  8
PLAN_1
  6
CONTINUOUS
 10
0.892150
 20
-4.597760
  0
VERTEX
  8
PLAN_1
  6
CONTINUOUS
 10
0.887508
 20
-4.597181
  0
VERTEX
  8
PLAN_1
  6
CONTINUOUS
 10
0.883445
 20
-4.596020
  0
VERTEX
  8
PLAN_1
  6
CONTINUOUS
 10
0.879965
 20
-4.594858
  0
VERTEX
  8
PLAN_1
  6
CONTINUOUS
 10
0.876480
 20
-4.593118
  0
VERTEX
  8
PLAN_1
  6
CONTINUOUS
 10
0.873000
 20
-4.590799
  0
VERTEX
  8
PLAN_1
  6
CONTINUOUS
 10
0.869520
 20
-4.587898
  0
VERTEX
  8
PLAN_1
  6
CONTINUOUS
 10
0.867197
 20
-4.584996
  0
VERTEX
  8
PLAN_1
  6
CONTINUOUS
 10
0.864295
 20
-4.582094
  0
VERTEX
  8
PLAN_1
  6
CONTINUOUS
 10
0.861976
 20
-4.578610
  0
VERTEX
  8
PLAN_1
  6
CONTINUOUS
 10
0.860232
 20
-4.575130
  0
VERTEX
  8
PLAN_1
  6
CONTINUOUS
 10
0.858492
 20
-4.571067
  0
VERTEX
  8
PLAN_1
  6
CONTINUOUS
 10
0.857335
 20
-4.567008
  0
VERTEX
  8
PLAN_1
  6
CONTINUOUS
 10
0.856173
 20
-4.562945
  0
VERTEX
  8
PLAN_1
  6
CONTINUOUS
 10
0.855591
 20
-4.558303
  0
VERTEX
  8
PLAN_1
  6
CONTINUOUS
 10
0.855591
 20
-4.553661
  0
VERTEX
  8
PLAN_1
  6
CONTINUOUS
 10
0.855591
 20
-4.546697
  0
VERTEX
  8
PLAN_1
  6
CONTINUOUS
 10
0.856752
 20
-4.539732
  0
VERTEX
  8
PLAN_1
  6
CONTINUOUS
 10
0.857913
 20
-4.532772
  0
VERTEX
  8
PLAN_1
  6
CONTINUOUS
 10
0.860232
 20
-4.525807
  0
VERTEX
  8
PLAN_1
  6
CONTINUOUS
 10
0.862555
 20
-4.519425
  0
VERTEX
  8
PLAN_1
  6
CONTINUOUS
 10
0.865457
 20
-4.513043
  0
VERTEX
  8
PLAN_1
  6
CONTINUOUS
 10
0.868937
 20
-4.507240
  0
VERTEX
  8
PLAN_1
  6
CONTINUOUS
 10
0.873000
 20
-4.501437
  0
VERTEX
  8
PLAN_1
  6
CONTINUOUS
 10
0.877642
 20
-4.496213
  0
VERTEX
  8
PLAN_1
  6
CONTINUOUS
 10
0.882283
 20
-4.491571
  0
VERTEX
  8
PLAN_1
  6
CONTINUOUS
 10
0.887508
 20
-4.487512
  0
VERTEX
  8
PLAN_1
  6
CONTINUOUS
 10
0.893311
 20
-4.484028
  0
VERTEX
  8
PLAN_1
  6
CONTINUOUS
 10
0.899110
 20
-4.481126
  0
VERTEX
  8
PLAN_1
  6
CONTINUOUS
 10
0.905496
 20
-4.478807
  0
VERTEX
  8
PLAN_1
  6
CONTINUOUS
 10
0.912457
 20
-4.477646
  0
VERTEX
  8
PLAN_1
  6
CONTINUOUS
 10
0.919421
 20
-4.477067
  0
VERTEX
  8
PLAN_1
  6
CONTINUOUS
 10
0.924646
 20
-4.477646
  0
VERTEX
  8
PLAN_1
  6
CONTINUOUS
 10
0.929287
 20
-4.478224
  0
VERTEX
  8
PLAN_1
  6
CONTINUOUS
 10
0.933929
 20
-4.479969
  0
VERTEX
  8
PLAN_1
  6
CONTINUOUS
 10
0.937988
 20
-4.482287
  0
VERTEX
  8
PLAN_1
  6
CONTINUOUS
 10
0.941472
 20
-4.485189
  0
VERTEX
  8
PLAN_1
  6
CONTINUOUS
 10
0.945531
 20
-4.489252
  0
VERTEX
  8
PLAN_1
  6
CONTINUOUS
 10
0.948433
 20
-4.493311
  0
VERTEX
  8
PLAN_1
  6
CONTINUOUS
 10
0.951335
 20
-4.499114
  0
VERTEX
  8
PLAN_1
  6
CONTINUOUS
 10
0.957138
 20
-4.481709
  0
SEQEND
  8
0
  0
POLYLINE
  8
PLAN_1
  6
CONTINUOUS
 66
     1
 40
0.003000
 41
0.003000
  0
VERTEX
  8
PLAN_1
  6
CONTINUOUS
 10
0.920000
 20
-4.497374
  0
VERTEX
  8
PLAN_1
  6
CONTINUOUS
 10
0.915358
 20
-4.497374
  0
VERTEX
  8
PLAN_1
  6
CONTINUOUS
 10
0.911299
 20
-4.498535
  0
VERTEX
  8
PLAN_1
  6
CONTINUOUS
 10
0.907236
 20
-4.500276
  0
VERTEX
  8
PLAN_1
  6
CONTINUOUS
 10
0.903173
 20
-4.502598
  0
VERTEX
  8
PLAN_1
  6
CONTINUOUS
 10
0.899693
 20
-4.504917
  0
VERTEX
  8
PLAN_1
  6
CONTINUOUS
 10
0.896213
 20
-4.508402
  0
VERTEX
  8
PLAN_1
  6
CONTINUOUS
 10
0.892728
 20
-4.511882
  0
VERTEX
  8
PLAN_1
  6
CONTINUOUS
 10
0.889827
 20
-4.515945
  0
VERTEX
  8
PLAN_1
  6
CONTINUOUS
 10
0.887508
 20
-4.520004
  0
VERTEX
  8
PLAN_1
  6
CONTINUOUS
 10
0.885185
 20
-4.524067
  0
VERTEX
  8
PLAN_1
  6
CONTINUOUS
 10
0.882866
 20
-4.528709
  0
VERTEX
  8
PLAN_1
  6
CONTINUOUS
 10
0.881122
 20
-4.533350
  0
VERTEX
  8
PLAN_1
  6
CONTINUOUS
 10
0.879965
 20
-4.537992
  0
VERTEX
  8
PLAN_1
  6
CONTINUOUS
 10
0.878803
 20
-4.542634
  0
VERTEX
  8
PLAN_1
  6
CONTINUOUS
 10
0.878220
 20
-4.546697
  0
VERTEX
  8
PLAN_1
  6
CONTINUOUS
 10
0.878220
 20
-4.551339
  0
VERTEX
  8
PLAN_1
  6
CONTINUOUS
 10
0.878803
 20
-4.557142
  0
VERTEX
  8
PLAN_1
  6
CONTINUOUS
 10
0.879965
 20
-4.562366
  0
VERTEX
  8
PLAN_1
  6
CONTINUOUS
 10
0.881705
 20
-4.567008
  0
VERTEX
  8
PLAN_1
  6
CONTINUOUS
 10
0.884606
 20
-4.570488
  0
VERTEX
  8
PLAN_1
  6
CONTINUOUS
 10
0.888087
 20
-4.573969
  0
VERTEX
  8
PLAN_1
  6
CONTINUOUS
 10
0.892150
 20
-4.576291
  0
VERTEX
  8
PLAN_1
  6
CONTINUOUS
 10
0.896791
 20
-4.578031
  0
VERTEX
  8
PLAN_1
  6
CONTINUOUS
 10
0.901433
 20
-4.578031
  0
VERTEX
  8
PLAN_1
  6
CONTINUOUS
 10
0.906075
 20
-4.578031
  0
VERTEX
  8
PLAN_1
  6
CONTINUOUS
 10
0.910138
 20
-4.576870
  0
VERTEX
  8
PLAN_1
  6
CONTINUOUS
 10
0.914201
 20
-4.575130
  0
VERTEX
  8
PLAN_1
  6
CONTINUOUS
 10
0.917681
 20
-4.572811
  0
VERTEX
  8
PLAN_1
  6
CONTINUOUS
 10
0.921744
 20
-4.569909
  0
VERTEX
  8
PLAN_1
  6
CONTINUOUS
 10
0.925224
 20
-4.566425
  0
VERTEX
  8
PLAN_1
  6
CONTINUOUS
 10
0.928126
 20
-4.562945
  0
VERTEX
  8
PLAN_1
  6
CONTINUOUS
 10
0.931028
 20
-4.558882
  0
VERTEX
  8
PLAN_1
  6
CONTINUOUS
 10
0.933929
 20
-4.554823
  0
VERTEX
  8
PLAN_1
  6
CONTINUOUS
 10
0.936248
 20
-4.550177
  0
VERTEX
  8
PLAN_1
  6
CONTINUOUS
 10
0.937988
 20
-4.545535
  0
VERTEX
  8
PLAN_1
  6
CONTINUOUS
 10
0.939732
 20
-4.540894
  0
VERTEX
  8
PLAN_1
  6
CONTINUOUS
 10
0.940890
 20
-4.536252
  0
VERTEX
  8
PLAN_1
  6
CONTINUOUS
 10
0.942051
 20
-4.531610
  0
VERTEX
  8
PLAN_1
  6
CONTINUOUS
 10
0.942634
 20
-4.526969
  0
VERTEX
  8
PLAN_1
  6
CONTINUOUS
 10
0.942634
 20
-4.522906
  0
VERTEX
  8
PLAN_1
  6
CONTINUOUS
 10
0.942634
 20
-4.517685
  0
VERTEX
  8
PLAN_1
  6
CONTINUOUS
 10
0.940890
 20
-4.513043
  0
VERTEX
  8
PLAN_1
  6
CONTINUOUS
 10
0.939150
 20
-4.508980
  0
VERTEX
  8
PLAN_1
  6
CONTINUOUS
 10
0.936248
 20
-4.504917
  0
VERTEX
  8
PLAN_1
  6
CONTINUOUS
 10
0.932768
 20
-4.502016
  0
VERTEX
  8
PLAN_1
  6
CONTINUOUS
 10
0.928705
 20
-4.499114
  0
VERTEX
  8
PLAN_1
  6
CONTINUOUS
 10
0.924646
 20
-4.497957
  0
VERTEX
  8
PLAN_1
  6
CONTINUOUS
 10
0.920000
 20
-4.497374
  0
SEQEND
  8
0
  0
POLYLINE
  8
PLAN_1
  6
CONTINUOUS
 66
     1
 40
0.003000
 41
0.003000
  0
VERTEX
  8
PLAN_1
  6
CONTINUOUS
 10
1.103366
 20
-4.636059
  0
VERTEX
  8
PLAN_1
  6
CONTINUOUS
 10
1.076094
 20
-4.636059
  0
VERTEX
  8
PLAN_1
  6
CONTINUOUS
 10
1.076094
 20
-4.437028
  0
VERTEX
  8
PLAN_1
  6
CONTINUOUS
 10
1.103366
 20
-4.437028
  0
VERTEX
  8
PLAN_1
  6
CONTINUOUS
 10
1.103366
 20
-4.533350
  0
VERTEX
  8
PLAN_1
  6
CONTINUOUS
 10
1.199689
 20
-4.437028
  0
VERTEX
  8
PLAN_1
  6
CONTINUOUS
 10
1.236827
 20
-4.437028
  0
VERTEX
  8
PLAN_1
  6
CONTINUOUS
 10
1.153850
 20
-4.517102
  0
VERTEX
  8
PLAN_1
  6
CONTINUOUS
 10
1.239150
 20
-4.636059
  0
VERTEX
  8
PLAN_1
  6
CONTINUOUS
 10
1.204335
 20
-4.636059
  0
VERTEX
  8
PLAN_1
  6
CONTINUOUS
 10
1.134701
 20
-4.536252
  0
VERTEX
  8
PLAN_1
  6
CONTINUOUS
 10
1.103366
 20
-4.565846
  0
VERTEX
  8
PLAN_1
  6
CONTINUOUS
 10
1.103366
 20
-4.636059
  0
SEQEND
  8
0
  0
POLYLINE
  8
PLAN_1
  6
CONTINUOUS
 66
     1
 40
0.003000
 41
0.003000
  0
VERTEX
  8
PLAN_1
  6
CONTINUOUS
 10
1.262941
 20
-4.437028
  0
VERTEX
  8
PLAN_1
  6
CONTINUOUS
 10
1.343598
 20
-4.437028
  0
VERTEX
  8
PLAN_1
  6
CONTINUOUS
 10
1.352882
 20
-4.437028
  0
VERTEX
  8
PLAN_1
  6
CONTINUOUS
 10
1.362165
 20
-4.438768
  0
VERTEX
  8
PLAN_1
  6
CONTINUOUS
 10
1.370870
 20
-4.440508
  0
VERTEX
  8
PLAN_1
  6
CONTINUOUS
 10
1.378413
 20
-4.443988
  0
VERTEX
  8
PLAN_1
  6
CONTINUOUS
 10
1.385957
 20
-4.447472
  0
VERTEX
  8
PLAN_1
  6
CONTINUOUS
 10
1.392921
 20
-4.452114
  0
VERTEX
  8
PLAN_1
  6
CONTINUOUS
 10
1.399303
 20
-4.457335
  0
VERTEX
  8
PLAN_1
  6
CONTINUOUS
 10
1.405106
 20
-4.463720
  0
VERTEX
  8
PLAN_1
  6
CONTINUOUS
 10
1.410327
 20
-4.470102
  0
VERTEX
  8
PLAN_1
  6
CONTINUOUS
 10
1.414390
 20
-4.477646
  0
VERTEX
  8
PLAN_1
  6
CONTINUOUS
 10
1.418453
 20
-4.485768
  0
VERTEX
  8
PLAN_1
  6
CONTINUOUS
 10
1.421933
 20
-4.494472
  0
VERTEX
  8
PLAN_1
  6
CONTINUOUS
 10
1.424256
 20
-4.503177
  0
VERTEX
  8
PLAN_1
  6
CONTINUOUS
 10
1.425996
 20
-4.513043
  0
VERTEX
  8
PLAN_1
  6
CONTINUOUS
 10
1.427157
 20
-4.522906
  0
VERTEX
  8
PLAN_1
  6
CONTINUOUS
 10
1.427736
 20
-4.533350
  0
VERTEX
  8
PLAN_1
  6
CONTINUOUS
 10
1.427157
 20
-4.542055
  0
VERTEX
  8
PLAN_1
  6
CONTINUOUS
 10
1.426575
 20
-4.550760
  0
VERTEX
  8
PLAN_1
  6
CONTINUOUS
 10
1.425413
 20
-4.559465
  0
VERTEX
  8
PLAN_1
  6
CONTINUOUS
 10
1.423673
 20
-4.568165
  0
VERTEX
  8
PLAN_1
  6
CONTINUOUS
 10
1.420772
 20
-4.576870
  0
VERTEX
  8
PLAN_1
  6
CONTINUOUS
 10
1.417870
 20
-4.585575
  0
VERTEX
  8
PLAN_1
  6
CONTINUOUS
 10
1.413811
 20
-4.593701
  0
VERTEX
  8
PLAN_1
  6
CONTINUOUS
 10
1.409748
 20
-4.601823
  0
VERTEX
  8
PLAN_1
  6
CONTINUOUS
 10
1.404524
 20
-4.608787
  0
VERTEX
  8
PLAN_1
  6
CONTINUOUS
 10
1.398142
 20
-4.615169
  0
VERTEX
  8
PLAN_1
  6
CONTINUOUS
 10
1.394661
 20
-4.618650
  0
VERTEX
  8
PLAN_1
  6
CONTINUOUS
 10
1.391177
 20
-4.621551
  0
VERTEX
  8
PLAN_1
  6
CONTINUOUS
 10
1.387697
 20
-4.623874
  0
VERTEX
  8
PLAN_1
  6
CONTINUOUS
 10
1.383634
 20
-4.626193
  0
VERTEX
  8
PLAN_1
  6
CONTINUOUS
 10
1.378992
 20
-4.628516
  0
VERTEX
  8
PLAN_1
  6
CONTINUOUS
 10
1.374933
 20
-4.630256
  0
VERTEX
  8
PLAN_1
  6
CONTINUOUS
 10
1.369709
 20
-4.631996
  0
VERTEX
  8
PLAN_1
  6
CONTINUOUS
 10
1.365067
 20
-4.633157
  0
VERTEX
  8
PLAN_1
  6
CONTINUOUS
 10
1.359843
 20
-4.634319
  0
VERTEX
  8
PLAN_1
  6
CONTINUOUS
 10
1.354043
 20
-4.635476
  0
VERTEX
  8
PLAN_1
  6
CONTINUOUS
 10
1.348240
 20
-4.636059
  0
VERTEX
  8
PLAN_1
  6
CONTINUOUS
 10
1.342437
 20
-4.636059
  0
VERTEX
  8
PLAN_1
  6
CONTINUOUS
 10
1.262941
 20
-4.636059
  0
VERTEX
  8
PLAN_1
  6
CONTINUOUS
 10
1.262941
 20
-4.437028
  0
SEQEND
  8
0
  0
POLYLINE
  8
PLAN_1
  6
CONTINUOUS
 66
     1
 40
0.003000
 41
0.003000
  0
VERTEX
  8
PLAN_1
  6
CONTINUOUS
 10
1.289634
 20
-4.612846
  0
VERTEX
  8
PLAN_1
  6
CONTINUOUS
 10
1.341854
 20
-4.612846
  0
VERTEX
  8
PLAN_1
  6
CONTINUOUS
 10
1.348240
 20
-4.612846
  0
VERTEX
  8
PLAN_1
  6
CONTINUOUS
 10
1.354622
 20
-4.611689
  0
VERTEX
  8
PLAN_1
  6
CONTINUOUS
 10
1.360425
 20
-4.609945
  0
VERTEX
  8
PLAN_1
  6
CONTINUOUS
 10
1.365646
 20
-4.607626
  0
VERTEX
  8
PLAN_1
  6
CONTINUOUS
 10
1.370870
 20
-4.605303
  0
VERTEX
  8
PLAN_1
  6
CONTINUOUS
 10
1.375512
 20
-4.601823
  0
VERTEX
  8
PLAN_1
  6
CONTINUOUS
 10
1.380154
 20
-4.597760
  0
VERTEX
  8
PLAN_1
  6
CONTINUOUS
 10
1.384217
 20
-4.593118
  0
VERTEX
  8
PLAN_1
  6
CONTINUOUS
 10
1.387697
 20
-4.587898
  0
VERTEX
  8
PLAN_1
  6
CONTINUOUS
 10
1.390598
 20
-4.582094
  0
VERTEX
  8
PLAN_1
  6
CONTINUOUS
 10
1.393500
 20
-4.575713
  0
VERTEX
  8
PLAN_1
  6
CONTINUOUS
 10
1.395823
 20
-4.568748
  0
VERTEX
  8
PLAN_1
  6
CONTINUOUS
 10
1.397563
 20
-4.561205
  0
VERTEX
  8
PLAN_1
  6
CONTINUOUS
 10
1.398720
 20
-4.553079
  0
VERTEX
  8
PLAN_1
  6
CONTINUOUS
 10
1.399303
 20
-4.544378
  0
VERTEX
  8
PLAN_1
  6
CONTINUOUS
 10
1.399882
 20
-4.535091
  0
VERTEX
  8
PLAN_1
  6
CONTINUOUS
 10
1.399303
 20
-4.526390
  0
VERTEX
  8
PLAN_1
  6
CONTINUOUS
 10
1.398720
 20
-4.517685
  0
VERTEX
  8
PLAN_1
  6
CONTINUOUS
 10
1.397563
 20
-4.509559
  0
VERTEX
  8
PLAN_1
  6
CONTINUOUS
 10
1.395240
 20
-4.502016
  0
VERTEX
  8
PLAN_1
  6
CONTINUOUS
 10
1.393500
 20
-4.495634
  0
VERTEX
  8
PLAN_1
  6
CONTINUOUS
 10
1.390598
 20
-4.489252
  0
VERTEX
  8
PLAN_1
  6
CONTINUOUS
 10
1.387118
 20
-4.483449
  0
VERTEX
  8
PLAN_1
  6
CONTINUOUS
 10
1.383634
 20
-4.478807
  0
VERTEX
  8
PLAN_1
  6
CONTINUOUS
 10
1.379575
 20
-4.474165
  0
VERTEX
  8
PLAN_1
  6
CONTINUOUS
 10
1.374933
 20
-4.470681
  0
VERTEX
  8
PLAN_1
  6
CONTINUOUS
 10
1.370287
 20
-4.467201
  0
VERTEX
  8
PLAN_1
  6
CONTINUOUS
 10
1.365067
 20
-4.464299
  0
VERTEX
  8
PLAN_1
  6
CONTINUOUS
 10
1.359264
 20
-4.462559
  0
VERTEX
  8
PLAN_1
  6
CONTINUOUS
 10
1.352882
 20
-4.460819
  0
VERTEX
  8
PLAN_1
  6
CONTINUOUS
 10
1.346500
 20
-4.460236
  0
VERTEX
  8
PLAN_1
  6
CONTINUOUS
 10
1.340114
 20
-4.459657
  0
VERTEX
  8
PLAN_1
  6
CONTINUOUS
 10
1.289634
 20
-4.459657
  0
VERTEX
  8
PLAN_1
  6
CONTINUOUS
 10
1.289634
 20
-4.612846
  0
SEQEND
  8
0
  0
POLYLINE
  8
PLAN_1
  6
CONTINUOUS
 66
     1
 40
0.003000
 41
0.003000
  0
VERTEX
  8
PLAN_1
  6
CONTINUOUS
 10
1.492146
 20
-4.636059
  0
VERTEX
  8
PLAN_1
  6
CONTINUOUS
 10
1.465453
 20
-4.636059
  0
VERTEX
  8
PLAN_1
  6
CONTINUOUS
 10
1.465453
 20
-4.437028
  0
VERTEX
  8
PLAN_1
  6
CONTINUOUS
 10
1.557717
 20
-4.437028
  0
VERTEX
  8
PLAN_1
  6
CONTINUOUS
 10
1.563520
 20
-4.437028
  0
VERTEX
  8
PLAN_1
  6
CONTINUOUS
 10
1.569902
 20
-4.437028
  0
VERTEX
  8
PLAN_1
  6
CONTINUOUS
 10
1.575705
 20
-4.438189
  0
VERTEX
  8
PLAN_1
  6
CONTINUOUS
 10
1.581508
 20
-4.439346
  0
VERTEX
  8
PLAN_1
  6
CONTINUOUS
 10
1.587311
 20
-4.440508
  0
VERTEX
  8
PLAN_1
  6
CONTINUOUS
 10
1.592531
 20
-4.442831
  0
VERTEX
  8
PLAN_1
  6
CONTINUOUS
 10
1.597756
 20
-4.445150
  0
VERTEX
  8
PLAN_1
  6
CONTINUOUS
 10
1.602398
 20
-4.447472
  0
VERTEX
  8
PLAN_1
  6
CONTINUOUS
 10
1.607039
 20
-4.450953
  0
VERTEX
  8
PLAN_1
  6
CONTINUOUS
 10
1.611098
 20
-4.455016
  0
VERTEX
  8
PLAN_1
  6
CONTINUOUS
 10
1.614583
 20
-4.459079
  0
VERTEX
  8
PLAN_1
  6
CONTINUOUS
 10
1.617484
 20
-4.464299
  0
VERTEX
  8
PLAN_1
  6
CONTINUOUS
 10
1.619803
 20
-4.469524
  0
VERTEX
  8
PLAN_1
  6
CONTINUOUS
 10
1.621543
 20
-4.475906
  0
VERTEX
  8
PLAN_1
  6
CONTINUOUS
 10
1.622705
 20
-4.482866
  0
VERTEX
  8
PLAN_1
  6
CONTINUOUS
 10
1.622705
 20
-4.490409
  0
VERTEX
  8
PLAN_1
  6
CONTINUOUS
 10
1.622705
 20
-4.495634
  0
VERTEX
  8
PLAN_1
  6
CONTINUOUS
 10
1.622126
 20
-4.500276
  0
VERTEX
  8
PLAN_1
  6
CONTINUOUS
 10
1.621543
 20
-4.504917
  0
VERTEX
  8
PLAN_1
  6
CONTINUOUS
 10
1.620386
 20
-4.508980
  0
VERTEX
  8
PLAN_1
  6
CONTINUOUS
 10
1.619224
 20
-4.513043
  0
VERTEX
  8
PLAN_1
  6
CONTINUOUS
 10
1.617484
 20
-4.516524
  0
VERTEX
  8
PLAN_1
  6
CONTINUOUS
 10
1.615744
 20
-4.519425
  0
VERTEX
  8
PLAN_1
  6
CONTINUOUS
 10
1.614000
 20
-4.522327
  0
VERTEX
  8
PLAN_1
  6
CONTINUOUS
 10
1.609358
 20
-4.527547
  0
VERTEX
  8
PLAN_1
  6
CONTINUOUS
 10
1.604717
 20
-4.531610
  0
VERTEX
  8
PLAN_1
  6
CONTINUOUS
 10
1.600075
 20
-4.535091
  0
VERTEX
  8
PLAN_1
  6
CONTINUOUS
 10
1.595433
 20
-4.537992
  0
VERTEX
  8
PLAN_1
  6
CONTINUOUS
 10
1.599496
 20
-4.539732
  0
VERTEX
  8
PLAN_1
  6
CONTINUOUS
 10
1.603555
 20
-4.542055
  0
VERTEX
  8
PLAN_1
  6
CONTINUOUS
 10
1.607618
 20
-4.544378
  0
VERTEX
  8
PLAN_1
  6
CONTINUOUS
 10
1.611098
 20
-4.547858
  0
VERTEX
  8
PLAN_1
  6
CONTINUOUS
 10
1.614000
 20
-4.552500
  0
VERTEX
  8
PLAN_1
  6
CONTINUOUS
 10
1.616323
 20
-4.558882
  0
VERTEX
  8
PLAN_1
  6
CONTINUOUS
 10
1.618063
 20
-4.565846
  0
VERTEX
  8
PLAN_1
  6
CONTINUOUS
 10
1.619224
 20
-4.575713
  0
VERTEX
  8
PLAN_1
  6
CONTINUOUS
 10
1.620965
 20
-4.611689
  0
VERTEX
  8
PLAN_1
  6
CONTINUOUS
 10
1.620965
 20
-4.615169
  0
VERTEX
  8
PLAN_1
  6
CONTINUOUS
 10
1.620965
 20
-4.618650
  0
VERTEX
  8
PLAN_1
  6
CONTINUOUS
 10
1.621543
 20
-4.621551
  0
VERTEX
  8
PLAN_1
  6
CONTINUOUS
 10
1.622705
 20
-4.623874
  0
VERTEX
  8
PLAN_1
  6
CONTINUOUS
 10
1.623866
 20
-4.626193
  0
VERTEX
  8
PLAN_1
  6
CONTINUOUS
 10
1.625606
 20
-4.627933
  0
VERTEX
  8
PLAN_1
  6
CONTINUOUS
 10
1.627929
 20
-4.629677
  0
VERTEX
  8
PLAN_1
  6
CONTINUOUS
 10
1.630831
 20
-4.631417
  0
VERTEX
  8
PLAN_1
  6
CONTINUOUS
 10
1.630831
 20
-4.636059
  0
VERTEX
  8
PLAN_1
  6
CONTINUOUS
 10
1.597756
 20
-4.636059
  0
VERTEX
  8
PLAN_1
  6
CONTINUOUS
 10
1.596594
 20
-4.630835
  0
VERTEX
  8
PLAN_1
  6
CONTINUOUS
 10
1.595433
 20
-4.623874
  0
VERTEX
  8
PLAN_1
  6
CONTINUOUS
 10
1.594272
 20
-4.616909
  0
VERTEX
  8
PLAN_1
  6
CONTINUOUS
 10
1.593693
 20
-4.609366
  0
VERTEX
  8
PLAN_1
  6
CONTINUOUS
 10
1.593693
 20
-4.601823
  0
VERTEX
  8
PLAN_1
  6
CONTINUOUS
 10
1.593110
 20
-4.595441
  0
VERTEX
  8
PLAN_1
  6
CONTINUOUS
 10
1.593110
 20
-4.589638
  0
VERTEX
  8
PLAN_1
  6
CONTINUOUS
 10
1.593110
 20
-4.586157
  0
VERTEX
  8
PLAN_1
  6
CONTINUOUS
 10
1.592531
 20
-4.579772
  0
VERTEX
  8
PLAN_1
  6
CONTINUOUS
 10
1.591953
 20
-4.573390
  0
VERTEX
  8
PLAN_1
  6
CONTINUOUS
 10
1.591370
 20
-4.570488
  0
VERTEX
  8
PLAN_1
  6
CONTINUOUS
 10
1.590213
 20
-4.567587
  0
VERTEX
  8
PLAN_1
  6
CONTINUOUS
 10
1.589051
 20
-4.564685
  0
VERTEX
  8
PLAN_1
  6
CONTINUOUS
 10
1.587311
 20
-4.562366
  0
VERTEX
  8
PLAN_1
  6
CONTINUOUS
 10
1.584988
 20
-4.559465
  0
VERTEX
  8
PLAN_1
  6
CONTINUOUS
 10
1.582665
 20
-4.557720
  0
VERTEX
  8
PLAN_1
  6
CONTINUOUS
 10
1.579768
 20
-4.555402
  0
VERTEX
  8
PLAN_1
  6
CONTINUOUS
 10
1.576283
 20
-4.553661
  0
VERTEX
  8
PLAN_1
  6
CONTINUOUS
 10
1.572803
 20
-4.552500
  0
VERTEX
  8
PLAN_1
  6
CONTINUOUS
 10
1.568161
 20
-4.551339
  0
VERTEX
  8
PLAN_1
  6
CONTINUOUS
 10
1.562937
 20
-4.550760
  0
VERTEX
  8
PLAN_1
  6
CONTINUOUS
 10
1.557717
 20
-4.550760
  0
VERTEX
  8
PLAN_1
  6
CONTINUOUS
 10
1.492146
 20
-4.550760
  0
VERTEX
  8
PLAN_1
  6
CONTINUOUS
 10
1.492146
 20
-4.636059
  0
SEQEND
  8
0
  0
POLYLINE
  8
PLAN_1
  6
CONTINUOUS
 66
     1
 40
0.003000
 41
0.003000
  0
VERTEX
  8
PLAN_1
  6
CONTINUOUS
 10
1.492146
 20
-4.527547
  0
VERTEX
  8
PLAN_1
  6
CONTINUOUS
 10
1.554815
 20
-4.527547
  0
VERTEX
  8
PLAN_1
  6
CONTINUOUS
 10
1.561780
 20
-4.526969
  0
VERTEX
  8
PLAN_1
  6
CONTINUOUS
 10
1.569323
 20
-4.526390
  0
VERTEX
  8
PLAN_1
  6
CONTINUOUS
 10
1.572803
 20
-4.525228
  0
VERTEX
  8
PLAN_1
  6
CONTINUOUS
 10
1.576283
 20
-4.524646
  0
VERTEX
  8
PLAN_1
  6
CONTINUOUS
 10
1.579185
 20
-4.522906
  0
VERTEX
  8
PLAN_1
  6
CONTINUOUS
 10
1.582087
 20
-4.521165
  0
VERTEX
  8
PLAN_1
  6
CONTINUOUS
 10
1.584988
 20
-4.519425
  0
VERTEX
  8
PLAN_1
  6
CONTINUOUS
 10
1.587311
 20
-4.517102
  0
VERTEX
  8
PLAN_1
  6
CONTINUOUS
 10
1.589630
 20
-4.514201
  0
VERTEX
  8
PLAN_1
  6
CONTINUOUS
 10
1.591370
 20
-4.510720
  0
VERTEX
  8
PLAN_1
  6
CONTINUOUS
 10
1.593110
 20
-4.507240
  0
VERTEX
  8
PLAN_1
  6
CONTINUOUS
 10
1.594272
 20
-4.503177
  0
VERTEX
  8
PLAN_1
  6
CONTINUOUS
 10
1.594854
 20
-4.498535
  0
VERTEX
  8
PLAN_1
  6
CONTINUOUS
 10
1.595433
 20
-4.493311
  0
VERTEX
  8
PLAN_1
  6
CONTINUOUS
 10
1.594854
 20
-4.487512
  0
VERTEX
  8
PLAN_1
  6
CONTINUOUS
 10
1.594272
 20
-4.482866
  0
VERTEX
  8
PLAN_1
  6
CONTINUOUS
 10
1.593110
 20
-4.478807
  0
VERTEX
  8
PLAN_1
  6
CONTINUOUS
 10
1.591370
 20
-4.474744
  0
VERTEX
  8
PLAN_1
  6
CONTINUOUS
 10
1.589630
 20
-4.471843
  0
VERTEX
  8
PLAN_1
  6
CONTINUOUS
 10
1.587311
 20
-4.468941
  0
VERTEX
  8
PLAN_1
  6
CONTINUOUS
 10
1.584988
 20
-4.466622
  0
VERTEX
  8
PLAN_1
  6
CONTINUOUS
 10
1.582087
 20
-4.464878
  0
VERTEX
  8
PLAN_1
  6
CONTINUOUS
 10
1.576283
 20
-4.461976
  0
VERTEX
  8
PLAN_1
  6
CONTINUOUS
 10
1.570480
 20
-4.460819
  0
VERTEX
  8
PLAN_1
  6
CONTINUOUS
 10
1.564677
 20
-4.460236
  0
VERTEX
  8
PLAN_1
  6
CONTINUOUS
 10
1.559457
 20
-4.459657
  0
VERTEX
  8
PLAN_1
  6
CONTINUOUS
 10
1.492146
 20
-4.459657
  0
VERTEX
  8
PLAN_1
  6
CONTINUOUS
 10
1.492146
 20
-4.527547
  0
SEQEND
  8
0
  0
SOLID
  8
PLAN_1
 10
1.694079
 20
-4.636059
 11
1.665646
 21
-4.636059
 12
1.694079
 22
-4.606465
 13
1.665646
 23
-4.606465
  0
POLYLINE
  8
PLAN_1
  6
CONTINUOUS
 66
     1
 40
0.003000
 41
0.003000
  0
VERTEX
  8
PLAN_1
  6
CONTINUOUS
 10
1.694079
 20
-4.636059
  0
VERTEX
  8
PLAN_1
  6
CONTINUOUS
 10
1.665646
 20
-4.636059
  0
VERTEX
  8
PLAN_1
  6
CONTINUOUS
 10
1.665646
 20
-4.606465
  0
VERTEX
  8
PLAN_1
  6
CONTINUOUS
 10
1.694079
 20
-4.606465
  0
VERTEX
  8
PLAN_1
  6
CONTINUOUS
 10
1.694079
 20
-4.636059
  0
SEQEND
  8
0
  0
POLYLINE
  8
PLAN_1
  6
CONTINUOUS
 66
     1
 40
0.003000
 41
0.003000
  0
VERTEX
  8
PLAN_1
  6
CONTINUOUS
 10
1.889630
 20
-4.636059
  0
VERTEX
  8
PLAN_1
  6
CONTINUOUS
 10
1.742240
 20
-4.636059
  0
VERTEX
  8
PLAN_1
  6
CONTINUOUS
 10
1.742240
 20
-4.437028
  0
VERTEX
  8
PLAN_1
  6
CONTINUOUS
 10
1.887307
 20
-4.437028
  0
VERTEX
  8
PLAN_1
  6
CONTINUOUS
 10
1.887307
 20
-4.460819
  0
VERTEX
  8
PLAN_1
  6
CONTINUOUS
 10
1.769512
 20
-4.460819
  0
VERTEX
  8
PLAN_1
  6
CONTINUOUS
 10
1.769512
 20
-4.521744
  0
VERTEX
  8
PLAN_1
  6
CONTINUOUS
 10
1.878602
 20
-4.521744
  0
VERTEX
  8
PLAN_1
  6
CONTINUOUS
 10
1.878602
 20
-4.545535
  0
VERTEX
  8
PLAN_1
  6
CONTINUOUS
 10
1.769512
 20
-4.545535
  0
VERTEX
  8
PLAN_1
  6
CONTINUOUS
 10
1.769512
 20
-4.612268
  0
VERTEX
  8
PLAN_1
  6
CONTINUOUS
 10
1.889630
 20
-4.612268
  0
VERTEX
  8
PLAN_1
  6
CONTINUOUS
 10
1.889630
 20
-4.636059
  0
SEQEND
  8
0
  0
POLYLINE
  8
PLAN_1
  6
CONTINUOUS
 66
     1
 40
0.003000
 41
0.003000
  0
VERTEX
  8
PLAN_1
  6
CONTINUOUS
 10
1.954618
 20
-4.636059
  0
VERTEX
  8
PLAN_1
  6
CONTINUOUS
 10
1.927346
 20
-4.636059
  0
VERTEX
  8
PLAN_1
  6
CONTINUOUS
 10
1.927346
 20
-4.437028
  0
VERTEX
  8
PLAN_1
  6
CONTINUOUS
 10
2.017287
 20
-4.437028
  0
VERTEX
  8
PLAN_1
  6
CONTINUOUS
 10
2.024252
 20
-4.437028
  0
VERTEX
  8
PLAN_1
  6
CONTINUOUS
 10
2.030634
 20
-4.437606
  0
VERTEX
  8
PLAN_1
  6
CONTINUOUS
 10
2.036437
 20
-4.439346
  0
VERTEX
  8
PLAN_1
  6
CONTINUOUS
 10
2.042240
 20
-4.441091
  0
VERTEX
  8
PLAN_1
  6
CONTINUOUS
 10
2.047461
 20
-4.443409
  0
VERTEX
  8
PLAN_1
  6
CONTINUOUS
 10
2.052102
 20
-4.445732
  0
VERTEX
  8
PLAN_1
  6
CONTINUOUS
 10
2.056744
 20
-4.449213
  0
VERTEX
  8
PLAN_1
  6
CONTINUOUS
 10
2.060807
 20
-4.452693
  0
VERTEX
  8
PLAN_1
  6
CONTINUOUS
 10
2.064287
 20
-4.456756
  0
VERTEX
  8
PLAN_1
  6
CONTINUOUS
 10
2.067189
 20
-4.460819
  0
VERTEX
  8
PLAN_1
  6
CONTINUOUS
 10
2.070091
 20
-4.465461
  0
VERTEX
  8
PLAN_1
  6
CONTINUOUS
 10
2.072413
 20
-4.470681
  0
VERTEX
  8
PLAN_1
  6
CONTINUOUS
 10
2.074154
 20
-4.475906
  0
VERTEX
  8
PLAN_1
  6
CONTINUOUS
 10
2.075315
 20
-4.481126
  0
VERTEX
  8
PLAN_1
  6
CONTINUOUS
 10
2.075894
 20
-4.486929
  0
VERTEX
  8
PLAN_1
  6
CONTINUOUS
 10
2.076476
 20
-4.492732
  0
VERTEX
  8
PLAN_1
  6
CONTINUOUS
 10
2.075894
 20
-4.497957
  0
VERTEX
  8
PLAN_1
  6
CONTINUOUS
 10
2.075315
 20
-4.503177
  0
VERTEX
  8
PLAN_1
  6
CONTINUOUS
 10
2.074732
 20
-4.508402
  0
VERTEX
  8
PLAN_1
  6
CONTINUOUS
 10
2.072992
 20
-4.513622
  0
VERTEX
  8
PLAN_1
  6
CONTINUOUS
 10
2.071252
 20
-4.518843
  0
VERTEX
  8
PLAN_1
  6
CONTINUOUS
 10
2.068933
 20
-4.523488
  0
VERTEX
  8
PLAN_1
  6
CONTINUOUS
 10
2.066031
 20
-4.528130
  0
VERTEX
  8
PLAN_1
  6
CONTINUOUS
 10
2.063130
 20
-4.532772
  0
VERTEX
  8
PLAN_1
  6
CONTINUOUS
 10
2.059067
 20
-4.536835
  0
VERTEX
  8
PLAN_1
  6
CONTINUOUS
 10
2.055004
 20
-4.540315
  0
VERTEX
  8
PLAN_1
  6
CONTINUOUS
 10
2.050362
 20
-4.543795
  0
VERTEX
  8
PLAN_1
  6
CONTINUOUS
 10
2.044559
 20
-4.546697
  0
VERTEX
  8
PLAN_1
  6
CONTINUOUS
 10
2.038756
 20
-4.549020
  0
VERTEX
  8
PLAN_1
  6
CONTINUOUS
 10
2.032374
 20
-4.550760
  0
VERTEX
  8
PLAN_1
  6
CONTINUOUS
 10
2.024831
 20
-4.551339
  0
VERTEX
  8
PLAN_1
  6
CONTINUOUS
 10
2.017287
 20
-4.551921
  0
VERTEX
  8
PLAN_1
  6
CONTINUOUS
 10
1.954618
 20
-4.551921
  0
VERTEX
  8
PLAN_1
  6
CONTINUOUS
 10
1.954618
 20
-4.636059
  0
SEQEND
  8
0
  0
POLYLINE
  8
PLAN_1
  6
CONTINUOUS
 66
     1
 40
0.003000
 41
0.003000
  0
VERTEX
  8
PLAN_1
  6
CONTINUOUS
 10
1.954618
 20
-4.528709
  0
VERTEX
  8
PLAN_1
  6
CONTINUOUS
 10
2.008004
 20
-4.528709
  0
VERTEX
  8
PLAN_1
  6
CONTINUOUS
 10
2.016709
 20
-4.528709
  0
VERTEX
  8
PLAN_1
  6
CONTINUOUS
 10
2.024831
 20
-4.526969
  0
VERTEX
  8
PLAN_1
  6
CONTINUOUS
 10
2.028311
 20
-4.525807
  0
VERTEX
  8
PLAN_1
  6
CONTINUOUS
 10
2.031213
 20
-4.524646
  0
VERTEX
  8
PLAN_1
  6
CONTINUOUS
 10
2.034697
 20
-4.522906
  0
VERTEX
  8
PLAN_1
  6
CONTINUOUS
 10
2.037598
 20
-4.521165
  0
VERTEX
  8
PLAN_1
  6
CONTINUOUS
 10
2.039917
 20
-4.518843
  0
VERTEX
  8
PLAN_1
  6
CONTINUOUS
 10
2.042240
 20
-4.516524
  0
VERTEX
  8
PLAN_1
  6
CONTINUOUS
 10
2.043980
 20
-4.513043
  0
VERTEX
  8
PLAN_1
  6
CONTINUOUS
 10
2.045720
 20
-4.510142
  0
VERTEX
  8
PLAN_1
  6
CONTINUOUS
 10
2.046882
 20
-4.506657
  0
VERTEX
  8
PLAN_1
  6
CONTINUOUS
 10
2.048043
 20
-4.502598
  0
VERTEX
  8
PLAN_1
  6
CONTINUOUS
 10
2.048622
 20
-4.497957
  0
VERTEX
  8
PLAN_1
  6
CONTINUOUS
 10
2.048622
 20
-4.493311
  0
VERTEX
  8
PLAN_1
  6
CONTINUOUS
 10
2.048622
 20
-4.488669
  0
VERTEX
  8
PLAN_1
  6
CONTINUOUS
 10
2.048043
 20
-4.484610
  0
VERTEX
  8
PLAN_1
  6
CONTINUOUS
 10
2.046882
 20
-4.480547
  0
VERTEX
  8
PLAN_1
  6
CONTINUOUS
 10
2.045720
 20
-4.477067
  0
VERTEX
  8
PLAN_1
  6
CONTINUOUS
 10
2.043980
 20
-4.474165
  0
VERTEX
  8
PLAN_1
  6
CONTINUOUS
 10
2.042240
 20
-4.471264
  0
VERTEX
  8
PLAN_1
  6
CONTINUOUS
 10
2.039917
 20
-4.468941
  0
VERTEX
  8
PLAN_1
  6
CONTINUOUS
 10
2.037016
 20
-4.467201
  0
VERTEX
  8
PLAN_1
  6
CONTINUOUS
 10
2.034697
 20
-4.465461
  0
VERTEX
  8
PLAN_1
  6
CONTINUOUS
 10
2.031213
 20
-4.463720
  0
VERTEX
  8
PLAN_1
  6
CONTINUOUS
 10
2.028311
 20
-4.462559
  0
VERTEX
  8
PLAN_1
  6
CONTINUOUS
 10
2.024831
 20
-4.461398
  0
VERTEX
  8
PLAN_1
  6
CONTINUOUS
 10
2.017287
 20
-4.460236
  0
VERTEX
  8
PLAN_1
  6
CONTINUOUS
 10
2.009165
 20
-4.459657
  0
VERTEX
  8
PLAN_1
  6
CONTINUOUS
 10
1.954618
 20
-4.459657
  0
VERTEX
  8
PLAN_1
  6
CONTINUOUS
 10
1.954618
 20
-4.528709
  0
SEQEND
  8
0
  0
POLYLINE
  8
PLAN_1
  6
CONTINUOUS
 66
     1
 40
0.003000
 41
0.003000
  0
VERTEX
  8
PLAN_1
  6
CONTINUOUS
 10
2.230244
 20
-4.495055
  0
VERTEX
  8
PLAN_1
  6
CONTINUOUS
 10
2.229665
 20
-4.489252
  0
VERTEX
  8
PLAN_1
  6
CONTINUOUS
 10
2.228504
 20
-4.484610
  0
VERTEX
  8
PLAN_1
  6
CONTINUOUS
 10
2.226764
 20
-4.479969
  0
VERTEX
  8
PLAN_1
  6
CONTINUOUS
 10
2.225024
 20
-4.475906
  0
VERTEX
  8
PLAN_1
  6
CONTINUOUS
 10
2.222701
 20
-4.471843
  0
VERTEX
  8
PLAN_1
  6
CONTINUOUS
 10
2.219799
 20
-4.468941
  0
VERTEX
  8
PLAN_1
  6
CONTINUOUS
 10
2.216902
 20
-4.466039
  0
VERTEX
  8
PLAN_1
  6
CONTINUOUS
 10
2.213417
 20
-4.463138
  0
VERTEX
  8
PLAN_1
  6
CONTINUOUS
 10
2.209937
 20
-4.460819
  0
VERTEX
  8
PLAN_1
  6
CONTINUOUS
 10
2.205874
 20
-4.459079
  0
VERTEX
  8
PLAN_1
  6
CONTINUOUS
 10
2.201811
 20
-4.457917
  0
VERTEX
  8
PLAN_1
  6
CONTINUOUS
 10
2.197752
 20
-4.456756
  0
VERTEX
  8
PLAN_1
  6
CONTINUOUS
 10
2.189047
 20
-4.455016
  0
VERTEX
  8
PLAN_1
  6
CONTINUOUS
 10
2.180921
 20
-4.454433
  0
VERTEX
  8
PLAN_1
  6
CONTINUOUS
 10
2.173961
 20
-4.455016
  0
VERTEX
  8
PLAN_1
  6
CONTINUOUS
 10
2.166417
 20
-4.455594
  0
VERTEX
  8
PLAN_1
  6
CONTINUOUS
 10
2.162933
 20
-4.456756
  0
VERTEX
  8
PLAN_1
  6
CONTINUOUS
 10
2.158874
 20
-4.457335
  0
VERTEX
  8
PLAN_1
  6
CONTINUOUS
 10
2.155390
 20
-4.459079
  0
VERTEX
  8
PLAN_1
  6
CONTINUOUS
 10
2.151909
 20
-4.460819
  0
VERTEX
  8
PLAN_1
  6
CONTINUOUS
 10
2.148429
 20
-4.462559
  0
VERTEX
  8
PLAN_1
  6
CONTINUOUS
 10
2.144945
 20
-4.464878
  0
VERTEX
  8
PLAN_1
  6
CONTINUOUS
 10
2.142626
 20
-4.467780
  0
VERTEX
  8
PLAN_1
  6
CONTINUOUS
 10
2.139724
 20
-4.471264
  0
VERTEX
  8
PLAN_1
  6
CONTINUOUS
 10
2.137984
 20
-4.474744
  0
VERTEX
  8
PLAN_1
  6
CONTINUOUS
 10
2.136244
 20
-4.479386
  0
VERTEX
  8
PLAN_1
  6
CONTINUOUS
 10
2.135661
 20
-4.484028
  0
VERTEX
  8
PLAN_1
  6
CONTINUOUS
 10
2.135083
 20
-4.489252
  0
VERTEX
  8
PLAN_1
  6
CONTINUOUS
 10
2.135661
 20
-4.495055
  0
VERTEX
  8
PLAN_1
  6
CONTINUOUS
 10
2.137402
 20
-4.500276
  0
VERTEX
  8
PLAN_1
  6
CONTINUOUS
 10
2.139724
 20
-4.504339
  0
VERTEX
  8
PLAN_1
  6
CONTINUOUS
 10
2.142626
 20
-4.507240
  0
VERTEX
  8
PLAN_1
  6
CONTINUOUS
 10
2.146106
 20
-4.510142
  0
VERTEX
  8
PLAN_1
  6
CONTINUOUS
 10
2.150169
 20
-4.511882
  0
VERTEX
  8
PLAN_1
  6
CONTINUOUS
 10
2.154232
 20
-4.513622
  0
VERTEX
  8
PLAN_1
  6
CONTINUOUS
 10
2.158874
 20
-4.514783
  0
VERTEX
  8
PLAN_1
  6
CONTINUOUS
 10
2.215740
 20
-4.527547
  0
VERTEX
  8
PLAN_1
  6
CONTINUOUS
 10
2.225024
 20
-4.530449
  0
VERTEX
  8
PLAN_1
  6
CONTINUOUS
 10
2.233728
 20
-4.534512
  0
VERTEX
  8
PLAN_1
  6
CONTINUOUS
 10
2.237787
 20
-4.536252
  0
VERTEX
  8
PLAN_1
  6
CONTINUOUS
 10
2.241272
 20
-4.539154
  0
VERTEX
  8
PLAN_1
  6
CONTINUOUS
 10
2.244752
 20
-4.541476
  0
VERTEX
  8
PLAN_1
  6
CONTINUOUS
 10
2.248232
 20
-4.544957
  0
VERTEX
  8
PLAN_1
  6
CONTINUOUS
 10
2.251134
 20
-4.548437
  0
VERTEX
  8
PLAN_1
  6
CONTINUOUS
 10
2.253457
 20
-4.551921
  0
VERTEX
  8
PLAN_1
  6
CONTINUOUS
 10
2.255780
 20
-4.555980
  0
VERTEX
  8
PLAN_1
  6
CONTINUOUS
 10
2.257520
 20
-4.560043
  0
VERTEX
  8
PLAN_1
  6
CONTINUOUS
 10
2.259260
 20
-4.564685
  0
VERTEX
  8
PLAN_1
  6
CONTINUOUS
 10
2.259839
 20
-4.569909
  0
VERTEX
  8
PLAN_1
  6
CONTINUOUS
 10
2.261000
 20
-4.575130
  0
VERTEX
  8
PLAN_1
  6
CONTINUOUS
 10
2.261000
 20
-4.580933
  0
VERTEX
  8
PLAN_1
  6
CONTINUOUS
 10
2.260421
 20
-4.589638
  0
VERTEX
  8
PLAN_1
  6
CONTINUOUS
 10
2.259260
 20
-4.597181
  0
VERTEX
  8
PLAN_1
  6
CONTINUOUS
 10
2.256937
 20
-4.604146
  0
VERTEX
  8
PLAN_1
  6
CONTINUOUS
 10
2.253457
 20
-4.610528
  0
VERTEX
  8
PLAN_1
  6
CONTINUOUS
 10
2.249976
 20
-4.615748
  0
VERTEX
  8
PLAN_1
  6
CONTINUOUS
 10
2.245335
 20
-4.620972
  0
VERTEX
  8
PLAN_1
  6
CONTINUOUS
 10
2.240110
 20
-4.625031
  0
VERTEX
  8
PLAN_1
  6
CONTINUOUS
 10
2.234890
 20
-4.629094
  0
VERTEX
  8
PLAN_1
  6
CONTINUOUS
 10
2.229087
 20
-4.631996
  0
VERTEX
  8
PLAN_1
  6
CONTINUOUS
 10
2.222701
 20
-4.634898
  0
VERTEX
  8
PLAN_1
  6
CONTINUOUS
 10
2.216319
 20
-4.636638
  0
VERTEX
  8
PLAN_1
  6
CONTINUOUS
 10
2.209354
 20
-4.638378
  0
VERTEX
  8
PLAN_1
  6
CONTINUOUS
 10
2.202972
 20
-4.639539
  0
VERTEX
  8
PLAN_1
  6
CONTINUOUS
 10
2.196012
 20
-4.640701
  0
VERTEX
  8
PLAN_1
  6
CONTINUOUS
 10
2.189626
 20
-4.641280
  0
VERTEX
  8
PLAN_1
  6
CONTINUOUS
 10
2.183244
 20
-4.641280
  0
VERTEX
  8
PLAN_1
  6
CONTINUOUS
 10
2.169898
 20
-4.640701
  0
VERTEX
  8
PLAN_1
  6
CONTINUOUS
 10
2.159453
 20
-4.639539
  0
VERTEX
  8
PLAN_1
  6
CONTINUOUS
 10
2.150169
 20
-4.637220
  0
VERTEX
  8
PLAN_1
  6
CONTINUOUS
 10
2.142626
 20
-4.634898
  0
VERTEX
  8
PLAN_1
  6
CONTINUOUS
 10
2.136244
 20
-4.631996
  0
VERTEX
  8
PLAN_1
  6
CONTINUOUS
 10
2.131020
 20
-4.628516
  0
VERTEX
  8
PLAN_1
  6
CONTINUOUS
 10
2.126378
 20
-4.625031
  0
VERTEX
  8
PLAN_1
  6
CONTINUOUS
 10
2.122898
 20
-4.622134
  0
VERTEX
  8
PLAN_1
  6
CONTINUOUS
 10
2.117094
 20
-4.616331
  0
VERTEX
  8
PLAN_1
  6
CONTINUOUS
 10
2.112453
 20
-4.610528
  0
VERTEX
  8
PLAN_1
  6
CONTINUOUS
 10
2.108969
 20
-4.604146
  0
VERTEX
  8
PLAN_1
  6
CONTINUOUS
 10
2.106067
 20
-4.598343
  0
VERTEX
  8
PLAN_1
  6
CONTINUOUS
 10
2.104327
 20
-4.591957
  0
VERTEX
  8
PLAN_1
  6
CONTINUOUS
 10
2.103165
 20
-4.584996
  0
VERTEX
  8
PLAN_1
  6
CONTINUOUS
 10
2.102587
 20
-4.578610
  0
VERTEX
  8
PLAN_1
  6
CONTINUOUS
 10
2.102587
 20
-4.571650
  0
VERTEX
  8
PLAN_1
  6
CONTINUOUS
 10
2.127539
 20
-4.571650
  0
VERTEX
  8
PLAN_1
  6
CONTINUOUS
 10
2.128118
 20
-4.578031
  0
VERTEX
  8
PLAN_1
  6
CONTINUOUS
 10
2.129280
 20
-4.583835
  0
VERTEX
  8
PLAN_1
  6
CONTINUOUS
 10
2.130441
 20
-4.589055
  0
VERTEX
  8
PLAN_1
  6
CONTINUOUS
 10
2.132760
 20
-4.594280
  0
VERTEX
  8
PLAN_1
  6
CONTINUOUS
 10
2.135661
 20
-4.598343
  0
VERTEX
  8
PLAN_1
  6
CONTINUOUS
 10
2.138563
 20
-4.602402
  0
VERTEX
  8
PLAN_1
  6
CONTINUOUS
 10
2.142043
 20
-4.605303
  0
VERTEX
  8
PLAN_1
  6
CONTINUOUS
 10
2.145528
 20
-4.608205
  0
VERTEX
  8
PLAN_1
  6
CONTINUOUS
 10
2.149591
 20
-4.611106
  0
VERTEX
  8
PLAN_1
  6
CONTINUOUS
 10
2.154232
 20
-4.612846
  0
VERTEX
  8
PLAN_1
  6
CONTINUOUS
 10
2.158874
 20
-4.614591
  0
VERTEX
  8
PLAN_1
  6
CONTINUOUS
 10
2.163516
 20
-4.615748
  0
VERTEX
  8
PLAN_1
  6
CONTINUOUS
 10
2.168157
 20
-4.616909
  0
VERTEX
  8
PLAN_1
  6
CONTINUOUS
 10
2.172799
 20
-4.617488
  0
VERTEX
  8
PLAN_1
  6
CONTINUOUS
 10
2.178024
 20
-4.618071
  0
VERTEX
  8
PLAN_1
  6
CONTINUOUS
 10
2.182665
 20
-4.618071
  0
VERTEX
  8
PLAN_1
  6
CONTINUOUS
 10
2.190787
 20
-4.618071
  0
VERTEX
  8
PLAN_1
  6
CONTINUOUS
 10
2.198909
 20
-4.616909
  0
VERTEX
  8
PLAN_1
  6
CONTINUOUS
 10
2.203555
 20
-4.616331
  0
VERTEX
  8
PLAN_1
  6
CONTINUOUS
 10
2.207614
 20
-4.615169
  0
VERTEX
  8
PLAN_1
  6
CONTINUOUS
 10
2.212256
 20
-4.614008
  0
VERTEX
  8
PLAN_1
  6
CONTINUOUS
 10
2.216319
 20
-4.612268
  0
VERTEX
  8
PLAN_1
  6
CONTINUOUS
 10
2.219799
 20
-4.609945
  0
VERTEX
  8
PLAN_1
  6
CONTINUOUS
 10
2.223283
 20
-4.607626
  0
VERTEX
  8
PLAN_1
  6
CONTINUOUS
 10
2.226764
 20
-4.605303
  0
VERTEX
  8
PLAN_1
  6
CONTINUOUS
 10
2.229665
 20
-4.601823
  0
VERTEX
  8
PLAN_1
  6
CONTINUOUS
 10
2.231988
 20
-4.598343
  0
VERTEX
  8
PLAN_1
  6
CONTINUOUS
 10
2.233728
 20
-4.594280
  0
VERTEX
  8
PLAN_1
  6
CONTINUOUS
 10
2.234307
 20
-4.589638
  0
VERTEX
  8
PLAN_1
  6
CONTINUOUS
 10
2.234890
 20
-4.584413
  0
VERTEX
  8
PLAN_1
  6
CONTINUOUS
 10
2.234890
 20
-4.580933
  0
VERTEX
  8
PLAN_1
  6
CONTINUOUS
 10
2.234307
 20
-4.577453
  0
VERTEX
  8
PLAN_1
  6
CONTINUOUS
 10
2.233728
 20
-4.574551
  0
VERTEX
  8
PLAN_1
  6
CONTINUOUS
 10
2.233146
 20
-4.571650
  0
VERTEX
  8
PLAN_1
  6
CONTINUOUS
 10
2.231406
 20
-4.568748
  0
VERTEX
  8
PLAN_1
  6
CONTINUOUS
 10
2.230244
 20
-4.566425
  0
VERTEX
  8
PLAN_1
  6
CONTINUOUS
 10
2.227925
 20
-4.564106
  0
VERTEX
  8
PLAN_1
  6
CONTINUOUS
 10
2.226185
 20
-4.562366
  0
VERTEX
  8
PLAN_1
  6
CONTINUOUS
 10
2.223283
 20
-4.560043
  0
VERTEX
  8
PLAN_1
  6
CONTINUOUS
 10
2.220382
 20
-4.558303
  0
VERTEX
  8
PLAN_1
  6
CONTINUOUS
 10
2.216902
 20
-4.556563
  0
VERTEX
  8
PLAN_1
  6
CONTINUOUS
 10
2.212839
 20
-4.555402
  0
VERTEX
  8
PLAN_1
  6
CONTINUOUS
 10
2.203555
 20
-4.552500
  0
VERTEX
  8
PLAN_1
  6
CONTINUOUS
 10
2.192528
 20
-4.549598
  0
VERTEX
  8
PLAN_1
  6
CONTINUOUS
 10
2.151909
 20
-4.539732
  0
VERTEX
  8
PLAN_1
  6
CONTINUOUS
 10
2.146106
 20
-4.538575
  0
VERTEX
  8
PLAN_1
  6
CONTINUOUS
 10
2.139724
 20
-4.536252
  0
VERTEX
  8
PLAN_1
  6
CONTINUOUS
 10
2.132760
 20
-4.532772
  0
VERTEX
  8
PLAN_1
  6
CONTINUOUS
 10
2.125799
 20
-4.528130
  0
VERTEX
  8
PLAN_1
  6
CONTINUOUS
 10
2.122315
 20
-4.525807
  0
VERTEX
  8
PLAN_1
  6
CONTINUOUS
 10
2.119413
 20
-4.522327
  0
VERTEX
  8
PLAN_1
  6
CONTINUOUS
 10
2.116512
 20
-4.518843
  0
VERTEX
  8
PLAN_1
  6
CONTINUOUS
 10
2.114193
 20
-4.514783
  0
VERTEX
  8
PLAN_1
  6
CONTINUOUS
 10
2.111870
 20
-4.510142
  0
VERTEX
  8
PLAN_1
  6
CONTINUOUS
 10
2.110713
 20
-4.504917
  0
VERTEX
  8
PLAN_1
  6
CONTINUOUS
 10
2.109551
 20
-4.499114
  0
VERTEX
  8
PLAN_1
  6
CONTINUOUS
 10
2.108969
 20
-4.493311
  0
VERTEX
  8
PLAN_1
  6
CONTINUOUS
 10
2.109551
 20
-4.487512
  0
VERTEX
  8
PLAN_1
  6
CONTINUOUS
 10
2.110130
 20
-4.481709
  0
VERTEX
  8
PLAN_1
  6
CONTINUOUS
 10
2.111291
 20
-4.475906
  0
VERTEX
  8
PLAN_1
  6
CONTINUOUS
 10
2.113031
 20
-4.470102
  0
VERTEX
  8
PLAN_1
  6
CONTINUOUS
 10
2.115354
 20
-4.464878
  0
VERTEX
  8
PLAN_1
  6
CONTINUOUS
 10
2.118256
 20
-4.459657
  0
VERTEX
  8
PLAN_1
  6
CONTINUOUS
 10
2.121736
 20
-4.455016
  0
VERTEX
  8
PLAN_1
  6
CONTINUOUS
 10
2.125217
 20
-4.450374
  0
VERTEX
  8
PLAN_1
  6
CONTINUOUS
 10
2.129858
 20
-4.446311
  0
VERTEX
  8
PLAN_1
  6
CONTINUOUS
 10
2.135083
 20
-4.442831
  0
VERTEX
  8
PLAN_1
  6
CONTINUOUS
 10
2.140303
 20
-4.439346
  0
VERTEX
  8
PLAN_1
  6
CONTINUOUS
 10
2.146689
 20
-4.436445
  0
VERTEX
  8
PLAN_1
  6
CONTINUOUS
 10
2.153650
 20
-4.434705
  0
VERTEX
  8
PLAN_1
  6
CONTINUOUS
 10
2.161193
 20
-4.432965
  0
VERTEX
  8
PLAN_1
  6
CONTINUOUS
 10
2.168736
 20
-4.431803
  0
VERTEX
  8
PLAN_1
  6
CONTINUOUS
 10
2.178024
 20
-4.431224
  0
VERTEX
  8
PLAN_1
  6
CONTINUOUS
 10
2.190209
 20
-4.431803
  0
VERTEX
  8
PLAN_1
  6
CONTINUOUS
 10
2.201232
 20
-4.433543
  0
VERTEX
  8
PLAN_1
  6
CONTINUOUS
 10
2.210516
 20
-4.435287
  0
VERTEX
  8
PLAN_1
  6
CONTINUOUS
 10
2.219220
 20
-4.438189
  0
VERTEX
  8
PLAN_1
  6
CONTINUOUS
 10
2.226185
 20
-4.441669
  0
VERTEX
  8
PLAN_1
  6
CONTINUOUS
 10
2.232567
 20
-4.445732
  0
VERTEX
  8
PLAN_1
  6
CONTINUOUS
 10
2.237787
 20
-4.450374
  0
VERTEX
  8
PLAN_1
  6
CONTINUOUS
 10
2.242433
 20
-4.455016
  0
VERTEX
  8
PLAN_1
  6
CONTINUOUS
 10
2.245913
 20
-4.460236
  0
VERTEX
  8
PLAN_1
  6
CONTINUOUS
 10
2.248815
 20
-4.465461
  0
VERTEX
  8
PLAN_1
  6
CONTINUOUS
 10
2.251134
 20
-4.470681
  0
VERTEX
  8
PLAN_1
  6
CONTINUOUS
 10
2.252878
 20
-4.475906
  0
VERTEX
  8
PLAN_1
  6
CONTINUOUS
 10
2.254618
 20
-4.485768
  0
VERTEX
  8
PLAN_1
  6
CONTINUOUS
 10
2.255197
 20
-4.495055
  0
VERTEX
  8
PLAN_1
  6
CONTINUOUS
 10
2.230244
 20
-4.495055
  0
SEQEND
  8
0
  0
POLYLINE
  8
PLAN_1
  6
CONTINUOUS
 66
     1
 40
0.008122
 41
0.008122
  0
VERTEX
  8
PLAN_1
  6
CONTINUOUS
 10
-2.067795
 20
1.293114
  0
VERTEX
  8
PLAN_1
  6
CONTINUOUS
 10
-2.067795
 20
1.777638
  0
VERTEX
  8
PLAN_1
  6
CONTINUOUS
 10
-2.182689
 20
1.777638
  0
VERTEX
  8
PLAN_1
  6
CONTINUOUS
 10
-2.182689
 20
1.293114
  0
VERTEX
  8
PLAN_1
  6
CONTINUOUS
 10
-2.067795
 20
1.293114
  0
SEQEND
  8
0
  0
POLYLINE
  8
PLAN_1
  6
CONTINUOUS
 66
     1
 40
0.008122
 41
0.008122
  0
VERTEX
  8
PLAN_1
  6
CONTINUOUS
 10
-2.182110
 20
1.653461
  0
VERTEX
  8
PLAN_1
  6
CONTINUOUS
 10
-2.071280
 20
1.653461
  0
SEQEND
  8
0
  0
POLYLINE
  8
PLAN_1
  6
CONTINUOUS
 66
     1
 40
0.008122
 41
0.008122
  0
VERTEX
  8
PLAN_1
  6
CONTINUOUS
 10
-2.182110
 20
1.416134
  0
VERTEX
  8
PLAN_1
  6
CONTINUOUS
 10
-2.071280
 20
1.416134
  0
SEQEND
  8
0
  0
POLYLINE
  8
PLAN_1
  6
CONTINUOUS
 66
     1
 40
0.008122
 41
0.008122
  0
VERTEX
  8
PLAN_1
  6
CONTINUOUS
 10
-2.168764
 20
1.777059
  0
VERTEX
  8
PLAN_1
  6
CONTINUOUS
 10
-2.170504
 20
1.774736
  0
VERTEX
  8
PLAN_1
  6
CONTINUOUS
 10
-2.173406
 20
1.766614
  0
VERTEX
  8
PLAN_1
  6
CONTINUOUS
 10
-2.175146
 20
1.760811
  0
VERTEX
  8
PLAN_1
  6
CONTINUOUS
 10
-2.177469
 20
1.754429
  0
VERTEX
  8
PLAN_1
  6
CONTINUOUS
 10
-2.179209
 20
1.746886
  0
VERTEX
  8
PLAN_1
  6
CONTINUOUS
 10
-2.180949
 20
1.738181
  0
VERTEX
  8
PLAN_1
  6
CONTINUOUS
 10
-2.182110
 20
1.728898
  0
VERTEX
  8
PLAN_1
  6
CONTINUOUS
 10
-2.182689
 20
1.719610
  0
VERTEX
  8
PLAN_1
  6
CONTINUOUS
 10
-2.182689
 20
1.709165
  0
VERTEX
  8
PLAN_1
  6
CONTINUOUS
 10
-2.181528
 20
1.698720
  0
VERTEX
  8
PLAN_1
  6
CONTINUOUS
 10
-2.179787
 20
1.687697
  0
VERTEX
  8
PLAN_1
  6
CONTINUOUS
 10
-2.176307
 20
1.676091
  0
VERTEX
  8
PLAN_1
  6
CONTINUOUS
 10
-2.174567
 20
1.670870
  0
VERTEX
  8
PLAN_1
  6
CONTINUOUS
 10
-2.172244
 20
1.665067
  0
VERTEX
  8
PLAN_1
  6
CONTINUOUS
 10
-2.169343
 20
1.659264
  0
VERTEX
  8
PLAN_1
  6
CONTINUOUS
 10
-2.166441
 20
1.653461
  0
VERTEX
  8
PLAN_1
  6
CONTINUOUS
 10
-2.167602
 20
1.648819
  0
VERTEX
  8
PLAN_1
  6
CONTINUOUS
 10
-2.171083
 20
1.636055
  0
VERTEX
  8
PLAN_1
  6
CONTINUOUS
 10
-2.173406
 20
1.626768
  0
VERTEX
  8
PLAN_1
  6
CONTINUOUS
 10
-2.175724
 20
1.615744
  0
VERTEX
  8
PLAN_1
  6
CONTINUOUS
 10
-2.178047
 20
1.602976
  0
VERTEX
  8
PLAN_1
  6
CONTINUOUS
 10
-2.179787
 20
1.587890
  0
VERTEX
  8
PLAN_1
  6
CONTINUOUS
 10
-2.181528
 20
1.571646
  0
VERTEX
  8
PLAN_1
  6
CONTINUOUS
 10
-2.182110
 20
1.553657
  0
VERTEX
  8
PLAN_1
  6
CONTINUOUS
 10
-2.182689
 20
1.533925
  0
VERTEX
  8
PLAN_1
  6
CONTINUOUS
 10
-2.182110
 20
1.513035
  0
VERTEX
  8
PLAN_1
  6
CONTINUOUS
 10
-2.180949
 20
1.490988
  0
VERTEX
  8
PLAN_1
  6
CONTINUOUS
 10
-2.178626
 20
1.467197
  0
VERTEX
  8
PLAN_1
  6
CONTINUOUS
 10
-2.176886
 20
1.455012
  0
VERTEX
  8
PLAN_1
  6
CONTINUOUS
 10
-2.174567
 20
1.442244
  0
VERTEX
  8
PLAN_1
  6
CONTINUOUS
 10
-2.172244
 20
1.429476
  0
VERTEX
  8
PLAN_1
  6
CONTINUOUS
 10
-2.169343
 20
1.416134
  0
VERTEX
  8
PLAN_1
  6
CONTINUOUS
 10
-2.170504
 20
1.413232
  0
VERTEX
  8
PLAN_1
  6
CONTINUOUS
 10
-2.173984
 20
1.405689
  0
VERTEX
  8
PLAN_1
  6
CONTINUOUS
 10
-2.175724
 20
1.399886
  0
VERTEX
  8
PLAN_1
  6
CONTINUOUS
 10
-2.178047
 20
1.393500
  0
VERTEX
  8
PLAN_1
  6
CONTINUOUS
 10
-2.179787
 20
1.386539
  0
VERTEX
  8
PLAN_1
  6
CONTINUOUS
 10
-2.181528
 20
1.377835
  0
VERTEX
  8
PLAN_1
  6
CONTINUOUS
 10
-2.182689
 20
1.369130
  0
VERTEX
  8
PLAN_1
  6
CONTINUOUS
 10
-2.183268
 20
1.359268
  0
VERTEX
  8
PLAN_1
  6
CONTINUOUS
 10
-2.183268
 20
1.349402
  0
VERTEX
  8
PLAN_1
  6
CONTINUOUS
 10
-2.182110
 20
1.338957
  0
VERTEX
  8
PLAN_1
  6
CONTINUOUS
 10
-2.180366
 20
1.327933
  0
VERTEX
  8
PLAN_1
  6
CONTINUOUS
 10
-2.176886
 20
1.316906
  0
VERTEX
  8
PLAN_1
  6
CONTINUOUS
 10
-2.175146
 20
1.311102
  0
VERTEX
  8
PLAN_1
  6
CONTINUOUS
 10
-2.172823
 20
1.305299
  0
VERTEX
  8
PLAN_1
  6
CONTINUOUS
 10
-2.169921
 20
1.300079
  0
VERTEX
  8
PLAN_1
  6
CONTINUOUS
 10
-2.167024
 20
1.294276
  0
SEQEND
  8
0
  0
POLYLINE
  8
PLAN_1
  6
CONTINUOUS
 66
     1
 40
0.008122
 41
0.008122
  0
VERTEX
  8
PLAN_1
  6
CONTINUOUS
 10
-1.301264
 20
1.967969
  0
VERTEX
  8
PLAN_1
  6
CONTINUOUS
 10
-1.301264
 20
1.091764
  0
SEQEND
  8
0
  0
POLYLINE
  8
PLAN_1
  6
CONTINUOUS
 66
     1
 40
0.008122
 41
0.008122
  0
VERTEX
  8
PLAN_1
  6
CONTINUOUS
 10
-1.412094
 20
1.967969
  0
VERTEX
  8
PLAN_1
  6
CONTINUOUS
 10
-1.412094
 20
1.099307
  0
SEQEND
  8
0
  0
POLYLINE
  8
PLAN_1
  6
CONTINUOUS
 66
     1
 40
0.008122
 41
0.008122
  0
VERTEX
  8
PLAN_1
  6
CONTINUOUS
 10
-1.680177
 20
1.206657
  0
VERTEX
  8
PLAN_1
  6
CONTINUOUS
 10
-1.680177
 20
1.842630
  0
SEQEND
  8
0
  0
POLYLINE
  8
PLAN_1
  6
CONTINUOUS
 66
     1
 40
0.008122
 41
0.008122
  0
VERTEX
  8
PLAN_1
  6
CONTINUOUS
 10
-2.236075
 20
1.671449
  0
VERTEX
  8
PLAN_1
  6
CONTINUOUS
 10
-2.236075
 20
1.396402
  0
SEQEND
  8
0
  0
POLYLINE
  8
PLAN_1
  6
CONTINUOUS
 66
     1
 40
0.008122
 41
0.008122
  0
VERTEX
  8
PLAN_1
  6
CONTINUOUS
 10
-2.236075
 20
1.396402
  0
VERTEX
  8
PLAN_1
  6
CONTINUOUS
 10
-2.245937
 20
1.405689
  0
VERTEX
  8
PLAN_1
  6
CONTINUOUS
 10
-2.245937
 20
1.661004
  0
VERTEX
  8
PLAN_1
  6
CONTINUOUS
 10
-2.236075
 20
1.670287
  0
VERTEX
  8
PLAN_1
  6
CONTINUOUS
 10
-2.182689
 20
1.671449
  0
VERTEX
  8
PLAN_1
  6
CONTINUOUS
 10
-2.182689
 20
1.396402
  0
VERTEX
  8
PLAN_1
  6
CONTINUOUS
 10
-2.236075
 20
1.396402
  0
SEQEND
  8
0
  0
POLYLINE
  8
PLAN_1
  6
CONTINUOUS
 66
     1
 40
0.008122
 41
0.008122
  0
VERTEX
  8
PLAN_1
  6
CONTINUOUS
 10
0.091961
 20
-2.385201
  0
VERTEX
  8
PLAN_1
  6
CONTINUOUS
 10
0.091961
 20
0.933350
  0
VERTEX
  8
PLAN_1
  6
CONTINUOUS
 10
-1.647102
 20
0.933350
  0
VERTEX
  8
PLAN_1
  6
CONTINUOUS
 10
-1.647102
 20
-2.385201
  0
VERTEX
  8
PLAN_1
  6
CONTINUOUS
 10
0.091961
 20
-2.385201
  0
SEQEND
  8
0
  0
POLYLINE
  8
PLAN_1
  6
CONTINUOUS
 66
     1
 40
0.008122
 41
0.008122
  0
VERTEX
  8
PLAN_1
  6
CONTINUOUS
 10
-0.967610
 20
0.933350
  0
VERTEX
  8
PLAN_1
  6
CONTINUOUS
 10
-0.967610
 20
1.148047
  0
VERTEX
  8
PLAN_1
  6
CONTINUOUS
 10
-1.304744
 20
1.148047
  0
VERTEX
  8
PLAN_1
  6
CONTINUOUS
 10
-1.304744
 20
0.933350
  0
VERTEX
  8
PLAN_1
  6
CONTINUOUS
 10
-0.967610
 20
0.933350
  0
SEQEND
  8
0
  0
POLYLINE
  8
PLAN_1
  6
CONTINUOUS
 66
     1
 40
0.008122
 41
0.008122
  0
VERTEX
  8
PLAN_1
  6
CONTINUOUS
 10
0.091961
 20
0.933350
  0
VERTEX
  8
PLAN_1
  6
CONTINUOUS
 10
0.091961
 20
1.148047
  0
VERTEX
  8
PLAN_1
  6
CONTINUOUS
 10
-0.249236
 20
1.148047
  0
VERTEX
  8
PLAN_1
  6
CONTINUOUS
 10
-0.249236
 20
0.933350
  0
VERTEX
  8
PLAN_1
  6
CONTINUOUS
 10
0.091961
 20
0.933350
  0
SEQEND
  8
0
  0
POLYLINE
  8
PLAN_1
  6
CONTINUOUS
 66
     1
 40
0.008122
 41
0.008122
  0
VERTEX
  8
PLAN_1
  6
CONTINUOUS
 10
0.115752
 20
0.574165
  0
VERTEX
  8
PLAN_1
  6
CONTINUOUS
 10
0.115752
 20
0.897953
  0
VERTEX
  8
PLAN_1
  6
CONTINUOUS
 10
0.095441
 20
0.897953
  0
VERTEX
  8
PLAN_1
  6
CONTINUOUS
 10
0.095441
 20
0.574165
  0
VERTEX
  8
PLAN_1
  6
CONTINUOUS
 10
0.115752
 20
0.574165
  0
SEQEND
  8
0
  0
POLYLINE
  8
PLAN_1
  6
CONTINUOUS
 66
     1
 40
0.008122
 41
0.008122
  0
VERTEX
  8
PLAN_1
  6
CONTINUOUS
 10
0.115752
 20
-2.354445
  0
VERTEX
  8
PLAN_1
  6
CONTINUOUS
 10
0.115752
 20
-2.030657
  0
VERTEX
  8
PLAN_1
  6
CONTINUOUS
 10
0.095441
 20
-2.030657
  0
VERTEX
  8
PLAN_1
  6
CONTINUOUS
 10
0.095441
 20
-2.354445
  0
VERTEX
  8
PLAN_1
  6
CONTINUOUS
 10
0.115752
 20
-2.354445
  0
SEQEND
  8
0
  0
POLYLINE
  8
PLAN_1
  6
CONTINUOUS
 66
     1
 40
0.008122
 41
0.008122
  0
VERTEX
  8
PLAN_1
  6
CONTINUOUS
 10
-1.565866
 20
0.933350
  0
VERTEX
  8
PLAN_1
  6
CONTINUOUS
 10
-1.565866
 20
-2.385201
  0
SEQEND
  8
0
  0
POLYLINE
  8
PLAN_1
  6
CONTINUOUS
 66
     1
 40
0.008122
 41
0.008122
  0
VERTEX
  8
PLAN_1
  6
CONTINUOUS
 10
-1.477083
 20
0.933350
  0
VERTEX
  8
PLAN_1
  6
CONTINUOUS
 10
-1.477083
 20
-2.385201
  0
SEQEND
  8
0
  0
POLYLINE
  8
PLAN_1
  6
CONTINUOUS
 66
     1
 40
0.008122
 41
0.008122
  0
VERTEX
  8
PLAN_1
  6
CONTINUOUS
 10
-1.477083
 20
0.307240
  0
VERTEX
  8
PLAN_1
  6
CONTINUOUS
 10
-1.304744
 20
0.307240
  0
VERTEX
  8
PLAN_1
  6
CONTINUOUS
 10
-1.304744
 20
0.933350
  0
SEQEND
  8
0
  0
POLYLINE
  8
PLAN_1
  6
CONTINUOUS
 66
     1
 40
0.008122
 41
0.008122
  0
VERTEX
  8
PLAN_1
  6
CONTINUOUS
 10
-1.473024
 20
-1.796228
  0
VERTEX
  8
PLAN_1
  6
CONTINUOUS
 10
-1.303004
 20
-1.796228
  0
VERTEX
  8
PLAN_1
  6
CONTINUOUS
 10
-1.303004
 20
-2.386362
  0
SEQEND
  8
0
  0
POLYLINE
  8
PLAN_1
  6
CONTINUOUS
 66
     1
 40
0.008122
 41
0.008122
  0
VERTEX
  8
PLAN_1
  6
CONTINUOUS
 10
-1.647102
 20
-2.292358
  0
VERTEX
  8
PLAN_1
  6
CONTINUOUS
 10
-1.647102
 20
-2.017311
  0
VERTEX
  8
PLAN_1
  6
CONTINUOUS
 10
-1.752130
 20
-2.017311
  0
VERTEX
  8
PLAN_1
  6
CONTINUOUS
 10
-1.752130
 20
-2.292358
  0
VERTEX
  8
PLAN_1
  6
CONTINUOUS
 10
-1.647102
 20
-2.292358
  0
SEQEND
  8
0
  0
POLYLINE
  8
PLAN_1
  6
CONTINUOUS
 66
     1
 40
0.008122
 41
0.008122
  0
VERTEX
  8
PLAN_1
  6
CONTINUOUS
 10
-1.695264
 20
-2.267988
  0
VERTEX
  8
PLAN_1
  6
CONTINUOUS
 10
-1.695264
 20
-2.243614
  0
VERTEX
  8
PLAN_1
  6
CONTINUOUS
 10
-1.752130
 20
-2.243614
  0
VERTEX
  8
PLAN_1
  6
CONTINUOUS
 10
-1.752130
 20
-2.267988
  0
VERTEX
  8
PLAN_1
  6
CONTINUOUS
 10
-1.695264
 20
-2.267988
  0
SEQEND
  8
0
  0
POLYLINE
  8
PLAN_1
  6
CONTINUOUS
 66
     1
 40
0.008122
 41
0.008122
  0
VERTEX
  8
PLAN_1
  6
CONTINUOUS
 10
-1.647102
 20
0.843409
  0
VERTEX
  8
PLAN_1
  6
CONTINUOUS
 10
-1.647102
 20
0.568362
  0
VERTEX
  8
PLAN_1
  6
CONTINUOUS
 10
-1.752130
 20
0.568362
  0
VERTEX
  8
PLAN_1
  6
CONTINUOUS
 10
-1.752130
 20
0.843409
  0
VERTEX
  8
PLAN_1
  6
CONTINUOUS
 10
-1.647102
 20
0.843409
  0
SEQEND
  8
0
  0
POLYLINE
  8
PLAN_1
  6
CONTINUOUS
 66
     1
 40
0.008122
 41
0.008122
  0
VERTEX
  8
PLAN_1
  6
CONTINUOUS
 10
-1.695264
 20
0.819035
  0
VERTEX
  8
PLAN_1
  6
CONTINUOUS
 10
-1.695264
 20
0.794665
  0
VERTEX
  8
PLAN_1
  6
CONTINUOUS
 10
-1.752130
 20
0.794665
  0
VERTEX
  8
PLAN_1
  6
CONTINUOUS
 10
-1.752130
 20
0.819035
  0
VERTEX
  8
PLAN_1
  6
CONTINUOUS
 10
-1.695264
 20
0.819035
  0
SEQEND
  8
0
  0
POLYLINE
  8
PLAN_1
  6
CONTINUOUS
 66
     1
 40
0.008122
 41
0.008122
  0
VERTEX
  8
PLAN_1
  6
CONTINUOUS
 10
-1.755031
 20
1.203173
  0
VERTEX
  8
PLAN_1
  6
CONTINUOUS
 10
-1.680177
 20
1.203173
  0
VERTEX
  8
PLAN_1
  6
CONTINUOUS
 10
-1.680177
 20
1.126000
  0
VERTEX
  8
PLAN_1
  6
CONTINUOUS
 10
-1.413256
 20
1.090602
  0
VERTEX
  8
PLAN_1
  6
CONTINUOUS
 10
-1.301264
 20
1.090602
  0
VERTEX
  8
PLAN_1
  6
CONTINUOUS
 10
-1.301264
 20
0.931610
  0
VERTEX
  8
PLAN_1
  6
CONTINUOUS
 10
0.091961
 20
0.931610
  0
VERTEX
  8
PLAN_1
  6
CONTINUOUS
 10
0.091961
 20
1.967969
  0
VERTEX
  8
PLAN_1
  6
CONTINUOUS
 10
-1.423118
 20
1.967969
  0
VERTEX
  8
PLAN_1
  6
CONTINUOUS
 10
-1.680177
 20
1.923287
  0
VERTEX
  8
PLAN_1
  6
CONTINUOUS
 10
-1.680177
 20
1.850173
  0
VERTEX
  8
PLAN_1
  6
CONTINUOUS
 10
-1.755031
 20
1.850173
  0
SEQEND
  8
0
  0
POLYLINE
  8
PLAN_1
  6
CONTINUOUS
 66
     1
 40
0.008122
 41
0.008122
  0
VERTEX
  8
PLAN_1
  6
CONTINUOUS
 10
-2.009768
 20
1.850173
  0
VERTEX
  8
PLAN_1
  6
CONTINUOUS
 10
-2.068378
 20
1.850173
  0
VERTEX
  8
PLAN_1
  6
CONTINUOUS
 10
-2.068378
 20
1.203173
  0
VERTEX
  8
PLAN_1
  6
CONTINUOUS
 10
-2.009768
 20
1.203173
  0
SEQEND
  8
0
  0
POLYLINE
  8
PLAN_1
  6
CONTINUOUS
 66
     1
 40
0.008122
 41
0.008122
  0
VERTEX
  8
PLAN_1
  6
CONTINUOUS
 10
-2.009768
 20
1.850173
  0
VERTEX
  8
PLAN_1
  6
CONTINUOUS
 10
-2.009768
 20
1.203173
  0
SEQEND
  8
0
  0
POLYLINE
  8
PLAN_1
  6
CONTINUOUS
 66
     1
 40
0.008122
 41
0.008122
  0
VERTEX
  8
PLAN_1
  6
CONTINUOUS
 10
-1.755031
 20
3.197555
  0
VERTEX
  8
PLAN_1
  6
CONTINUOUS
 10
-1.755031
 20
1.850173
  0
SEQEND
  8
0
  0
POLYLINE
  8
PLAN_1
  6
CONTINUOUS
 66
     1
 40
0.008122
 41
0.008122
  0
VERTEX
  8
PLAN_1
  6
CONTINUOUS
 10
-1.755031
 20
1.850173
  0
VERTEX
  8
PLAN_1
  6
CONTINUOUS
 10
-1.755031
 20
1.203173
  0
SEQEND
  8
0
  0
POLYLINE
  8
PLAN_1
  6
CONTINUOUS
 66
     1
 40
0.008122
 41
0.008122
  0
VERTEX
  8
PLAN_1
  6
CONTINUOUS
 10
-2.009768
 20
1.203173
  0
VERTEX
  8
PLAN_1
  6
CONTINUOUS
 10
-2.009768
 20
0.445925
  0
VERTEX
  8
PLAN_1
  6
CONTINUOUS
 10
-1.755031
 20
0.445925
  0
VERTEX
  8
PLAN_1
  6
CONTINUOUS
 10
-1.755031
 20
1.203173
  0
SEQEND
  8
0
  0
POLYLINE
  8
PLAN_1
  6
CONTINUOUS
 66
     1
 40
0.008122
 41
0.008122
  0
VERTEX
  8
PLAN_1
  6
CONTINUOUS
 10
-2.009768
 20
1.850173
  0
VERTEX
  8
PLAN_1
  6
CONTINUOUS
 10
-2.009768
 20
3.052488
  0
SEQEND
  8
0
  0
POLYLINE
  8
PLAN_1
  6
CONTINUOUS
 66
     1
 40
0.008122
 41
0.008122
  0
VERTEX
  8
PLAN_1
  6
CONTINUOUS
 10
-1.755031
 20
3.404130
  0
VERTEX
  8
PLAN_1
  6
CONTINUOUS
 10
-1.755031
 20
4.388264
  0
VERTEX
  8
PLAN_1
  6
CONTINUOUS
 10
-2.009768
 20
4.388264
  0
VERTEX
  8
PLAN_1
  6
CONTINUOUS
 10
-2.009768
 20
3.258480
  0
SEQEND
  8
0
  0
POLYLINE
  8
PLAN_1
  6
CONTINUOUS
 66
     1
 40
0.004059
 41
0.004059
  0
VERTEX
  8
PLAN_1
  6
CONTINUOUS
 10
-2.155996
 20
3.172024
  0
VERTEX
  8
PLAN_1
  6
CONTINUOUS
 10
-1.605323
 20
3.491169
  0
SEQEND
  8
0
  0
POLYLINE
  8
PLAN_1
  6
CONTINUOUS
 66
     1
 40
0.004059
 41
0.004059
  0
VERTEX
  8
PLAN_1
  6
CONTINUOUS
 10
-1.597780
 20
3.304323
  0
VERTEX
  8
PLAN_1
  6
CONTINUOUS
 10
-2.155996
 20
2.977634
  0
SEQEND
  8
0
  0
POLYLINE
  8
PLAN_1
  6
CONTINUOUS
 66
     1
 40
0.008122
 41
0.008122
  0
VERTEX
  8
PLAN_1
  6
CONTINUOUS
 10
-1.721957
 20
1.246693
  0
VERTEX
  8
PLAN_1
  6
CONTINUOUS
 10
-1.721957
 20
1.800268
  0
VERTEX
  8
PLAN_1
  6
CONTINUOUS
 10
-2.035882
 20
1.800268
  0
VERTEX
  8
PLAN_1
  6
CONTINUOUS
 10
-2.035882
 20
1.246693
  0
VERTEX
  8
PLAN_1
  6
CONTINUOUS
 10
-1.721957
 20
1.246693
  0
SEQEND
  8
0
  0
POLYLINE
  8
PLAN_1
  6
CONTINUOUS
 66
     1
 40
0.008122
 41
0.008122
  0
VERTEX
  8
PLAN_1
  6
CONTINUOUS
 10
-2.036461
 20
1.800268
  0
VERTEX
  8
PLAN_1
  6
CONTINUOUS
 10
-2.074177
 20
1.847850
  0
SEQEND
  8
0
  0
POLYLINE
  8
PLAN_1
  6
CONTINUOUS
 66
     1
 40
0.008122
 41
0.008122
  0
VERTEX
  8
PLAN_1
  6
CONTINUOUS
 10
-2.073020
 20
1.205496
  0
VERTEX
  8
PLAN_1
  6
CONTINUOUS
 10
-2.035882
 20
1.246693
  0
SEQEND
  8
0
  0
POLYLINE
  8
PLAN_1
  6
CONTINUOUS
 66
     1
 40
0.008122
 41
0.008122
  0
VERTEX
  8
PLAN_1
  6
CONTINUOUS
 10
-1.720795
 20
1.801429
  0
VERTEX
  8
PLAN_1
  6
CONTINUOUS
 10
-1.680177
 20
1.849012
  0
SEQEND
  8
0
  0
POLYLINE
  8
PLAN_1
  6
CONTINUOUS
 66
     1
 40
0.008122
 41
0.008122
  0
VERTEX
  8
PLAN_1
  6
CONTINUOUS
 10
-1.680177
 20
1.206657
  0
VERTEX
  8
PLAN_1
  6
CONTINUOUS
 10
-1.721957
 20
1.247854
  0
SEQEND
  8
0
  0
POLYLINE
  8
PLAN_1
  6
CONTINUOUS
 66
     1
 40
0.008122
 41
0.008122
  0
VERTEX
  8
PLAN_1
  6
CONTINUOUS
 10
-0.065291
 20
-2.464118
  0
VERTEX
  8
PLAN_1
  6
CONTINUOUS
 10
-0.065291
 20
-2.385201
  0
VERTEX
  8
PLAN_1
  6
CONTINUOUS
 10
-0.930472
 20
-2.385201
  0
VERTEX
  8
PLAN_1
  6
CONTINUOUS
 10
-0.930472
 20
-2.464118
  0
VERTEX
  8
PLAN_1
  6
CONTINUOUS
 10
-0.065291
 20
-2.464118
  0
SEQEND
  8
0
  0
POLYLINE
  8
PLAN_1
  6
CONTINUOUS
 66
     1
 40
0.008122
 41
0.008122
  0
VERTEX
  8
PLAN_1
  6
CONTINUOUS
 10
-0.915386
 20
-2.385201
  0
VERTEX
  8
PLAN_1
  6
CONTINUOUS
 10
-0.915386
 20
-2.464118
  0
SEQEND
  8
0
  0
POLYLINE
  8
PLAN_1
  6
CONTINUOUS
 66
     1
 40
0.008122
 41
0.008122
  0
VERTEX
  8
PLAN_1
  6
CONTINUOUS
 10
-0.655425
 20
-2.856957
  0
VERTEX
  8
PLAN_1
  6
CONTINUOUS
 10
-0.339760
 20
-2.856957
  0
VERTEX
  8
PLAN_1
  6
CONTINUOUS
 10
-0.301461
 20
-2.817500
  0
VERTEX
  8
PLAN_1
  6
CONTINUOUS
 10
-0.301461
 20
-2.464118
  0
VERTEX
  8
PLAN_1
  6
CONTINUOUS
 10
-0.694303
 20
-2.464118
  0
VERTEX
  8
PLAN_1
  6
CONTINUOUS
 10
-0.694303
 20
-2.817500
  0
VERTEX
  8
PLAN_1
  6
CONTINUOUS
 10
-0.655425
 20
-2.856957
  0
SEQEND
  8
0
  0
POLYLINE
  8
PLAN_1
  6
CONTINUOUS
 66
     1
 40
0.004059
 41
0.004059
  0
VERTEX
  8
PLAN_1
  6
CONTINUOUS
 10
-0.655425
 20
-2.464118
  0
VERTEX
  8
PLAN_1
  6
CONTINUOUS
 10
-0.655425
 20
-2.856957
  0
SEQEND
  8
0
  0
POLYLINE
  8
PLAN_1
  6
CONTINUOUS
 66
     1
 40
0.004059
 41
0.004059
  0
VERTEX
  8
PLAN_1
  6
CONTINUOUS
 10
-0.340921
 20
-2.464118
  0
VERTEX
  8
PLAN_1
  6
CONTINUOUS
 10
-0.340921
 20
-2.856957
  0
SEQEND
  8
0
  0
POLYLINE
  8
PLAN_1
  6
CONTINUOUS
 66
     1
 40
0.008122
 41
0.008122
  0
VERTEX
  8
PLAN_1
  6
CONTINUOUS
 10
-0.301461
 20
-2.817500
  0
VERTEX
  8
PLAN_1
  6
CONTINUOUS
 10
-0.694303
 20
-2.817500
  0
SEQEND
  8
0
  0
POLYLINE
  8
PLAN_1
  6
CONTINUOUS
 66
     1
 40
0.008122
 41
0.008122
  0
VERTEX
  8
PLAN_1
  6
CONTINUOUS
 10
-0.082122
 20
-2.385201
  0
VERTEX
  8
PLAN_1
  6
CONTINUOUS
 10
-0.082122
 20
-2.464118
  0
SEQEND
  8
0
  0
POLYLINE
  8
PLAN_1
  6
CONTINUOUS
 66
     1
 40
0.008122
 41
0.008122
  0
VERTEX
  8
PLAN_1
  6
CONTINUOUS
 10
-0.565484
 20
-2.385201
  0
VERTEX
  8
PLAN_1
  6
CONTINUOUS
 10
-0.565484
 20
-2.464118
  0
SEQEND
  8
0
  0
POLYLINE
  8
PLAN_1
  6
CONTINUOUS
 66
     1
 40
0.008122
 41
0.008122
  0
VERTEX
  8
PLAN_1
  6
CONTINUOUS
 10
-0.430280
 20
-2.385201
  0
VERTEX
  8
PLAN_1
  6
CONTINUOUS
 10
-0.430280
 20
-2.464118
  0
SEQEND
  8
0
  0
POLYLINE
  8
PLAN_1
 62
     2
  6
CONTINUOUS
 66
     1
 40
0.004059
 41
0.004059
  0
VERTEX
  8
PLAN_1
 62
     2
  6
CONTINUOUS
 10
0.112850
 20
-2.920209
  0
VERTEX
  8
PLAN_1
 62
     2
  6
CONTINUOUS
 10
0.112850
 20
-3.193512
  0
SEQEND
  8
0
  0
POLYLINE
  8
PLAN_1
 62
     2
  6
CONTINUOUS
 66
     1
 40
0.004059
 41
0.004059
  0
VERTEX
  8
PLAN_1
 62
     2
  6
CONTINUOUS
 10
-1.303004
 20
-2.408992
  0
VERTEX
  8
PLAN_1
 62
     2
  6
CONTINUOUS
 10
-1.303004
 20
-3.035681
  0
SEQEND
  8
0
  0
POLYLINE
  8
PLAN_1
 62
     2
  6
CONTINUOUS
 66
     1
 40
0.004059
 41
0.004059
  0
VERTEX
  8
PLAN_1
 62
     2
  6
CONTINUOUS
 10
-1.273409
 20
-3.012469
  0
VERTEX
  8
PLAN_1
 62
     2
  6
CONTINUOUS
 10
0.083256
 20
-3.012469
  0
SEQEND
  8
0
  0
SOLID
  8
PLAN_1
 62
     2
 10
0.112850
 20
-3.012469
 11
0.053661
 21
-2.996803
 12
0.112850
 22
-3.012469
 13
0.053661
 23
-3.028138
  0
POLYLINE
  8
PLAN_1
 62
     2
  6
CONTINUOUS
 66
     1
 40
0.003000
 41
0.003000
  0
VERTEX
  8
PLAN_1
 62
     2
  6
CONTINUOUS
 10
0.112850
 20
-3.012469
  0
VERTEX
  8
PLAN_1
 62
     2
  6
CONTINUOUS
 10
0.053661
 20
-2.996803
  0
VERTEX
  8
PLAN_1
 62
     2
  6
CONTINUOUS
 10
0.053661
 20
-3.028138
  0
VERTEX
  8
PLAN_1
 62
     2
  6
CONTINUOUS
 10
0.112850
 20
-3.012469
  0
SEQEND
  8
0
  0
SOLID
  8
PLAN_1
 62
     2
 10
-1.303004
 20
-3.012469
 11
-1.244398
 21
-2.996803
 12
-1.303004
 22
-3.012469
 13
-1.244398
 23
-3.028138
  0
POLYLINE
  8
PLAN_1
 62
     2
  6
CONTINUOUS
 66
     1
 40
0.003000
 41
0.003000
  0
VERTEX
  8
PLAN_1
 62
     2
  6
CONTINUOUS
 10
-1.303004
 20
-3.012469
  0
VERTEX
  8
PLAN_1
 62
     2
  6
CONTINUOUS
 10
-1.244398
 20
-2.996803
  0
VERTEX
  8
PLAN_1
 62
     2
  6
CONTINUOUS
 10
-1.244398
 20
-3.028138
  0
VERTEX
  8
PLAN_1
 62
     2
  6
CONTINUOUS
 10
-1.303004
 20
-3.012469
  0
SEQEND
  8
0
  0
POLYLINE
  8
PLAN_1
 62
     2
  6
CONTINUOUS
 66
     1
 40
0.003000
 41
0.003000
  0
VERTEX
  8
PLAN_1
 62
     2
  6
CONTINUOUS
 10
-0.669350
 20
-2.946902
  0
VERTEX
  8
PLAN_1
 62
     2
  6
CONTINUOUS
 10
-0.668772
 20
-2.946902
  0
VERTEX
  8
PLAN_1
 62
     2
  6
CONTINUOUS
 10
-0.668189
 20
-2.946902
  0
VERTEX
  8
PLAN_1
 62
     2
  6
CONTINUOUS
 10
-0.667610
 20
-2.946902
  0
VERTEX
  8
PLAN_1
 62
     2
  6
CONTINUOUS
 10
-0.667031
 20
-2.947480
  0
VERTEX
  8
PLAN_1
 62
     2
  6
CONTINUOUS
 10
-0.666449
 20
-2.947480
  0
VERTEX
  8
PLAN_1
 62
     2
  6
CONTINUOUS
 10
-0.665870
 20
-2.947480
  0
VERTEX
  8
PLAN_1
 62
     2
  6
CONTINUOUS
 10
-0.665287
 20
-2.947480
  0
VERTEX
  8
PLAN_1
 62
     2
  6
CONTINUOUS
 10
-0.664709
 20
-2.947480
  0
VERTEX
  8
PLAN_1
 62
     2
  6
CONTINUOUS
 10
-0.661807
 20
-2.946902
  0
VERTEX
  8
PLAN_1
 62
     2
  6
CONTINUOUS
 10
-0.659488
 20
-2.946902
  0
VERTEX
  8
PLAN_1
 62
     2
  6
CONTINUOUS
 10
-0.657165
 20
-2.945740
  0
VERTEX
  8
PLAN_1
 62
     2
  6
CONTINUOUS
 10
-0.654843
 20
-2.944579
  0
VERTEX
  8
PLAN_1
 62
     2
  6
CONTINUOUS
 10
-0.653102
 20
-2.942839
  0
VERTEX
  8
PLAN_1
 62
     2
  6
CONTINUOUS
 10
-0.651945
 20
-2.941098
  0
VERTEX
  8
PLAN_1
 62
     2
  6
CONTINUOUS
 10
-0.650783
 20
-2.938197
  0
VERTEX
  8
PLAN_1
 62
     2
  6
CONTINUOUS
 10
-0.650783
 20
-2.935295
  0
VERTEX
  8
PLAN_1
 62
     2
  6
CONTINUOUS
 10
-0.650783
 20
-2.933555
  0
VERTEX
  8
PLAN_1
 62
     2
  6
CONTINUOUS
 10
-0.651362
 20
-2.931811
  0
VERTEX
  8
PLAN_1
 62
     2
  6
CONTINUOUS
 10
-0.651945
 20
-2.929492
  0
VERTEX
  8
PLAN_1
 62
     2
  6
CONTINUOUS
 10
-0.653102
 20
-2.927752
  0
VERTEX
  8
PLAN_1
 62
     2
  6
CONTINUOUS
 10
-0.655425
 20
-2.926012
  0
VERTEX
  8
PLAN_1
 62
     2
  6
CONTINUOUS
 10
-0.657744
 20
-2.924850
  0
VERTEX
  8
PLAN_1
 62
     2
  6
CONTINUOUS
 10
-0.660646
 20
-2.924268
  0
VERTEX
  8
PLAN_1
 62
     2
  6
CONTINUOUS
 10
-0.664130
 20
-2.923689
  0
VERTEX
  8
PLAN_1
 62
     2
  6
CONTINUOUS
 10
-0.668772
 20
-2.924268
  0
VERTEX
  8
PLAN_1
 62
     2
  6
CONTINUOUS
 10
-0.671673
 20
-2.925429
  0
VERTEX
  8
PLAN_1
 62
     2
  6
CONTINUOUS
 10
-0.674575
 20
-2.927169
  0
VERTEX
  8
PLAN_1
 62
     2
  6
CONTINUOUS
 10
-0.676315
 20
-2.929492
  0
VERTEX
  8
PLAN_1
 62
     2
  6
CONTINUOUS
 10
-0.677476
 20
-2.932394
  0
VERTEX
  8
PLAN_1
 62
     2
  6
CONTINUOUS
 10
-0.678055
 20
-2.934713
  0
VERTEX
  8
PLAN_1
 62
     2
  6
CONTINUOUS
 10
-0.678055
 20
-2.937614
  0
VERTEX
  8
PLAN_1
 62
     2
  6
CONTINUOUS
 10
-0.678634
 20
-2.939354
  0
VERTEX
  8
PLAN_1
 62
     2
  6
CONTINUOUS
 10
-0.687339
 20
-2.939354
  0
VERTEX
  8
PLAN_1
 62
     2
  6
CONTINUOUS
 10
-0.687339
 20
-2.935295
  0
VERTEX
  8
PLAN_1
 62
     2
  6
CONTINUOUS
 10
-0.686177
 20
-2.931232
  0
VERTEX
  8
PLAN_1
 62
     2
  6
CONTINUOUS
 10
-0.685020
 20
-2.927169
  0
VERTEX
  8
PLAN_1
 62
     2
  6
CONTINUOUS
 10
-0.682697
 20
-2.923689
  0
VERTEX
  8
PLAN_1
 62
     2
  6
CONTINUOUS
 10
-0.681535
 20
-2.921949
  0
VERTEX
  8
PLAN_1
 62
     2
  6
CONTINUOUS
 10
-0.679795
 20
-2.920209
  0
VERTEX
  8
PLAN_1
 62
     2
  6
CONTINUOUS
 10
-0.678055
 20
-2.919047
  0
VERTEX
  8
PLAN_1
 62
     2
  6
CONTINUOUS
 10
-0.675732
 20
-2.917886
  0
VERTEX
  8
PLAN_1
 62
     2
  6
CONTINUOUS
 10
-0.673413
 20
-2.916724
  0
VERTEX
  8
PLAN_1
 62
     2
  6
CONTINUOUS
 10
-0.670512
 20
-2.916146
  0
VERTEX
  8
PLAN_1
 62
     2
  6
CONTINUOUS
 10
-0.667031
 20
-2.915567
  0
VERTEX
  8
PLAN_1
 62
     2
  6
CONTINUOUS
 10
-0.663547
 20
-2.915567
  0
VERTEX
  8
PLAN_1
 62
     2
  6
CONTINUOUS
 10
-0.658906
 20
-2.916146
  0
VERTEX
  8
PLAN_1
 62
     2
  6
CONTINUOUS
 10
-0.654264
 20
-2.916724
  0
VERTEX
  8
PLAN_1
 62
     2
  6
CONTINUOUS
 10
-0.650201
 20
-2.918469
  0
VERTEX
  8
PLAN_1
 62
     2
  6
CONTINUOUS
 10
-0.647299
 20
-2.920787
  0
VERTEX
  8
PLAN_1
 62
     2
  6
CONTINUOUS
 10
-0.644402
 20
-2.923689
  0
VERTEX
  8
PLAN_1
 62
     2
  6
CONTINUOUS
 10
-0.642657
 20
-2.927169
  0
VERTEX
  8
PLAN_1
 62
     2
  6
CONTINUOUS
 10
-0.641500
 20
-2.930654
  0
VERTEX
  8
PLAN_1
 62
     2
  6
CONTINUOUS
 10
-0.641500
 20
-2.934713
  0
VERTEX
  8
PLAN_1
 62
     2
  6
CONTINUOUS
 10
-0.641500
 20
-2.938197
  0
VERTEX
  8
PLAN_1
 62
     2
  6
CONTINUOUS
 10
-0.642079
 20
-2.941098
  0
VERTEX
  8
PLAN_1
 62
     2
  6
CONTINUOUS
 10
-0.643240
 20
-2.943417
  0
VERTEX
  8
PLAN_1
 62
     2
  6
CONTINUOUS
 10
-0.644402
 20
-2.945157
  0
VERTEX
  8
PLAN_1
 62
     2
  6
CONTINUOUS
 10
-0.646142
 20
-2.946902
  0
VERTEX
  8
PLAN_1
 62
     2
  6
CONTINUOUS
 10
-0.647299
 20
-2.948059
  0
VERTEX
  8
PLAN_1
 62
     2
  6
CONTINUOUS
 10
-0.649043
 20
-2.949220
  0
VERTEX
  8
PLAN_1
 62
     2
  6
CONTINUOUS
 10
-0.650783
 20
-2.949799
  0
VERTEX
  8
PLAN_1
 62
     2
  6
CONTINUOUS
 10
-0.647882
 20
-2.950961
  0
VERTEX
  8
PLAN_1
 62
     2
  6
CONTINUOUS
 10
-0.645559
 20
-2.952122
  0
VERTEX
  8
PLAN_1
 62
     2
  6
CONTINUOUS
 10
-0.643819
 20
-2.953862
  0
VERTEX
  8
PLAN_1
 62
     2
  6
CONTINUOUS
 10
-0.642079
 20
-2.955602
  0
VERTEX
  8
PLAN_1
 62
     2
  6
CONTINUOUS
 10
-0.640339
 20
-2.957925
  0
VERTEX
  8
PLAN_1
 62
     2
  6
CONTINUOUS
 10
-0.639177
 20
-2.960827
  0
VERTEX
  8
PLAN_1
 62
     2
  6
CONTINUOUS
 10
-0.638598
 20
-2.963728
  0
VERTEX
  8
PLAN_1
 62
     2
  6
CONTINUOUS
 10
-0.638598
 20
-2.967209
  0
VERTEX
  8
PLAN_1
 62
     2
  6
CONTINUOUS
 10
-0.638598
 20
-2.971850
  0
VERTEX
  8
PLAN_1
 62
     2
  6
CONTINUOUS
 10
-0.639756
 20
-2.975913
  0
VERTEX
  8
PLAN_1
 62
     2
  6
CONTINUOUS
 10
-0.642079
 20
-2.979976
  0
VERTEX
  8
PLAN_1
 62
     2
  6
CONTINUOUS
 10
-0.644402
 20
-2.983457
  0
VERTEX
  8
PLAN_1
 62
     2
  6
CONTINUOUS
 10
-0.648461
 20
-2.986358
  0
VERTEX
  8
PLAN_1
 62
     2
  6
CONTINUOUS
 10
-0.652524
 20
-2.988677
  0
VERTEX
  8
PLAN_1
 62
     2
  6
CONTINUOUS
 10
-0.658327
 20
-2.990421
  0
VERTEX
  8
PLAN_1
 62
     2
  6
CONTINUOUS
 10
-0.664709
 20
-2.990421
  0
VERTEX
  8
PLAN_1
 62
     2
  6
CONTINUOUS
 10
-0.666449
 20
-2.990421
  0
VERTEX
  8
PLAN_1
 62
     2
  6
CONTINUOUS
 10
-0.668772
 20
-2.990421
  0
VERTEX
  8
PLAN_1
 62
     2
  6
CONTINUOUS
 10
-0.670512
 20
-2.990421
  0
VERTEX
  8
PLAN_1
 62
     2
  6
CONTINUOUS
 10
-0.672252
 20
-2.989839
  0
VERTEX
  8
PLAN_1
 62
     2
  6
CONTINUOUS
 10
-0.673992
 20
-2.989260
  0
VERTEX
  8
PLAN_1
 62
     2
  6
CONTINUOUS
 10
-0.675154
 20
-2.988677
  0
VERTEX
  8
PLAN_1
 62
     2
  6
CONTINUOUS
 10
-0.676894
 20
-2.988098
  0
VERTEX
  8
PLAN_1
 62
     2
  6
CONTINUOUS
 10
-0.678055
 20
-2.987520
  0
VERTEX
  8
PLAN_1
 62
     2
  6
CONTINUOUS
 10
-0.680957
 20
-2.985780
  0
VERTEX
  8
PLAN_1
 62
     2
  6
CONTINUOUS
 10
-0.683280
 20
-2.983457
  0
VERTEX
  8
PLAN_1
 62
     2
  6
CONTINUOUS
 10
-0.685020
 20
-2.981134
  0
VERTEX
  8
PLAN_1
 62
     2
  6
CONTINUOUS
 10
-0.686760
 20
-2.978232
  0
VERTEX
  8
PLAN_1
 62
     2
  6
CONTINUOUS
 10
-0.687339
 20
-2.975335
  0
VERTEX
  8
PLAN_1
 62
     2
  6
CONTINUOUS
 10
-0.688500
 20
-2.972433
  0
VERTEX
  8
PLAN_1
 62
     2
  6
CONTINUOUS
 10
-0.689079
 20
-2.969531
  0
VERTEX
  8
PLAN_1
 62
     2
  6
CONTINUOUS
 10
-0.689079
 20
-2.966047
  0
VERTEX
  8
PLAN_1
 62
     2
  6
CONTINUOUS
 10
-0.679795
 20
-2.966047
  0
VERTEX
  8
PLAN_1
 62
     2
  6
CONTINUOUS
 10
-0.679795
 20
-2.968949
  0
VERTEX
  8
PLAN_1
 62
     2
  6
CONTINUOUS
 10
-0.679217
 20
-2.971850
  0
VERTEX
  8
PLAN_1
 62
     2
  6
CONTINUOUS
 10
-0.678055
 20
-2.974173
  0
VERTEX
  8
PLAN_1
 62
     2
  6
CONTINUOUS
 10
-0.676894
 20
-2.977075
  0
VERTEX
  8
PLAN_1
 62
     2
  6
CONTINUOUS
 10
-0.675154
 20
-2.979394
  0
VERTEX
  8
PLAN_1
 62
     2
  6
CONTINUOUS
 10
-0.672252
 20
-2.981134
  0
VERTEX
  8
PLAN_1
 62
     2
  6
CONTINUOUS
 10
-0.668772
 20
-2.982295
  0
VERTEX
  8
PLAN_1
 62
     2
  6
CONTINUOUS
 10
-0.664130
 20
-2.982295
  0
VERTEX
  8
PLAN_1
 62
     2
  6
CONTINUOUS
 10
-0.660646
 20
-2.982295
  0
VERTEX
  8
PLAN_1
 62
     2
  6
CONTINUOUS
 10
-0.657744
 20
-2.981134
  0
VERTEX
  8
PLAN_1
 62
     2
  6
CONTINUOUS
 10
-0.654843
 20
-2.979976
  0
VERTEX
  8
PLAN_1
 62
     2
  6
CONTINUOUS
 10
-0.652524
 20
-2.978232
  0
VERTEX
  8
PLAN_1
 62
     2
  6
CONTINUOUS
 10
-0.650783
 20
-2.976492
  0
VERTEX
  8
PLAN_1
 62
     2
  6
CONTINUOUS
 10
-0.649622
 20
-2.974173
  0
VERTEX
  8
PLAN_1
 62
     2
  6
CONTINUOUS
 10
-0.648461
 20
-2.971272
  0
VERTEX
  8
PLAN_1
 62
     2
  6
CONTINUOUS
 10
-0.648461
 20
-2.968370
  0
VERTEX
  8
PLAN_1
 62
     2
  6
CONTINUOUS
 10
-0.648461
 20
-2.964307
  0
VERTEX
  8
PLAN_1
 62
     2
  6
CONTINUOUS
 10
-0.650201
 20
-2.960827
  0
VERTEX
  8
PLAN_1
 62
     2
  6
CONTINUOUS
 10
-0.651945
 20
-2.958504
  0
VERTEX
  8
PLAN_1
 62
     2
  6
CONTINUOUS
 10
-0.654264
 20
-2.956764
  0
VERTEX
  8
PLAN_1
 62
     2
  6
CONTINUOUS
 10
-0.657165
 20
-2.955602
  0
VERTEX
  8
PLAN_1
 62
     2
  6
CONTINUOUS
 10
-0.660067
 20
-2.955024
  0
VERTEX
  8
PLAN_1
 62
     2
  6
CONTINUOUS
 10
-0.662969
 20
-2.955024
  0
VERTEX
  8
PLAN_1
 62
     2
  6
CONTINUOUS
 10
-0.665287
 20
-2.955024
  0
VERTEX
  8
PLAN_1
 62
     2
  6
CONTINUOUS
 10
-0.665870
 20
-2.955024
  0
VERTEX
  8
PLAN_1
 62
     2
  6
CONTINUOUS
 10
-0.666449
 20
-2.955024
  0
VERTEX
  8
PLAN_1
 62
     2
  6
CONTINUOUS
 10
-0.667031
 20
-2.955024
  0
VERTEX
  8
PLAN_1
 62
     2
  6
CONTINUOUS
 10
-0.667610
 20
-2.955024
  0
VERTEX
  8
PLAN_1
 62
     2
  6
CONTINUOUS
 10
-0.668189
 20
-2.955024
  0
VERTEX
  8
PLAN_1
 62
     2
  6
CONTINUOUS
 10
-0.668772
 20
-2.955024
  0
VERTEX
  8
PLAN_1
 62
     2
  6
CONTINUOUS
 10
-0.669350
 20
-2.955024
  0
VERTEX
  8
PLAN_1
 62
     2
  6
CONTINUOUS
 10
-0.669350
 20
-2.946902
  0
SEQEND
  8
0
  0
POLYLINE
  8
PLAN_1
 62
     2
  6
CONTINUOUS
 66
     1
 40
0.003000
 41
0.003000
  0
VERTEX
  8
PLAN_1
 62
     2
  6
CONTINUOUS
 10
-0.611323
 20
-2.946902
  0
VERTEX
  8
PLAN_1
 62
     2
  6
CONTINUOUS
 10
-0.610744
 20
-2.946902
  0
VERTEX
  8
PLAN_1
 62
     2
  6
CONTINUOUS
 10
-0.610165
 20
-2.946902
  0
VERTEX
  8
PLAN_1
 62
     2
  6
CONTINUOUS
 10
-0.609583
 20
-2.946902
  0
VERTEX
  8
PLAN_1
 62
     2
  6
CONTINUOUS
 10
-0.609004
 20
-2.947480
  0
VERTEX
  8
PLAN_1
 62
     2
  6
CONTINUOUS
 10
-0.608421
 20
-2.947480
  0
VERTEX
  8
PLAN_1
 62
     2
  6
CONTINUOUS
 10
-0.607843
 20
-2.947480
  0
VERTEX
  8
PLAN_1
 62
     2
  6
CONTINUOUS
 10
-0.607264
 20
-2.947480
  0
VERTEX
  8
PLAN_1
 62
     2
  6
CONTINUOUS
 10
-0.606681
 20
-2.947480
  0
VERTEX
  8
PLAN_1
 62
     2
  6
CONTINUOUS
 10
-0.604362
 20
-2.946902
  0
VERTEX
  8
PLAN_1
 62
     2
  6
CONTINUOUS
 10
-0.601461
 20
-2.946902
  0
VERTEX
  8
PLAN_1
 62
     2
  6
CONTINUOUS
 10
-0.599138
 20
-2.945740
  0
VERTEX
  8
PLAN_1
 62
     2
  6
CONTINUOUS
 10
-0.597398
 20
-2.944579
  0
VERTEX
  8
PLAN_1
 62
     2
  6
CONTINUOUS
 10
-0.595079
 20
-2.942839
  0
VERTEX
  8
PLAN_1
 62
     2
  6
CONTINUOUS
 10
-0.593917
 20
-2.941098
  0
VERTEX
  8
PLAN_1
 62
     2
  6
CONTINUOUS
 10
-0.593335
 20
-2.938197
  0
VERTEX
  8
PLAN_1
 62
     2
  6
CONTINUOUS
 10
-0.592756
 20
-2.935295
  0
VERTEX
  8
PLAN_1
 62
     2
  6
CONTINUOUS
 10
-0.592756
 20
-2.933555
  0
VERTEX
  8
PLAN_1
 62
     2
  6
CONTINUOUS
 10
-0.593335
 20
-2.931811
  0
VERTEX
  8
PLAN_1
 62
     2
  6
CONTINUOUS
 10
-0.594496
 20
-2.929492
  0
VERTEX
  8
PLAN_1
 62
     2
  6
CONTINUOUS
 10
-0.595657
 20
-2.927752
  0
VERTEX
  8
PLAN_1
 62
     2
  6
CONTINUOUS
 10
-0.597398
 20
-2.926012
  0
VERTEX
  8
PLAN_1
 62
     2
  6
CONTINUOUS
 10
-0.599720
 20
-2.924850
  0
VERTEX
  8
PLAN_1
 62
     2
  6
CONTINUOUS
 10
-0.602622
 20
-2.924268
  0
VERTEX
  8
PLAN_1
 62
     2
  6
CONTINUOUS
 10
-0.606102
 20
-2.923689
  0
VERTEX
  8
PLAN_1
 62
     2
  6
CONTINUOUS
 10
-0.610744
 20
-2.924268
  0
VERTEX
  8
PLAN_1
 62
     2
  6
CONTINUOUS
 10
-0.614224
 20
-2.925429
  0
VERTEX
  8
PLAN_1
 62
     2
  6
CONTINUOUS
 10
-0.616547
 20
-2.927169
  0
VERTEX
  8
PLAN_1
 62
     2
  6
CONTINUOUS
 10
-0.618287
 20
-2.929492
  0
VERTEX
  8
PLAN_1
 62
     2
  6
CONTINUOUS
 10
-0.619449
 20
-2.932394
  0
VERTEX
  8
PLAN_1
 62
     2
  6
CONTINUOUS
 10
-0.620028
 20
-2.934713
  0
VERTEX
  8
PLAN_1
 62
     2
  6
CONTINUOUS
 10
-0.620610
 20
-2.937614
  0
VERTEX
  8
PLAN_1
 62
     2
  6
CONTINUOUS
 10
-0.620610
 20
-2.939354
  0
VERTEX
  8
PLAN_1
 62
     2
  6
CONTINUOUS
 10
-0.629311
 20
-2.939354
  0
VERTEX
  8
PLAN_1
 62
     2
  6
CONTINUOUS
 10
-0.629311
 20
-2.935295
  0
VERTEX
  8
PLAN_1
 62
     2
  6
CONTINUOUS
 10
-0.628732
 20
-2.931232
  0
VERTEX
  8
PLAN_1
 62
     2
  6
CONTINUOUS
 10
-0.626992
 20
-2.927169
  0
VERTEX
  8
PLAN_1
 62
     2
  6
CONTINUOUS
 10
-0.624669
 20
-2.923689
  0
VERTEX
  8
PLAN_1
 62
     2
  6
CONTINUOUS
 10
-0.623512
 20
-2.921949
  0
VERTEX
  8
PLAN_1
 62
     2
  6
CONTINUOUS
 10
-0.621768
 20
-2.920209
  0
VERTEX
  8
PLAN_1
 62
     2
  6
CONTINUOUS
 10
-0.620028
 20
-2.919047
  0
VERTEX
  8
PLAN_1
 62
     2
  6
CONTINUOUS
 10
-0.617709
 20
-2.917886
  0
VERTEX
  8
PLAN_1
 62
     2
  6
CONTINUOUS
 10
-0.615386
 20
-2.916724
  0
VERTEX
  8
PLAN_1
 62
     2
  6
CONTINUOUS
 10
-0.612484
 20
-2.916146
  0
VERTEX
  8
PLAN_1
 62
     2
  6
CONTINUOUS
 10
-0.609583
 20
-2.915567
  0
VERTEX
  8
PLAN_1
 62
     2
  6
CONTINUOUS
 10
-0.606102
 20
-2.915567
  0
VERTEX
  8
PLAN_1
 62
     2
  6
CONTINUOUS
 10
-0.600878
 20
-2.916146
  0
VERTEX
  8
PLAN_1
 62
     2
  6
CONTINUOUS
 10
-0.596236
 20
-2.916724
  0
VERTEX
  8
PLAN_1
 62
     2
  6
CONTINUOUS
 10
-0.592756
 20
-2.918469
  0
VERTEX
  8
PLAN_1
 62
     2
  6
CONTINUOUS
 10
-0.589276
 20
-2.920787
  0
VERTEX
  8
PLAN_1
 62
     2
  6
CONTINUOUS
 10
-0.586953
 20
-2.923689
  0
VERTEX
  8
PLAN_1
 62
     2
  6
CONTINUOUS
 10
-0.584634
 20
-2.927169
  0
VERTEX
  8
PLAN_1
 62
     2
  6
CONTINUOUS
 10
-0.583472
 20
-2.930654
  0
VERTEX
  8
PLAN_1
 62
     2
  6
CONTINUOUS
 10
-0.583472
 20
-2.934713
  0
VERTEX
  8
PLAN_1
 62
     2
  6
CONTINUOUS
 10
-0.583472
 20
-2.938197
  0
VERTEX
  8
PLAN_1
 62
     2
  6
CONTINUOUS
 10
-0.584051
 20
-2.941098
  0
VERTEX
  8
PLAN_1
 62
     2
  6
CONTINUOUS
 10
-0.585213
 20
-2.943417
  0
VERTEX
  8
PLAN_1
 62
     2
  6
CONTINUOUS
 10
-0.586374
 20
-2.945157
  0
VERTEX
  8
PLAN_1
 62
     2
  6
CONTINUOUS
 10
-0.588114
 20
-2.946902
  0
VERTEX
  8
PLAN_1
 62
     2
  6
CONTINUOUS
 10
-0.589854
 20
-2.948059
  0
VERTEX
  8
PLAN_1
 62
     2
  6
CONTINUOUS
 10
-0.591016
 20
-2.949220
  0
VERTEX
  8
PLAN_1
 62
     2
  6
CONTINUOUS
 10
-0.592756
 20
-2.949799
  0
VERTEX
  8
PLAN_1
 62
     2
  6
CONTINUOUS
 10
-0.590433
 20
-2.950961
  0
VERTEX
  8
PLAN_1
 62
     2
  6
CONTINUOUS
 10
-0.588114
 20
-2.952122
  0
VERTEX
  8
PLAN_1
 62
     2
  6
CONTINUOUS
 10
-0.585791
 20
-2.953862
  0
VERTEX
  8
PLAN_1
 62
     2
  6
CONTINUOUS
 10
-0.584051
 20
-2.955602
  0
VERTEX
  8
PLAN_1
 62
     2
  6
CONTINUOUS
 10
-0.582311
 20
-2.957925
  0
VERTEX
  8
PLAN_1
 62
     2
  6
CONTINUOUS
 10
-0.581732
 20
-2.960827
  0
VERTEX
  8
PLAN_1
 62
     2
  6
CONTINUOUS
 10
-0.580571
 20
-2.963728
  0
VERTEX
  8
PLAN_1
 62
     2
  6
CONTINUOUS
 10
-0.580571
 20
-2.967209
  0
VERTEX
  8
PLAN_1
 62
     2
  6
CONTINUOUS
 10
-0.581150
 20
-2.971850
  0
VERTEX
  8
PLAN_1
 62
     2
  6
CONTINUOUS
 10
-0.582311
 20
-2.975913
  0
VERTEX
  8
PLAN_1
 62
     2
  6
CONTINUOUS
 10
-0.584051
 20
-2.979976
  0
VERTEX
  8
PLAN_1
 62
     2
  6
CONTINUOUS
 10
-0.586953
 20
-2.983457
  0
VERTEX
  8
PLAN_1
 62
     2
  6
CONTINUOUS
 10
-0.590433
 20
-2.986358
  0
VERTEX
  8
PLAN_1
 62
     2
  6
CONTINUOUS
 10
-0.595079
 20
-2.988677
  0
VERTEX
  8
PLAN_1
 62
     2
  6
CONTINUOUS
 10
-0.600299
 20
-2.990421
  0
VERTEX
  8
PLAN_1
 62
     2
  6
CONTINUOUS
 10
-0.606681
 20
-2.990421
  0
VERTEX
  8
PLAN_1
 62
     2
  6
CONTINUOUS
 10
-0.609004
 20
-2.990421
  0
VERTEX
  8
PLAN_1
 62
     2
  6
CONTINUOUS
 10
-0.610744
 20
-2.990421
  0
VERTEX
  8
PLAN_1
 62
     2
  6
CONTINUOUS
 10
-0.612484
 20
-2.990421
  0
VERTEX
  8
PLAN_1
 62
     2
  6
CONTINUOUS
 10
-0.614224
 20
-2.989839
  0
VERTEX
  8
PLAN_1
 62
     2
  6
CONTINUOUS
 10
-0.615969
 20
-2.989260
  0
VERTEX
  8
PLAN_1
 62
     2
  6
CONTINUOUS
 10
-0.617709
 20
-2.988677
  0
VERTEX
  8
PLAN_1
 62
     2
  6
CONTINUOUS
 10
-0.618866
 20
-2.988098
  0
VERTEX
  8
PLAN_1
 62
     2
  6
CONTINUOUS
 10
-0.620610
 20
-2.987520
  0
VERTEX
  8
PLAN_1
 62
     2
  6
CONTINUOUS
 10
-0.622929
 20
-2.985780
  0
VERTEX
  8
PLAN_1
 62
     2
  6
CONTINUOUS
 10
-0.625252
 20
-2.983457
  0
VERTEX
  8
PLAN_1
 62
     2
  6
CONTINUOUS
 10
-0.626992
 20
-2.981134
  0
VERTEX
  8
PLAN_1
 62
     2
  6
CONTINUOUS
 10
-0.628732
 20
-2.978232
  0
VERTEX
  8
PLAN_1
 62
     2
  6
CONTINUOUS
 10
-0.629894
 20
-2.975335
  0
VERTEX
  8
PLAN_1
 62
     2
  6
CONTINUOUS
 10
-0.630472
 20
-2.972433
  0
VERTEX
  8
PLAN_1
 62
     2
  6
CONTINUOUS
 10
-0.631055
 20
-2.969531
  0
VERTEX
  8
PLAN_1
 62
     2
  6
CONTINUOUS
 10
-0.631055
 20
-2.966047
  0
VERTEX
  8
PLAN_1
 62
     2
  6
CONTINUOUS
 10
-0.621768
 20
-2.966047
  0
VERTEX
  8
PLAN_1
 62
     2
  6
CONTINUOUS
 10
-0.621768
 20
-2.968949
  0
VERTEX
  8
PLAN_1
 62
     2
  6
CONTINUOUS
 10
-0.621189
 20
-2.971850
  0
VERTEX
  8
PLAN_1
 62
     2
  6
CONTINUOUS
 10
-0.620610
 20
-2.974173
  0
VERTEX
  8
PLAN_1
 62
     2
  6
CONTINUOUS
 10
-0.618866
 20
-2.977075
  0
VERTEX
  8
PLAN_1
 62
     2
  6
CONTINUOUS
 10
-0.617126
 20
-2.979394
  0
VERTEX
  8
PLAN_1
 62
     2
  6
CONTINUOUS
 10
-0.614224
 20
-2.981134
  0
VERTEX
  8
PLAN_1
 62
     2
  6
CONTINUOUS
 10
-0.610744
 20
-2.982295
  0
VERTEX
  8
PLAN_1
 62
     2
  6
CONTINUOUS
 10
-0.606102
 20
-2.982295
  0
VERTEX
  8
PLAN_1
 62
     2
  6
CONTINUOUS
 10
-0.602622
 20
-2.982295
  0
VERTEX
  8
PLAN_1
 62
     2
  6
CONTINUOUS
 10
-0.599720
 20
-2.981134
  0
VERTEX
  8
PLAN_1
 62
     2
  6
CONTINUOUS
 10
-0.596819
 20
-2.979976
  0
VERTEX
  8
PLAN_1
 62
     2
  6
CONTINUOUS
 10
-0.594496
 20
-2.978232
  0
VERTEX
  8
PLAN_1
 62
     2
  6
CONTINUOUS
 10
-0.592756
 20
-2.976492
  0
VERTEX
  8
PLAN_1
 62
     2
  6
CONTINUOUS
 10
-0.591594
 20
-2.974173
  0
VERTEX
  8
PLAN_1
 62
     2
  6
CONTINUOUS
 10
-0.590433
 20
-2.971272
  0
VERTEX
  8
PLAN_1
 62
     2
  6
CONTINUOUS
 10
-0.590433
 20
-2.968370
  0
VERTEX
  8
PLAN_1
 62
     2
  6
CONTINUOUS
 10
-0.591016
 20
-2.964307
  0
VERTEX
  8
PLAN_1
 62
     2
  6
CONTINUOUS
 10
-0.592177
 20
-2.960827
  0
VERTEX
  8
PLAN_1
 62
     2
  6
CONTINUOUS
 10
-0.593917
 20
-2.958504
  0
VERTEX
  8
PLAN_1
 62
     2
  6
CONTINUOUS
 10
-0.596236
 20
-2.956764
  0
VERTEX
  8
PLAN_1
 62
     2
  6
CONTINUOUS
 10
-0.599138
 20
-2.955602
  0
VERTEX
  8
PLAN_1
 62
     2
  6
CONTINUOUS
 10
-0.602039
 20
-2.955024
  0
VERTEX
  8
PLAN_1
 62
     2
  6
CONTINUOUS
 10
-0.604941
 20
-2.955024
  0
VERTEX
  8
PLAN_1
 62
     2
  6
CONTINUOUS
 10
-0.607264
 20
-2.955024
  0
VERTEX
  8
PLAN_1
 62
     2
  6
CONTINUOUS
 10
-0.607843
 20
-2.955024
  0
VERTEX
  8
PLAN_1
 62
     2
  6
CONTINUOUS
 10
-0.608421
 20
-2.955024
  0
VERTEX
  8
PLAN_1
 62
     2
  6
CONTINUOUS
 10
-0.609004
 20
-2.955024
  0
VERTEX
  8
PLAN_1
 62
     2
  6
CONTINUOUS
 10
-0.609583
 20
-2.955024
  0
VERTEX
  8
PLAN_1
 62
     2
  6
CONTINUOUS
 10
-0.610165
 20
-2.955024
  0
VERTEX
  8
PLAN_1
 62
     2
  6
CONTINUOUS
 10
-0.610744
 20
-2.955024
  0
VERTEX
  8
PLAN_1
 62
     2
  6
CONTINUOUS
 10
-0.611323
 20
-2.955024
  0
VERTEX
  8
PLAN_1
 62
     2
  6
CONTINUOUS
 10
-0.611323
 20
-2.946902
  0
SEQEND
  8
0
  0
POLYLINE
  8
PLAN_1
 62
     2
  6
CONTINUOUS
 66
     1
 40
0.003000
 41
0.003000
  0
VERTEX
  8
PLAN_1
 62
     2
  6
CONTINUOUS
 10
-0.567803
 20
-2.977654
  0
VERTEX
  8
PLAN_1
 62
     2
  6
CONTINUOUS
 10
-0.557358
 20
-2.977654
  0
VERTEX
  8
PLAN_1
 62
     2
  6
CONTINUOUS
 10
-0.557358
 20
-2.988098
  0
VERTEX
  8
PLAN_1
 62
     2
  6
CONTINUOUS
 10
-0.557358
 20
-2.992740
  0
VERTEX
  8
PLAN_1
 62
     2
  6
CONTINUOUS
 10
-0.558520
 20
-2.996220
  0
VERTEX
  8
PLAN_1
 62
     2
  6
CONTINUOUS
 10
-0.559681
 20
-2.999122
  0
VERTEX
  8
PLAN_1
 62
     2
  6
CONTINUOUS
 10
-0.562000
 20
-3.000866
  0
VERTEX
  8
PLAN_1
 62
     2
  6
CONTINUOUS
 10
-0.563744
 20
-3.002606
  0
VERTEX
  8
PLAN_1
 62
     2
  6
CONTINUOUS
 10
-0.565484
 20
-3.003185
  0
VERTEX
  8
PLAN_1
 62
     2
  6
CONTINUOUS
 10
-0.566646
 20
-3.003768
  0
VERTEX
  8
PLAN_1
 62
     2
  6
CONTINUOUS
 10
-0.567803
 20
-3.003768
  0
VERTEX
  8
PLAN_1
 62
     2
  6
CONTINUOUS
 10
-0.567803
 20
-2.999122
  0
VERTEX
  8
PLAN_1
 62
     2
  6
CONTINUOUS
 10
-0.566646
 20
-2.998543
  0
VERTEX
  8
PLAN_1
 62
     2
  6
CONTINUOUS
 10
-0.565484
 20
-2.997965
  0
VERTEX
  8
PLAN_1
 62
     2
  6
CONTINUOUS
 10
-0.564323
 20
-2.996803
  0
VERTEX
  8
PLAN_1
 62
     2
  6
CONTINUOUS
 10
-0.563744
 20
-2.995642
  0
VERTEX
  8
PLAN_1
 62
     2
  6
CONTINUOUS
 10
-0.563161
 20
-2.993902
  0
VERTEX
  8
PLAN_1
 62
     2
  6
CONTINUOUS
 10
-0.562583
 20
-2.992161
  0
VERTEX
  8
PLAN_1
 62
     2
  6
CONTINUOUS
 10
-0.562583
 20
-2.990421
  0
VERTEX
  8
PLAN_1
 62
     2
  6
CONTINUOUS
 10
-0.562583
 20
-2.988677
  0
VERTEX
  8
PLAN_1
 62
     2
  6
CONTINUOUS
 10
-0.567803
 20
-2.988677
  0
VERTEX
  8
PLAN_1
 62
     2
  6
CONTINUOUS
 10
-0.567803
 20
-2.977654
  0
SEQEND
  8
0
  0
POLYLINE
  8
PLAN_1
 62
     2
  6
CONTINUOUS
 66
     1
 40
0.003000
 41
0.003000
  0
VERTEX
  8
PLAN_1
 62
     2
  6
CONTINUOUS
 10
-0.532988
 20
-2.946319
  0
VERTEX
  8
PLAN_1
 62
     2
  6
CONTINUOUS
 10
-0.531248
 20
-2.945157
  0
VERTEX
  8
PLAN_1
 62
     2
  6
CONTINUOUS
 10
-0.530087
 20
-2.944579
  0
VERTEX
  8
PLAN_1
 62
     2
  6
CONTINUOUS
 10
-0.528346
 20
-2.943417
  0
VERTEX
  8
PLAN_1
 62
     2
  6
CONTINUOUS
 10
-0.527185
 20
-2.942839
  0
VERTEX
  8
PLAN_1
 62
     2
  6
CONTINUOUS
 10
-0.524866
 20
-2.942256
  0
VERTEX
  8
PLAN_1
 62
     2
  6
CONTINUOUS
 10
-0.523122
 20
-2.941677
  0
VERTEX
  8
PLAN_1
 62
     2
  6
CONTINUOUS
 10
-0.520803
 20
-2.941677
  0
VERTEX
  8
PLAN_1
 62
     2
  6
CONTINUOUS
 10
-0.518480
 20
-2.941677
  0
VERTEX
  8
PLAN_1
 62
     2
  6
CONTINUOUS
 10
-0.514421
 20
-2.941677
  0
VERTEX
  8
PLAN_1
 62
     2
  6
CONTINUOUS
 10
-0.509780
 20
-2.942839
  0
VERTEX
  8
PLAN_1
 62
     2
  6
CONTINUOUS
 10
-0.505717
 20
-2.945157
  0
VERTEX
  8
PLAN_1
 62
     2
  6
CONTINUOUS
 10
-0.502232
 20
-2.947480
  0
VERTEX
  8
PLAN_1
 62
     2
  6
CONTINUOUS
 10
-0.498752
 20
-2.950961
  0
VERTEX
  8
PLAN_1
 62
     2
  6
CONTINUOUS
 10
-0.496433
 20
-2.955024
  0
VERTEX
  8
PLAN_1
 62
     2
  6
CONTINUOUS
 10
-0.495272
 20
-2.959665
  0
VERTEX
  8
PLAN_1
 62
     2
  6
CONTINUOUS
 10
-0.494689
 20
-2.964890
  0
VERTEX
  8
PLAN_1
 62
     2
  6
CONTINUOUS
 10
-0.494689
 20
-2.968370
  0
VERTEX
  8
PLAN_1
 62
     2
  6
CONTINUOUS
 10
-0.495272
 20
-2.972433
  0
VERTEX
  8
PLAN_1
 62
     2
  6
CONTINUOUS
 10
-0.497012
 20
-2.976492
  0
VERTEX
  8
PLAN_1
 62
     2
  6
CONTINUOUS
 10
-0.499335
 20
-2.981134
  0
VERTEX
  8
PLAN_1
 62
     2
  6
CONTINUOUS
 10
-0.501075
 20
-2.982878
  0
VERTEX
  8
PLAN_1
 62
     2
  6
CONTINUOUS
 10
-0.502815
 20
-2.984618
  0
VERTEX
  8
PLAN_1
 62
     2
  6
CONTINUOUS
 10
-0.504555
 20
-2.986358
  0
VERTEX
  8
PLAN_1
 62
     2
  6
CONTINUOUS
 10
-0.507457
 20
-2.987520
  0
VERTEX
  8
PLAN_1
 62
     2
  6
CONTINUOUS
 10
-0.510358
 20
-2.989260
  0
VERTEX
  8
PLAN_1
 62
     2
  6
CONTINUOUS
 10
-0.513260
 20
-2.989839
  0
VERTEX
  8
PLAN_1
 62
     2
  6
CONTINUOUS
 10
-0.516740
 20
-2.990421
  0
VERTEX
  8
PLAN_1
 62
     2
  6
CONTINUOUS
 10
-0.520803
 20
-2.990421
  0
VERTEX
  8
PLAN_1
 62
     2
  6
CONTINUOUS
 10
-0.524866
 20
-2.990421
  0
VERTEX
  8
PLAN_1
 62
     2
  6
CONTINUOUS
 10
-0.528346
 20
-2.989839
  0
VERTEX
  8
PLAN_1
 62
     2
  6
CONTINUOUS
 10
-0.532409
 20
-2.988677
  0
VERTEX
  8
PLAN_1
 62
     2
  6
CONTINUOUS
 10
-0.535890
 20
-2.986937
  0
VERTEX
  8
PLAN_1
 62
     2
  6
CONTINUOUS
 10
-0.538791
 20
-2.984035
  0
VERTEX
  8
PLAN_1
 62
     2
  6
CONTINUOUS
 10
-0.541693
 20
-2.980555
  0
VERTEX
  8
PLAN_1
 62
     2
  6
CONTINUOUS
 10
-0.543433
 20
-2.975913
  0
VERTEX
  8
PLAN_1
 62
     2
  6
CONTINUOUS
 10
-0.544594
 20
-2.970689
  0
VERTEX
  8
PLAN_1
 62
     2
  6
CONTINUOUS
 10
-0.535311
 20
-2.970689
  0
VERTEX
  8
PLAN_1
 62
     2
  6
CONTINUOUS
 10
-0.534728
 20
-2.973591
  0
VERTEX
  8
PLAN_1
 62
     2
  6
CONTINUOUS
 10
-0.533567
 20
-2.975913
  0
VERTEX
  8
PLAN_1
 62
     2
  6
CONTINUOUS
 10
-0.531827
 20
-2.978232
  0
VERTEX
  8
PLAN_1
 62
     2
  6
CONTINUOUS
 10
-0.530087
 20
-2.979976
  0
VERTEX
  8
PLAN_1
 62
     2
  6
CONTINUOUS
 10
-0.527768
 20
-2.981134
  0
VERTEX
  8
PLAN_1
 62
     2
  6
CONTINUOUS
 10
-0.525445
 20
-2.982295
  0
VERTEX
  8
PLAN_1
 62
     2
  6
CONTINUOUS
 10
-0.522543
 20
-2.982295
  0
VERTEX
  8
PLAN_1
 62
     2
  6
CONTINUOUS
 10
-0.519642
 20
-2.982878
  0
VERTEX
  8
PLAN_1
 62
     2
  6
CONTINUOUS
 10
-0.516161
 20
-2.982295
  0
VERTEX
  8
PLAN_1
 62
     2
  6
CONTINUOUS
 10
-0.513260
 20
-2.981134
  0
VERTEX
  8
PLAN_1
 62
     2
  6
CONTINUOUS
 10
-0.510937
 20
-2.979976
  0
VERTEX
  8
PLAN_1
 62
     2
  6
CONTINUOUS
 10
-0.508618
 20
-2.977654
  0
VERTEX
  8
PLAN_1
 62
     2
  6
CONTINUOUS
 10
-0.506878
 20
-2.975335
  0
VERTEX
  8
PLAN_1
 62
     2
  6
CONTINUOUS
 10
-0.505134
 20
-2.972433
  0
VERTEX
  8
PLAN_1
 62
     2
  6
CONTINUOUS
 10
-0.504555
 20
-2.969531
  0
VERTEX
  8
PLAN_1
 62
     2
  6
CONTINUOUS
 10
-0.504555
 20
-2.966047
  0
VERTEX
  8
PLAN_1
 62
     2
  6
CONTINUOUS
 10
-0.504555
 20
-2.962567
  0
VERTEX
  8
PLAN_1
 62
     2
  6
CONTINUOUS
 10
-0.505717
 20
-2.959087
  0
VERTEX
  8
PLAN_1
 62
     2
  6
CONTINUOUS
 10
-0.506878
 20
-2.956185
  0
VERTEX
  8
PLAN_1
 62
     2
  6
CONTINUOUS
 10
-0.509197
 20
-2.953862
  0
VERTEX
  8
PLAN_1
 62
     2
  6
CONTINUOUS
 10
-0.511520
 20
-2.952122
  0
VERTEX
  8
PLAN_1
 62
     2
  6
CONTINUOUS
 10
-0.514421
 20
-2.950961
  0
VERTEX
  8
PLAN_1
 62
     2
  6
CONTINUOUS
 10
-0.517323
 20
-2.949799
  0
VERTEX
  8
PLAN_1
 62
     2
  6
CONTINUOUS
 10
-0.520803
 20
-2.949799
  0
VERTEX
  8
PLAN_1
 62
     2
  6
CONTINUOUS
 10
-0.522543
 20
-2.949799
  0
VERTEX
  8
PLAN_1
 62
     2
  6
CONTINUOUS
 10
-0.524283
 20
-2.950382
  0
VERTEX
  8
PLAN_1
 62
     2
  6
CONTINUOUS
 10
-0.526024
 20
-2.950961
  0
VERTEX
  8
PLAN_1
 62
     2
  6
CONTINUOUS
 10
-0.527768
 20
-2.951543
  0
VERTEX
  8
PLAN_1
 62
     2
  6
CONTINUOUS
 10
-0.529508
 20
-2.952701
  0
VERTEX
  8
PLAN_1
 62
     2
  6
CONTINUOUS
 10
-0.531248
 20
-2.953862
  0
VERTEX
  8
PLAN_1
 62
     2
  6
CONTINUOUS
 10
-0.532988
 20
-2.955024
  0
VERTEX
  8
PLAN_1
 62
     2
  6
CONTINUOUS
 10
-0.534150
 20
-2.956764
  0
VERTEX
  8
PLAN_1
 62
     2
  6
CONTINUOUS
 10
-0.541693
 20
-2.956185
  0
VERTEX
  8
PLAN_1
 62
     2
  6
CONTINUOUS
 10
-0.536469
 20
-2.917307
  0
VERTEX
  8
PLAN_1
 62
     2
  6
CONTINUOUS
 10
-0.498752
 20
-2.917307
  0
VERTEX
  8
PLAN_1
 62
     2
  6
CONTINUOUS
 10
-0.498752
 20
-2.926012
  0
VERTEX
  8
PLAN_1
 62
     2
  6
CONTINUOUS
 10
-0.529508
 20
-2.926012
  0
VERTEX
  8
PLAN_1
 62
     2
  6
CONTINUOUS
 10
-0.532988
 20
-2.946319
  0
SEQEND
  8
0
  0
POLYLINE
  8
PLAN_1
 62
     2
  6
CONTINUOUS
 66
     1
 40
0.004059
 41
0.004059
  0
VERTEX
  8
PLAN_1
 62
     2
  6
CONTINUOUS
 10
-2.245937
 20
1.381898
  0
VERTEX
  8
PLAN_1
 62
     2
  6
CONTINUOUS
 10
-2.245937
 20
-3.202217
  0
SEQEND
  8
0
  0
POLYLINE
  8
PLAN_1
 62
     2
  6
CONTINUOUS
 66
     1
 40
0.004059
 41
0.004059
  0
VERTEX
  8
PLAN_1
 62
     2
  6
CONTINUOUS
 10
-2.216343
 20
-3.169720
  0
VERTEX
  8
PLAN_1
 62
     2
  6
CONTINUOUS
 10
0.083256
 20
-3.169720
  0
SEQEND
  8
0
  0
SOLID
  8
PLAN_1
 62
     2
 10
0.112850
 20
-3.169720
 11
0.053661
 21
-3.154055
 12
0.112850
 22
-3.169720
 13
0.053661
 23
-3.185390
  0
POLYLINE
  8
PLAN_1
 62
     2
  6
CONTINUOUS
 66
     1
 40
0.003000
 41
0.003000
  0
VERTEX
  8
PLAN_1
 62
     2
  6
CONTINUOUS
 10
0.112850
 20
-3.169720
  0
VERTEX
  8
PLAN_1
 62
     2
  6
CONTINUOUS
 10
0.053661
 20
-3.154055
  0
VERTEX
  8
PLAN_1
 62
     2
  6
CONTINUOUS
 10
0.053661
 20
-3.185390
  0
VERTEX
  8
PLAN_1
 62
     2
  6
CONTINUOUS
 10
0.112850
 20
-3.169720
  0
SEQEND
  8
0
  0
SOLID
  8
PLAN_1
 62
     2
 10
-2.245937
 20
-3.169720
 11
-2.186752
 21
-3.154055
 12
-2.245937
 22
-3.169720
 13
-2.186752
 23
-3.185390
  0
POLYLINE
  8
PLAN_1
 62
     2
  6
CONTINUOUS
 66
     1
 40
0.003000
 41
0.003000
  0
VERTEX
  8
PLAN_1
 62
     2
  6
CONTINUOUS
 10
-2.245937
 20
-3.169720
  0
VERTEX
  8
PLAN_1
 62
     2
  6
CONTINUOUS
 10
-2.186752
 20
-3.154055
  0
VERTEX
  8
PLAN_1
 62
     2
  6
CONTINUOUS
 10
-2.186752
 20
-3.185390
  0
VERTEX
  8
PLAN_1
 62
     2
  6
CONTINUOUS
 10
-2.245937
 20
-3.169720
  0
SEQEND
  8
0
  0
POLYLINE
  8
PLAN_1
 62
     2
  6
CONTINUOUS
 66
     1
 40
0.004059
 41
0.004059
  0
VERTEX
  8
PLAN_1
 62
     2
  6
CONTINUOUS
 10
0.296795
 20
-2.385201
  0
VERTEX
  8
PLAN_1
 62
     2
  6
CONTINUOUS
 10
0.115752
 20
-2.385201
  0
SEQEND
  8
0
  0
POLYLINE
  8
PLAN_1
 62
     2
  6
CONTINUOUS
 66
     1
 40
0.004059
 41
0.004059
  0
VERTEX
  8
PLAN_1
 62
     2
  6
CONTINUOUS
 10
0.073390
 20
4.388264
  0
VERTEX
  8
PLAN_1
 62
     2
  6
CONTINUOUS
 10
-1.731823
 20
4.388264
  0
SEQEND
  8
0
  0
POLYLINE
  8
PLAN_1
 62
     2
  6
CONTINUOUS
 66
     1
 40
0.004059
 41
0.004059
  0
VERTEX
  8
PLAN_1
 62
     2
  6
CONTINUOUS
 10
0.273004
 20
-2.355606
  0
VERTEX
  8
PLAN_1
 62
     2
  6
CONTINUOUS
 10
0.273004
 20
4.358669
  0
SEQEND
  8
0
  0
SOLID
  8
PLAN_1
 62
     2
 10
0.273004
 20
-2.385201
 11
0.257335
 21
-2.326012
 12
0.273004
 22
-2.385201
 13
0.289252
 23
-2.326012
  0
POLYLINE
  8
PLAN_1
 62
     2
  6
CONTINUOUS
 66
     1
 40
0.003000
 41
0.003000
  0
VERTEX
  8
PLAN_1
 62
     2
  6
CONTINUOUS
 10
0.273004
 20
-2.385201
  0
VERTEX
  8
PLAN_1
 62
     2
  6
CONTINUOUS
 10
0.257335
 20
-2.326012
  0
VERTEX
  8
PLAN_1
 62
     2
  6
CONTINUOUS
 10
0.289252
 20
-2.326012
  0
VERTEX
  8
PLAN_1
 62
     2
  6
CONTINUOUS
 10
0.273004
 20
-2.385201
  0
SEQEND
  8
0
  0
POLYLINE
  8
PLAN_1
 62
     2
  6
CONTINUOUS
 66
     1
 40
0.004059
 41
0.004059
  0
VERTEX
  8
PLAN_1
 62
     2
  6
CONTINUOUS
 10
0.296795
 20
4.388264
  0
VERTEX
  8
PLAN_1
 62
     2
  6
CONTINUOUS
 10
0.107626
 20
4.388264
  0
SEQEND
  8
0
  0
SOLID
  8
PLAN_1
 62
     2
 10
0.273004
 20
4.388264
 11
0.257335
 21
4.329075
 12
0.273004
 22
4.388264
 13
0.289252
 23
4.329075
  0
POLYLINE
  8
PLAN_1
 62
     2
  6
CONTINUOUS
 66
     1
 40
0.003000
 41
0.003000
  0
VERTEX
  8
PLAN_1
 62
     2
  6
CONTINUOUS
 10
0.273004
 20
4.388264
  0
VERTEX
  8
PLAN_1
 62
     2
  6
CONTINUOUS
 10
0.257335
 20
4.329075
  0
VERTEX
  8
PLAN_1
 62
     2
  6
CONTINUOUS
 10
0.289252
 20
4.329075
  0
VERTEX
  8
PLAN_1
 62
     2
  6
CONTINUOUS
 10
0.273004
 20
4.388264
  0
SEQEND
  8
0
  0
POLYLINE
  8
PLAN_1
 62
     2
  6
CONTINUOUS
 66
     1
 40
0.004059
 41
0.004059
  0
VERTEX
  8
PLAN_1
 62
     2
  6
CONTINUOUS
 10
-1.839169
 20
4.546094
  0
VERTEX
  8
PLAN_1
 62
     2
  6
CONTINUOUS
 10
0.055984
 20
4.546094
  0
SEQEND
  8
0
  0
SOLID
  8
PLAN_1
 62
     2
 10
0.085579
 20
4.546094
 11
0.026390
 21
4.561764
 12
0.085579
 22
4.546094
 13
0.026390
 23
4.530429
  0
POLYLINE
  8
PLAN_1
 62
     2
  6
CONTINUOUS
 66
     1
 40
0.003000
 41
0.003000
  0
VERTEX
  8
PLAN_1
 62
     2
  6
CONTINUOUS
 10
0.085579
 20
4.546094
  0
VERTEX
  8
PLAN_1
 62
     2
  6
CONTINUOUS
 10
0.026390
 20
4.561764
  0
VERTEX
  8
PLAN_1
 62
     2
  6
CONTINUOUS
 10
0.026390
 20
4.530429
  0
VERTEX
  8
PLAN_1
 62
     2
  6
CONTINUOUS
 10
0.085579
 20
4.546094
  0
SEQEND
  8
0
  0
SOLID
  8
PLAN_1
 62
     2
 10
-1.868764
 20
4.546094
 11
-1.809579
 21
4.561764
 12
-1.868764
 22
4.546094
 13
-1.809579
 23
4.530429
  0
POLYLINE
  8
PLAN_1
 62
     2
  6
CONTINUOUS
 66
     1
 40
0.003000
 41
0.003000
  0
VERTEX
  8
PLAN_1
 62
     2
  6
CONTINUOUS
 10
-1.868764
 20
4.546094
  0
VERTEX
  8
PLAN_1
 62
     2
  6
CONTINUOUS
 10
-1.809579
 20
4.561764
  0
VERTEX
  8
PLAN_1
 62
     2
  6
CONTINUOUS
 10
-1.809579
 20
4.530429
  0
VERTEX
  8
PLAN_1
 62
     2
  6
CONTINUOUS
 10
-1.868764
 20
4.546094
  0
SEQEND
  8
0
  0
POLYLINE
  8
PLAN_1
 62
     2
  6
CONTINUOUS
 66
     1
 40
0.003000
 41
0.003000
  0
VERTEX
  8
PLAN_1
 62
     2
  6
CONTINUOUS
 10
-0.905520
 20
4.587874
  0
VERTEX
  8
PLAN_1
 62
     2
  6
CONTINUOUS
 10
-0.905520
 20
4.569886
  0
VERTEX
  8
PLAN_1
 62
     2
  6
CONTINUOUS
 10
-0.914803
 20
4.569886
  0
VERTEX
  8
PLAN_1
 62
     2
  6
CONTINUOUS
 10
-0.914803
 20
4.587874
  0
VERTEX
  8
PLAN_1
 62
     2
  6
CONTINUOUS
 10
-0.946720
 20
4.587874
  0
VERTEX
  8
PLAN_1
 62
     2
  6
CONTINUOUS
 10
-0.946720
 20
4.596579
  0
VERTEX
  8
PLAN_1
 62
     2
  6
CONTINUOUS
 10
-0.913063
 20
4.643000
  0
VERTEX
  8
PLAN_1
 62
     2
  6
CONTINUOUS
 10
-0.905520
 20
4.643000
  0
VERTEX
  8
PLAN_1
 62
     2
  6
CONTINUOUS
 10
-0.905520
 20
4.595417
  0
VERTEX
  8
PLAN_1
 62
     2
  6
CONTINUOUS
 10
-0.895075
 20
4.595417
  0
VERTEX
  8
PLAN_1
 62
     2
  6
CONTINUOUS
 10
-0.895075
 20
4.587874
  0
VERTEX
  8
PLAN_1
 62
     2
  6
CONTINUOUS
 10
-0.905520
 20
4.587874
  0
SEQEND
  8
0
  0
SOLID
  8
PLAN_1
 62
     2
 10
-0.938016
 20
4.595417
 11
-0.914803
 21
4.595417
 12
-0.938016
 22
4.595417
 13
-0.914803
 23
4.628492
  0
POLYLINE
  8
PLAN_1
 62
     2
  6
CONTINUOUS
 66
     1
 40
0.003000
 41
0.003000
  0
VERTEX
  8
PLAN_1
 62
     2
  6
CONTINUOUS
 10
-0.938016
 20
4.595417
  0
VERTEX
  8
PLAN_1
 62
     2
  6
CONTINUOUS
 10
-0.914803
 20
4.595417
  0
VERTEX
  8
PLAN_1
 62
     2
  6
CONTINUOUS
 10
-0.914803
 20
4.628492
  0
VERTEX
  8
PLAN_1
 62
     2
  6
CONTINUOUS
 10
-0.938016
 20
4.595417
  0
SEQEND
  8
0
  0
POLYLINE
  8
PLAN_1
 62
     2
  6
CONTINUOUS
 66
     1
 40
0.003000
 41
0.003000
  0
VERTEX
  8
PLAN_1
 62
     2
  6
CONTINUOUS
 10
-0.849815
 20
4.608764
  0
VERTEX
  8
PLAN_1
 62
     2
  6
CONTINUOUS
 10
-0.846335
 20
4.607024
  0
VERTEX
  8
PLAN_1
 62
     2
  6
CONTINUOUS
 10
-0.843433
 20
4.605283
  0
VERTEX
  8
PLAN_1
 62
     2
  6
CONTINUOUS
 10
-0.841689
 20
4.602961
  0
VERTEX
  8
PLAN_1
 62
     2
  6
CONTINUOUS
 10
-0.839949
 20
4.600642
  0
VERTEX
  8
PLAN_1
 62
     2
  6
CONTINUOUS
 10
-0.838787
 20
4.597740
  0
VERTEX
  8
PLAN_1
 62
     2
  6
CONTINUOUS
 10
-0.838209
 20
4.595417
  0
VERTEX
  8
PLAN_1
 62
     2
  6
CONTINUOUS
 10
-0.837630
 20
4.593098
  0
VERTEX
  8
PLAN_1
 62
     2
  6
CONTINUOUS
 10
-0.837630
 20
4.590776
  0
VERTEX
  8
PLAN_1
 62
     2
  6
CONTINUOUS
 10
-0.838209
 20
4.586713
  0
VERTEX
  8
PLAN_1
 62
     2
  6
CONTINUOUS
 10
-0.839370
 20
4.582654
  0
VERTEX
  8
PLAN_1
 62
     2
  6
CONTINUOUS
 10
-0.841110
 20
4.578591
  0
VERTEX
  8
PLAN_1
 62
     2
  6
CONTINUOUS
 10
-0.843433
 20
4.575110
  0
VERTEX
  8
PLAN_1
 62
     2
  6
CONTINUOUS
 10
-0.846913
 20
4.572209
  0
VERTEX
  8
PLAN_1
 62
     2
  6
CONTINUOUS
 10
-0.850976
 20
4.569886
  0
VERTEX
  8
PLAN_1
 62
     2
  6
CONTINUOUS
 10
-0.856197
 20
4.568146
  0
VERTEX
  8
PLAN_1
 62
     2
  6
CONTINUOUS
 10
-0.862579
 20
4.568146
  0
VERTEX
  8
PLAN_1
 62
     2
  6
CONTINUOUS
 10
-0.864323
 20
4.568146
  0
VERTEX
  8
PLAN_1
 62
     2
  6
CONTINUOUS
 10
-0.866063
 20
4.568146
  0
VERTEX
  8
PLAN_1
 62
     2
  6
CONTINUOUS
 10
-0.868382
 20
4.568724
  0
VERTEX
  8
PLAN_1
 62
     2
  6
CONTINUOUS
 10
-0.870705
 20
4.568724
  0
VERTEX
  8
PLAN_1
 62
     2
  6
CONTINUOUS
 10
-0.873024
 20
4.569886
  0
VERTEX
  8
PLAN_1
 62
     2
  6
CONTINUOUS
 10
-0.875346
 20
4.570469
  0
VERTEX
  8
PLAN_1
 62
     2
  6
CONTINUOUS
 10
-0.877665
 20
4.572209
  0
VERTEX
  8
PLAN_1
 62
     2
  6
CONTINUOUS
 10
-0.879988
 20
4.573366
  0
VERTEX
  8
PLAN_1
 62
     2
  6
CONTINUOUS
 10
-0.882311
 20
4.575689
  0
VERTEX
  8
PLAN_1
 62
     2
  6
CONTINUOUS
 10
-0.884051
 20
4.578012
  0
VERTEX
  8
PLAN_1
 62
     2
  6
CONTINUOUS
 10
-0.885791
 20
4.580909
  0
VERTEX
  8
PLAN_1
 62
     2
  6
CONTINUOUS
 10
-0.886370
 20
4.583232
  0
VERTEX
  8
PLAN_1
 62
     2
  6
CONTINUOUS
 10
-0.886953
 20
4.585555
  0
VERTEX
  8
PLAN_1
 62
     2
  6
CONTINUOUS
 10
-0.887531
 20
4.587295
  0
VERTEX
  8
PLAN_1
 62
     2
  6
CONTINUOUS
 10
-0.887531
 20
4.589614
  0
VERTEX
  8
PLAN_1
 62
     2
  6
CONTINUOUS
 10
-0.887531
 20
4.590776
  0
VERTEX
  8
PLAN_1
 62
     2
  6
CONTINUOUS
 10
-0.887531
 20
4.594256
  0
VERTEX
  8
PLAN_1
 62
     2
  6
CONTINUOUS
 10
-0.886370
 20
4.597157
  0
VERTEX
  8
PLAN_1
 62
     2
  6
CONTINUOUS
 10
-0.885791
 20
4.599480
  0
VERTEX
  8
PLAN_1
 62
     2
  6
CONTINUOUS
 10
-0.884051
 20
4.601799
  0
VERTEX
  8
PLAN_1
 62
     2
  6
CONTINUOUS
 10
-0.882311
 20
4.604122
  0
VERTEX
  8
PLAN_1
 62
     2
  6
CONTINUOUS
 10
-0.879988
 20
4.605862
  0
VERTEX
  8
PLAN_1
 62
     2
  6
CONTINUOUS
 10
-0.877665
 20
4.607602
  0
VERTEX
  8
PLAN_1
 62
     2
  6
CONTINUOUS
 10
-0.875346
 20
4.608764
  0
VERTEX
  8
PLAN_1
 62
     2
  6
CONTINUOUS
 10
-0.877087
 20
4.609925
  0
VERTEX
  8
PLAN_1
 62
     2
  6
CONTINUOUS
 10
-0.879409
 20
4.611087
  0
VERTEX
  8
PLAN_1
 62
     2
  6
CONTINUOUS
 10
-0.881150
 20
4.612244
  0
VERTEX
  8
PLAN_1
 62
     2
  6
CONTINUOUS
 10
-0.882311
 20
4.613988
  0
VERTEX
  8
PLAN_1
 62
     2
  6
CONTINUOUS
 10
-0.883469
 20
4.615728
  0
VERTEX
  8
PLAN_1
 62
     2
  6
CONTINUOUS
 10
-0.884051
 20
4.618047
  0
VERTEX
  8
PLAN_1
 62
     2
  6
CONTINUOUS
 10
-0.884630
 20
4.620370
  0
VERTEX
  8
PLAN_1
 62
     2
  6
CONTINUOUS
 10
-0.885213
 20
4.622689
  0
VERTEX
  8
PLAN_1
 62
     2
  6
CONTINUOUS
 10
-0.884630
 20
4.626173
  0
VERTEX
  8
PLAN_1
 62
     2
  6
CONTINUOUS
 10
-0.884051
 20
4.629075
  0
VERTEX
  8
PLAN_1
 62
     2
  6
CONTINUOUS
 10
-0.882311
 20
4.632555
  0
VERTEX
  8
PLAN_1
 62
     2
  6
CONTINUOUS
 10
-0.880567
 20
4.636035
  0
VERTEX
  8
PLAN_1
 62
     2
  6
CONTINUOUS
 10
-0.877665
 20
4.638358
  0
VERTEX
  8
PLAN_1
 62
     2
  6
CONTINUOUS
 10
-0.873606
 20
4.640677
  0
VERTEX
  8
PLAN_1
 62
     2
  6
CONTINUOUS
 10
-0.868965
 20
4.642421
  0
VERTEX
  8
PLAN_1
 62
     2
  6
CONTINUOUS
 10
-0.862579
 20
4.643000
  0
VERTEX
  8
PLAN_1
 62
     2
  6
CONTINUOUS
 10
-0.857358
 20
4.642421
  0
VERTEX
  8
PLAN_1
 62
     2
  6
CONTINUOUS
 10
-0.852717
 20
4.641260
  0
VERTEX
  8
PLAN_1
 62
     2
  6
CONTINUOUS
 10
-0.848654
 20
4.639520
  0
VERTEX
  8
PLAN_1
 62
     2
  6
CONTINUOUS
 10
-0.845173
 20
4.636618
  0
VERTEX
  8
PLAN_1
 62
     2
  6
CONTINUOUS
 10
-0.842850
 20
4.633717
  0
VERTEX
  8
PLAN_1
 62
     2
  6
CONTINUOUS
 10
-0.841689
 20
4.630815
  0
VERTEX
  8
PLAN_1
 62
     2
  6
CONTINUOUS
 10
-0.840531
 20
4.627335
  0
VERTEX
  8
PLAN_1
 62
     2
  6
CONTINUOUS
 10
-0.839949
 20
4.624433
  0
VERTEX
  8
PLAN_1
 62
     2
  6
CONTINUOUS
 10
-0.840531
 20
4.620370
  0
VERTEX
  8
PLAN_1
 62
     2
  6
CONTINUOUS
 10
-0.841110
 20
4.617469
  0
VERTEX
  8
PLAN_1
 62
     2
  6
CONTINUOUS
 10
-0.842272
 20
4.615146
  0
VERTEX
  8
PLAN_1
 62
     2
  6
CONTINUOUS
 10
-0.843433
 20
4.613406
  0
VERTEX
  8
PLAN_1
 62
     2
  6
CONTINUOUS
 10
-0.845173
 20
4.611665
  0
VERTEX
  8
PLAN_1
 62
     2
  6
CONTINUOUS
 10
-0.846913
 20
4.610504
  0
VERTEX
  8
PLAN_1
 62
     2
  6
CONTINUOUS
 10
-0.848075
 20
4.609343
  0
VERTEX
  8
PLAN_1
 62
     2
  6
CONTINUOUS
 10
-0.849815
 20
4.608764
  0
SEQEND
  8
0
  0
POLYLINE
  8
PLAN_1
 62
     2
  6
CONTINUOUS
 66
     1
 40
0.003000
 41
0.003000
  0
VERTEX
  8
PLAN_1
 62
     2
  6
CONTINUOUS
 10
-0.877665
 20
4.590776
  0
VERTEX
  8
PLAN_1
 62
     2
  6
CONTINUOUS
 10
-0.877665
 20
4.588457
  0
VERTEX
  8
PLAN_1
 62
     2
  6
CONTINUOUS
 10
-0.877087
 20
4.586134
  0
VERTEX
  8
PLAN_1
 62
     2
  6
CONTINUOUS
 10
-0.875925
 20
4.583232
  0
VERTEX
  8
PLAN_1
 62
     2
  6
CONTINUOUS
 10
-0.874768
 20
4.581492
  0
VERTEX
  8
PLAN_1
 62
     2
  6
CONTINUOUS
 10
-0.872445
 20
4.579169
  0
VERTEX
  8
PLAN_1
 62
     2
  6
CONTINUOUS
 10
-0.870122
 20
4.577429
  0
VERTEX
  8
PLAN_1
 62
     2
  6
CONTINUOUS
 10
-0.866642
 20
4.576268
  0
VERTEX
  8
PLAN_1
 62
     2
  6
CONTINUOUS
 10
-0.862000
 20
4.576268
  0
VERTEX
  8
PLAN_1
 62
     2
  6
CONTINUOUS
 10
-0.859677
 20
4.576268
  0
VERTEX
  8
PLAN_1
 62
     2
  6
CONTINUOUS
 10
-0.856780
 20
4.576850
  0
VERTEX
  8
PLAN_1
 62
     2
  6
CONTINUOUS
 10
-0.854457
 20
4.577429
  0
VERTEX
  8
PLAN_1
 62
     2
  6
CONTINUOUS
 10
-0.852134
 20
4.578591
  0
VERTEX
  8
PLAN_1
 62
     2
  6
CONTINUOUS
 10
-0.850394
 20
4.580331
  0
VERTEX
  8
PLAN_1
 62
     2
  6
CONTINUOUS
 10
-0.848654
 20
4.583232
  0
VERTEX
  8
PLAN_1
 62
     2
  6
CONTINUOUS
 10
-0.847492
 20
4.586134
  0
VERTEX
  8
PLAN_1
 62
     2
  6
CONTINUOUS
 10
-0.847492
 20
4.590197
  0
VERTEX
  8
PLAN_1
 62
     2
  6
CONTINUOUS
 10
-0.847492
 20
4.593677
  0
VERTEX
  8
PLAN_1
 62
     2
  6
CONTINUOUS
 10
-0.848654
 20
4.596579
  0
VERTEX
  8
PLAN_1
 62
     2
  6
CONTINUOUS
 10
-0.849815
 20
4.598902
  0
VERTEX
  8
PLAN_1
 62
     2
  6
CONTINUOUS
 10
-0.852134
 20
4.600642
  0
VERTEX
  8
PLAN_1
 62
     2
  6
CONTINUOUS
 10
-0.853878
 20
4.602382
  0
VERTEX
  8
PLAN_1
 62
     2
  6
CONTINUOUS
 10
-0.856780
 20
4.603543
  0
VERTEX
  8
PLAN_1
 62
     2
  6
CONTINUOUS
 10
-0.859677
 20
4.604122
  0
VERTEX
  8
PLAN_1
 62
     2
  6
CONTINUOUS
 10
-0.862579
 20
4.604122
  0
VERTEX
  8
PLAN_1
 62
     2
  6
CONTINUOUS
 10
-0.866063
 20
4.604122
  0
VERTEX
  8
PLAN_1
 62
     2
  6
CONTINUOUS
 10
-0.869543
 20
4.602961
  0
VERTEX
  8
PLAN_1
 62
     2
  6
CONTINUOUS
 10
-0.871866
 20
4.601799
  0
VERTEX
  8
PLAN_1
 62
     2
  6
CONTINUOUS
 10
-0.874185
 20
4.600059
  0
VERTEX
  8
PLAN_1
 62
     2
  6
CONTINUOUS
 10
-0.875925
 20
4.597740
  0
VERTEX
  8
PLAN_1
 62
     2
  6
CONTINUOUS
 10
-0.876508
 20
4.595417
  0
VERTEX
  8
PLAN_1
 62
     2
  6
CONTINUOUS
 10
-0.877665
 20
4.593098
  0
VERTEX
  8
PLAN_1
 62
     2
  6
CONTINUOUS
 10
-0.877665
 20
4.590776
  0
SEQEND
  8
0
  0
POLYLINE
  8
PLAN_1
 62
     2
  6
CONTINUOUS
 66
     1
 40
0.003000
 41
0.003000
  0
VERTEX
  8
PLAN_1
 62
     2
  6
CONTINUOUS
 10
-0.849815
 20
4.623850
  0
VERTEX
  8
PLAN_1
 62
     2
  6
CONTINUOUS
 10
-0.849815
 20
4.625591
  0
VERTEX
  8
PLAN_1
 62
     2
  6
CONTINUOUS
 10
-0.850394
 20
4.627335
  0
VERTEX
  8
PLAN_1
 62
     2
  6
CONTINUOUS
 10
-0.850976
 20
4.629075
  0
VERTEX
  8
PLAN_1
 62
     2
  6
CONTINUOUS
 10
-0.852717
 20
4.630815
  0
VERTEX
  8
PLAN_1
 62
     2
  6
CONTINUOUS
 10
-0.854457
 20
4.632555
  0
VERTEX
  8
PLAN_1
 62
     2
  6
CONTINUOUS
 10
-0.856780
 20
4.633717
  0
VERTEX
  8
PLAN_1
 62
     2
  6
CONTINUOUS
 10
-0.859677
 20
4.634295
  0
VERTEX
  8
PLAN_1
 62
     2
  6
CONTINUOUS
 10
-0.863161
 20
4.634878
  0
VERTEX
  8
PLAN_1
 62
     2
  6
CONTINUOUS
 10
-0.866642
 20
4.634295
  0
VERTEX
  8
PLAN_1
 62
     2
  6
CONTINUOUS
 10
-0.869543
 20
4.633717
  0
VERTEX
  8
PLAN_1
 62
     2
  6
CONTINUOUS
 10
-0.871283
 20
4.632555
  0
VERTEX
  8
PLAN_1
 62
     2
  6
CONTINUOUS
 10
-0.873024
 20
4.630815
  0
VERTEX
  8
PLAN_1
 62
     2
  6
CONTINUOUS
 10
-0.874185
 20
4.629075
  0
VERTEX
  8
PLAN_1
 62
     2
  6
CONTINUOUS
 10
-0.874768
 20
4.627335
  0
VERTEX
  8
PLAN_1
 62
     2
  6
CONTINUOUS
 10
-0.875346
 20
4.625012
  0
VERTEX
  8
PLAN_1
 62
     2
  6
CONTINUOUS
 10
-0.875346
 20
4.623272
  0
VERTEX
  8
PLAN_1
 62
     2
  6
CONTINUOUS
 10
-0.875346
 20
4.620949
  0
VERTEX
  8
PLAN_1
 62
     2
  6
CONTINUOUS
 10
-0.874185
 20
4.618630
  0
VERTEX
  8
PLAN_1
 62
     2
  6
CONTINUOUS
 10
-0.873024
 20
4.616890
  0
VERTEX
  8
PLAN_1
 62
     2
  6
CONTINUOUS
 10
-0.871866
 20
4.615146
  0
VERTEX
  8
PLAN_1
 62
     2
  6
CONTINUOUS
 10
-0.869543
 20
4.613988
  0
VERTEX
  8
PLAN_1
 62
     2
  6
CONTINUOUS
 10
-0.867803
 20
4.612827
  0
VERTEX
  8
PLAN_1
 62
     2
  6
CONTINUOUS
 10
-0.864902
 20
4.612244
  0
VERTEX
  8
PLAN_1
 62
     2
  6
CONTINUOUS
 10
-0.862579
 20
4.612244
  0
VERTEX
  8
PLAN_1
 62
     2
  6
CONTINUOUS
 10
-0.859677
 20
4.612244
  0
VERTEX
  8
PLAN_1
 62
     2
  6
CONTINUOUS
 10
-0.857358
 20
4.612827
  0
VERTEX
  8
PLAN_1
 62
     2
  6
CONTINUOUS
 10
-0.855035
 20
4.613988
  0
VERTEX
  8
PLAN_1
 62
     2
  6
CONTINUOUS
 10
-0.853295
 20
4.615728
  0
VERTEX
  8
PLAN_1
 62
     2
  6
CONTINUOUS
 10
-0.851555
 20
4.617469
  0
VERTEX
  8
PLAN_1
 62
     2
  6
CONTINUOUS
 10
-0.850394
 20
4.619209
  0
VERTEX
  8
PLAN_1
 62
     2
  6
CONTINUOUS
 10
-0.849815
 20
4.621531
  0
VERTEX
  8
PLAN_1
 62
     2
  6
CONTINUOUS
 10
-0.849815
 20
4.623850
  0
SEQEND
  8
0
  0
POLYLINE
  8
PLAN_1
 62
     2
  6
CONTINUOUS
 66
     1
 40
0.004059
 41
0.004059
  0
VERTEX
  8
PLAN_1
 62
     2
  6
CONTINUOUS
 10
0.091961
 20
4.569886
  0
VERTEX
  8
PLAN_1
 62
     2
  6
CONTINUOUS
 10
0.091961
 20
1.991756
  0
SEQEND
  8
0
  0
POLYLINE
  8
PLAN_1
 62
     2
  6
CONTINUOUS
 66
     1
 40
0.003000
 41
0.003000
  0
VERTEX
  8
PLAN_1
 62
     2
  6
CONTINUOUS
 10
0.202791
 20
0.768555
  0
VERTEX
  8
PLAN_1
 62
     2
  6
CONTINUOUS
 10
0.198728
 20
0.768555
  0
VERTEX
  8
PLAN_1
 62
     2
  6
CONTINUOUS
 10
0.194665
 20
0.769134
  0
VERTEX
  8
PLAN_1
 62
     2
  6
CONTINUOUS
 10
0.191185
 20
0.770295
  0
VERTEX
  8
PLAN_1
 62
     2
  6
CONTINUOUS
 10
0.188866
 20
0.771457
  0
VERTEX
  8
PLAN_1
 62
     2
  6
CONTINUOUS
 10
0.185965
 20
0.772614
  0
VERTEX
  8
PLAN_1
 62
     2
  6
CONTINUOUS
 10
0.184220
 20
0.774354
  0
VERTEX
  8
PLAN_1
 62
     2
  6
CONTINUOUS
 10
0.181902
 20
0.776098
  0
VERTEX
  8
PLAN_1
 62
     2
  6
CONTINUOUS
 10
0.180740
 20
0.778417
  0
VERTEX
  8
PLAN_1
 62
     2
  6
CONTINUOUS
 10
0.178421
 20
0.782480
  0
VERTEX
  8
PLAN_1
 62
     2
  6
CONTINUOUS
 10
0.177260
 20
0.786543
  0
VERTEX
  8
PLAN_1
 62
     2
  6
CONTINUOUS
 10
0.176677
 20
0.790602
  0
VERTEX
  8
PLAN_1
 62
     2
  6
CONTINUOUS
 10
0.176677
 20
0.794087
  0
VERTEX
  8
PLAN_1
 62
     2
  6
CONTINUOUS
 10
0.176677
 20
0.798728
  0
VERTEX
  8
PLAN_1
 62
     2
  6
CONTINUOUS
 10
0.177839
 20
0.802787
  0
VERTEX
  8
PLAN_1
 62
     2
  6
CONTINUOUS
 10
0.179579
 20
0.806850
  0
VERTEX
  8
PLAN_1
 62
     2
  6
CONTINUOUS
 10
0.182480
 20
0.810335
  0
VERTEX
  8
PLAN_1
 62
     2
  6
CONTINUOUS
 10
0.185382
 20
0.812654
  0
VERTEX
  8
PLAN_1
 62
     2
  6
CONTINUOUS
 10
0.189445
 20
0.814976
  0
VERTEX
  8
PLAN_1
 62
     2
  6
CONTINUOUS
 10
0.193508
 20
0.816134
  0
VERTEX
  8
PLAN_1
 62
     2
  6
CONTINUOUS
 10
0.198150
 20
0.816717
  0
VERTEX
  8
PLAN_1
 62
     2
  6
CONTINUOUS
 10
0.202791
 20
0.816134
  0
VERTEX
  8
PLAN_1
 62
     2
  6
CONTINUOUS
 10
0.206854
 20
0.814976
  0
VERTEX
  8
PLAN_1
 62
     2
  6
CONTINUOUS
 10
0.210335
 20
0.813232
  0
VERTEX
  8
PLAN_1
 62
     2
  6
CONTINUOUS
 10
0.213236
 20
0.810913
  0
VERTEX
  8
PLAN_1
 62
     2
  6
CONTINUOUS
 10
0.216138
 20
0.808012
  0
VERTEX
  8
PLAN_1
 62
     2
  6
CONTINUOUS
 10
0.218457
 20
0.805110
  0
VERTEX
  8
PLAN_1
 62
     2
  6
CONTINUOUS
 10
0.220780
 20
0.801047
  0
VERTEX
  8
PLAN_1
 62
     2
  6
CONTINUOUS
 10
0.223098
 20
0.796988
  0
VERTEX
  8
PLAN_1
 62
     2
  6
CONTINUOUS
 10
0.227161
 20
0.789445
  0
VERTEX
  8
PLAN_1
 62
     2
  6
CONTINUOUS
 10
0.228902
 20
0.785961
  0
VERTEX
  8
PLAN_1
 62
     2
  6
CONTINUOUS
 10
0.231224
 20
0.783642
  0
VERTEX
  8
PLAN_1
 62
     2
  6
CONTINUOUS
 10
0.232965
 20
0.781319
  0
VERTEX
  8
PLAN_1
 62
     2
  6
CONTINUOUS
 10
0.235287
 20
0.779579
  0
VERTEX
  8
PLAN_1
 62
     2
  6
CONTINUOUS
 10
0.237028
 20
0.778417
  0
VERTEX
  8
PLAN_1
 62
     2
  6
CONTINUOUS
 10
0.238189
 20
0.777839
  0
VERTEX
  8
PLAN_1
 62
     2
  6
CONTINUOUS
 10
0.239929
 20
0.777256
  0
VERTEX
  8
PLAN_1
 62
     2
  6
CONTINUOUS
 10
0.241091
 20
0.777256
  0
VERTEX
  8
PLAN_1
 62
     2
  6
CONTINUOUS
 10
0.241091
 20
0.816717
  0
VERTEX
  8
PLAN_1
 62
     2
  6
CONTINUOUS
 10
0.249791
 20
0.816717
  0
VERTEX
  8
PLAN_1
 62
     2
  6
CONTINUOUS
 10
0.249791
 20
0.766811
  0
VERTEX
  8
PLAN_1
 62
     2
  6
CONTINUOUS
 10
0.243988
 20
0.767394
  0
VERTEX
  8
PLAN_1
 62
     2
  6
CONTINUOUS
 10
0.239346
 20
0.768555
  0
VERTEX
  8
PLAN_1
 62
     2
  6
CONTINUOUS
 10
0.235287
 20
0.769713
  0
VERTEX
  8
PLAN_1
 62
     2
  6
CONTINUOUS
 10
0.231803
 20
0.772035
  0
VERTEX
  8
PLAN_1
 62
     2
  6
CONTINUOUS
 10
0.228323
 20
0.774354
  0
VERTEX
  8
PLAN_1
 62
     2
  6
CONTINUOUS
 10
0.225421
 20
0.777256
  0
VERTEX
  8
PLAN_1
 62
     2
  6
CONTINUOUS
 10
0.223098
 20
0.780157
  0
VERTEX
  8
PLAN_1
 62
     2
  6
CONTINUOUS
 10
0.220780
 20
0.783642
  0
VERTEX
  8
PLAN_1
 62
     2
  6
CONTINUOUS
 10
0.214976
 20
0.793504
  0
VERTEX
  8
PLAN_1
 62
     2
  6
CONTINUOUS
 10
0.213236
 20
0.796406
  0
VERTEX
  8
PLAN_1
 62
     2
  6
CONTINUOUS
 10
0.212075
 20
0.798728
  0
VERTEX
  8
PLAN_1
 62
     2
  6
CONTINUOUS
 10
0.210335
 20
0.801047
  0
VERTEX
  8
PLAN_1
 62
     2
  6
CONTINUOUS
 10
0.208594
 20
0.803370
  0
VERTEX
  8
PLAN_1
 62
     2
  6
CONTINUOUS
 10
0.206272
 20
0.804531
  0
VERTEX
  8
PLAN_1
 62
     2
  6
CONTINUOUS
 10
0.203953
 20
0.806272
  0
VERTEX
  8
PLAN_1
 62
     2
  6
CONTINUOUS
 10
0.201051
 20
0.806850
  0
VERTEX
  8
PLAN_1
 62
     2
  6
CONTINUOUS
 10
0.198150
 20
0.806850
  0
VERTEX
  8
PLAN_1
 62
     2
  6
CONTINUOUS
 10
0.195827
 20
0.806850
  0
VERTEX
  8
PLAN_1
 62
     2
  6
CONTINUOUS
 10
0.193508
 20
0.806272
  0
VERTEX
  8
PLAN_1
 62
     2
  6
CONTINUOUS
 10
0.191185
 20
0.805110
  0
VERTEX
  8
PLAN_1
 62
     2
  6
CONTINUOUS
 10
0.189445
 20
0.803949
  0
VERTEX
  8
PLAN_1
 62
     2
  6
CONTINUOUS
 10
0.187122
 20
0.801630
  0
VERTEX
  8
PLAN_1
 62
     2
  6
CONTINUOUS
 10
0.185965
 20
0.799307
  0
VERTEX
  8
PLAN_1
 62
     2
  6
CONTINUOUS
 10
0.184803
 20
0.796406
  0
VERTEX
  8
PLAN_1
 62
     2
  6
CONTINUOUS
 10
0.184803
 20
0.792343
  0
VERTEX
  8
PLAN_1
 62
     2
  6
CONTINUOUS
 10
0.184803
 20
0.790024
  0
VERTEX
  8
PLAN_1
 62
     2
  6
CONTINUOUS
 10
0.185382
 20
0.787701
  0
VERTEX
  8
PLAN_1
 62
     2
  6
CONTINUOUS
 10
0.185965
 20
0.785961
  0
VERTEX
  8
PLAN_1
 62
     2
  6
CONTINUOUS
 10
0.187122
 20
0.784220
  0
VERTEX
  8
PLAN_1
 62
     2
  6
CONTINUOUS
 10
0.188866
 20
0.781902
  0
VERTEX
  8
PLAN_1
 62
     2
  6
CONTINUOUS
 10
0.191768
 20
0.780157
  0
VERTEX
  8
PLAN_1
 62
     2
  6
CONTINUOUS
 10
0.194665
 20
0.779000
  0
VERTEX
  8
PLAN_1
 62
     2
  6
CONTINUOUS
 10
0.197567
 20
0.778417
  0
VERTEX
  8
PLAN_1
 62
     2
  6
CONTINUOUS
 10
0.200469
 20
0.777839
  0
VERTEX
  8
PLAN_1
 62
     2
  6
CONTINUOUS
 10
0.202791
 20
0.777839
  0
VERTEX
  8
PLAN_1
 62
     2
  6
CONTINUOUS
 10
0.202791
 20
0.768555
  0
SEQEND
  8
0
  0
POLYLINE
  8
PLAN_1
 62
     2
  6
CONTINUOUS
 66
     1
 40
0.003000
 41
0.003000
  0
VERTEX
  8
PLAN_1
 62
     2
  6
CONTINUOUS
 10
0.210913
 20
0.863717
  0
VERTEX
  8
PLAN_1
 62
     2
  6
CONTINUOUS
 10
0.212657
 20
0.867201
  0
VERTEX
  8
PLAN_1
 62
     2
  6
CONTINUOUS
 10
0.214398
 20
0.869520
  0
VERTEX
  8
PLAN_1
 62
     2
  6
CONTINUOUS
 10
0.216717
 20
0.871843
  0
VERTEX
  8
PLAN_1
 62
     2
  6
CONTINUOUS
 10
0.219039
 20
0.873583
  0
VERTEX
  8
PLAN_1
 62
     2
  6
CONTINUOUS
 10
0.221358
 20
0.874744
  0
VERTEX
  8
PLAN_1
 62
     2
  6
CONTINUOUS
 10
0.224260
 20
0.875323
  0
VERTEX
  8
PLAN_1
 62
     2
  6
CONTINUOUS
 10
0.226583
 20
0.875323
  0
VERTEX
  8
PLAN_1
 62
     2
  6
CONTINUOUS
 10
0.228323
 20
0.875902
  0
VERTEX
  8
PLAN_1
 62
     2
  6
CONTINUOUS
 10
0.232965
 20
0.875323
  0
VERTEX
  8
PLAN_1
 62
     2
  6
CONTINUOUS
 10
0.237028
 20
0.874161
  0
VERTEX
  8
PLAN_1
 62
     2
  6
CONTINUOUS
 10
0.241091
 20
0.872421
  0
VERTEX
  8
PLAN_1
 62
     2
  6
CONTINUOUS
 10
0.244571
 20
0.869520
  0
VERTEX
  8
PLAN_1
 62
     2
  6
CONTINUOUS
 10
0.247472
 20
0.866618
  0
VERTEX
  8
PLAN_1
 62
     2
  6
CONTINUOUS
 10
0.249791
 20
0.861976
  0
VERTEX
  8
PLAN_1
 62
     2
  6
CONTINUOUS
 10
0.250953
 20
0.856756
  0
VERTEX
  8
PLAN_1
 62
     2
  6
CONTINUOUS
 10
0.251531
 20
0.850953
  0
VERTEX
  8
PLAN_1
 62
     2
  6
CONTINUOUS
 10
0.251531
 20
0.849213
  0
VERTEX
  8
PLAN_1
 62
     2
  6
CONTINUOUS
 10
0.251531
 20
0.847469
  0
VERTEX
  8
PLAN_1
 62
     2
  6
CONTINUOUS
 10
0.250953
 20
0.845150
  0
VERTEX
  8
PLAN_1
 62
     2
  6
CONTINUOUS
 10
0.250374
 20
0.842827
  0
VERTEX
  8
PLAN_1
 62
     2
  6
CONTINUOUS
 10
0.249791
 20
0.840508
  0
VERTEX
  8
PLAN_1
 62
     2
  6
CONTINUOUS
 10
0.248634
 20
0.838185
  0
VERTEX
  8
PLAN_1
 62
     2
  6
CONTINUOUS
 10
0.247472
 20
0.835866
  0
VERTEX
  8
PLAN_1
 62
     2
  6
CONTINUOUS
 10
0.245732
 20
0.833543
  0
VERTEX
  8
PLAN_1
 62
     2
  6
CONTINUOUS
 10
0.243988
 20
0.830642
  0
VERTEX
  8
PLAN_1
 62
     2
  6
CONTINUOUS
 10
0.241091
 20
0.828902
  0
VERTEX
  8
PLAN_1
 62
     2
  6
CONTINUOUS
 10
0.238768
 20
0.827740
  0
VERTEX
  8
PLAN_1
 62
     2
  6
CONTINUOUS
 10
0.236445
 20
0.826579
  0
VERTEX
  8
PLAN_1
 62
     2
  6
CONTINUOUS
 10
0.234126
 20
0.826000
  0
VERTEX
  8
PLAN_1
 62
     2
  6
CONTINUOUS
 10
0.231803
 20
0.826000
  0
VERTEX
  8
PLAN_1
 62
     2
  6
CONTINUOUS
 10
0.230063
 20
0.826000
  0
VERTEX
  8
PLAN_1
 62
     2
  6
CONTINUOUS
 10
0.228902
 20
0.826000
  0
VERTEX
  8
PLAN_1
 62
     2
  6
CONTINUOUS
 10
0.225421
 20
0.826000
  0
VERTEX
  8
PLAN_1
 62
     2
  6
CONTINUOUS
 10
0.222520
 20
0.826579
  0
VERTEX
  8
PLAN_1
 62
     2
  6
CONTINUOUS
 10
0.219618
 20
0.827740
  0
VERTEX
  8
PLAN_1
 62
     2
  6
CONTINUOUS
 10
0.217299
 20
0.828902
  0
VERTEX
  8
PLAN_1
 62
     2
  6
CONTINUOUS
 10
0.215555
 20
0.831220
  0
VERTEX
  8
PLAN_1
 62
     2
  6
CONTINUOUS
 10
0.213815
 20
0.832965
  0
VERTEX
  8
PLAN_1
 62
     2
  6
CONTINUOUS
 10
0.212075
 20
0.835283
  0
VERTEX
  8
PLAN_1
 62
     2
  6
CONTINUOUS
 10
0.210913
 20
0.838185
  0
VERTEX
  8
PLAN_1
 62
     2
  6
CONTINUOUS
 10
0.209756
 20
0.835866
  0
VERTEX
  8
PLAN_1
 62
     2
  6
CONTINUOUS
 10
0.208594
 20
0.834122
  0
VERTEX
  8
PLAN_1
 62
     2
  6
CONTINUOUS
 10
0.206854
 20
0.832382
  0
VERTEX
  8
PLAN_1
 62
     2
  6
CONTINUOUS
 10
0.205693
 20
0.831220
  0
VERTEX
  8
PLAN_1
 62
     2
  6
CONTINUOUS
 10
0.203370
 20
0.830063
  0
VERTEX
  8
PLAN_1
 62
     2
  6
CONTINUOUS
 10
0.201630
 20
0.828902
  0
VERTEX
  8
PLAN_1
 62
     2
  6
CONTINUOUS
 10
0.199311
 20
0.828323
  0
VERTEX
  8
PLAN_1
 62
     2
  6
CONTINUOUS
 10
0.196409
 20
0.828323
  0
VERTEX
  8
PLAN_1
 62
     2
  6
CONTINUOUS
 10
0.193508
 20
0.828323
  0
VERTEX
  8
PLAN_1
 62
     2
  6
CONTINUOUS
 10
0.190024
 20
0.829480
  0
VERTEX
  8
PLAN_1
 62
     2
  6
CONTINUOUS
 10
0.187122
 20
0.830642
  0
VERTEX
  8
PLAN_1
 62
     2
  6
CONTINUOUS
 10
0.183642
 20
0.832965
  0
VERTEX
  8
PLAN_1
 62
     2
  6
CONTINUOUS
 10
0.180740
 20
0.835866
  0
VERTEX
  8
PLAN_1
 62
     2
  6
CONTINUOUS
 10
0.178421
 20
0.839925
  0
VERTEX
  8
PLAN_1
 62
     2
  6
CONTINUOUS
 10
0.177839
 20
0.842248
  0
VERTEX
  8
PLAN_1
 62
     2
  6
CONTINUOUS
 10
0.177260
 20
0.844567
  0
VERTEX
  8
PLAN_1
 62
     2
  6
CONTINUOUS
 10
0.176677
 20
0.847469
  0
VERTEX
  8
PLAN_1
 62
     2
  6
CONTINUOUS
 10
0.176677
 20
0.850370
  0
VERTEX
  8
PLAN_1
 62
     2
  6
CONTINUOUS
 10
0.177260
 20
0.856173
  0
VERTEX
  8
PLAN_1
 62
     2
  6
CONTINUOUS
 10
0.178421
 20
0.860815
  0
VERTEX
  8
PLAN_1
 62
     2
  6
CONTINUOUS
 10
0.180161
 20
0.864878
  0
VERTEX
  8
PLAN_1
 62
     2
  6
CONTINUOUS
 10
0.182480
 20
0.867780
  0
VERTEX
  8
PLAN_1
 62
     2
  6
CONTINUOUS
 10
0.185382
 20
0.870098
  0
VERTEX
  8
PLAN_1
 62
     2
  6
CONTINUOUS
 10
0.188866
 20
0.871843
  0
VERTEX
  8
PLAN_1
 62
     2
  6
CONTINUOUS
 10
0.192346
 20
0.873000
  0
VERTEX
  8
PLAN_1
 62
     2
  6
CONTINUOUS
 10
0.195248
 20
0.873000
  0
VERTEX
  8
PLAN_1
 62
     2
  6
CONTINUOUS
 10
0.198728
 20
0.873000
  0
VERTEX
  8
PLAN_1
 62
     2
  6
CONTINUOUS
 10
0.202213
 20
0.871843
  0
VERTEX
  8
PLAN_1
 62
     2
  6
CONTINUOUS
 10
0.204531
 20
0.871260
  0
VERTEX
  8
PLAN_1
 62
     2
  6
CONTINUOUS
 10
0.206272
 20
0.869520
  0
VERTEX
  8
PLAN_1
 62
     2
  6
CONTINUOUS
 10
0.208012
 20
0.868358
  0
VERTEX
  8
PLAN_1
 62
     2
  6
CONTINUOUS
 10
0.209173
 20
0.866618
  0
VERTEX
  8
PLAN_1
 62
     2
  6
CONTINUOUS
 10
0.209756
 20
0.864878
  0
VERTEX
  8
PLAN_1
 62
     2
  6
CONTINUOUS
 10
0.210913
 20
0.863717
  0
SEQEND
  8
0
  0
POLYLINE
  8
PLAN_1
 62
     2
  6
CONTINUOUS
 66
     1
 40
0.003000
 41
0.003000
  0
VERTEX
  8
PLAN_1
 62
     2
  6
CONTINUOUS
 10
0.228902
 20
0.835866
  0
VERTEX
  8
PLAN_1
 62
     2
  6
CONTINUOUS
 10
0.231224
 20
0.835866
  0
VERTEX
  8
PLAN_1
 62
     2
  6
CONTINUOUS
 10
0.233543
 20
0.836445
  0
VERTEX
  8
PLAN_1
 62
     2
  6
CONTINUOUS
 10
0.235866
 20
0.837024
  0
VERTEX
  8
PLAN_1
 62
     2
  6
CONTINUOUS
 10
0.238189
 20
0.838768
  0
VERTEX
  8
PLAN_1
 62
     2
  6
CONTINUOUS
 10
0.240508
 20
0.840508
  0
VERTEX
  8
PLAN_1
 62
     2
  6
CONTINUOUS
 10
0.241669
 20
0.843409
  0
VERTEX
  8
PLAN_1
 62
     2
  6
CONTINUOUS
 10
0.242831
 20
0.846890
  0
VERTEX
  8
PLAN_1
 62
     2
  6
CONTINUOUS
 10
0.243409
 20
0.851531
  0
VERTEX
  8
PLAN_1
 62
     2
  6
CONTINUOUS
 10
0.243409
 20
0.853854
  0
VERTEX
  8
PLAN_1
 62
     2
  6
CONTINUOUS
 10
0.242831
 20
0.856173
  0
VERTEX
  8
PLAN_1
 62
     2
  6
CONTINUOUS
 10
0.242248
 20
0.859075
  0
VERTEX
  8
PLAN_1
 62
     2
  6
CONTINUOUS
 10
0.240508
 20
0.860815
  0
VERTEX
  8
PLAN_1
 62
     2
  6
CONTINUOUS
 10
0.238768
 20
0.863138
  0
VERTEX
  8
PLAN_1
 62
     2
  6
CONTINUOUS
 10
0.236445
 20
0.864299
  0
VERTEX
  8
PLAN_1
 62
     2
  6
CONTINUOUS
 10
0.233543
 20
0.865457
  0
VERTEX
  8
PLAN_1
 62
     2
  6
CONTINUOUS
 10
0.229484
 20
0.866039
  0
VERTEX
  8
PLAN_1
 62
     2
  6
CONTINUOUS
 10
0.226000
 20
0.865457
  0
VERTEX
  8
PLAN_1
 62
     2
  6
CONTINUOUS
 10
0.223098
 20
0.864878
  0
VERTEX
  8
PLAN_1
 62
     2
  6
CONTINUOUS
 10
0.220780
 20
0.863138
  0
VERTEX
  8
PLAN_1
 62
     2
  6
CONTINUOUS
 10
0.219039
 20
0.861398
  0
VERTEX
  8
PLAN_1
 62
     2
  6
CONTINUOUS
 10
0.217299
 20
0.859075
  0
VERTEX
  8
PLAN_1
 62
     2
  6
CONTINUOUS
 10
0.216138
 20
0.856756
  0
VERTEX
  8
PLAN_1
 62
     2
  6
CONTINUOUS
 10
0.215555
 20
0.853854
  0
VERTEX
  8
PLAN_1
 62
     2
  6
CONTINUOUS
 10
0.215555
 20
0.850953
  0
VERTEX
  8
PLAN_1
 62
     2
  6
CONTINUOUS
 10
0.215555
 20
0.846890
  0
VERTEX
  8
PLAN_1
 62
     2
  6
CONTINUOUS
 10
0.216717
 20
0.843988
  0
VERTEX
  8
PLAN_1
 62
     2
  6
CONTINUOUS
 10
0.217878
 20
0.841665
  0
VERTEX
  8
PLAN_1
 62
     2
  6
CONTINUOUS
 10
0.219618
 20
0.839346
  0
VERTEX
  8
PLAN_1
 62
     2
  6
CONTINUOUS
 10
0.221358
 20
0.837606
  0
VERTEX
  8
PLAN_1
 62
     2
  6
CONTINUOUS
 10
0.223681
 20
0.836445
  0
VERTEX
  8
PLAN_1
 62
     2
  6
CONTINUOUS
 10
0.226583
 20
0.835866
  0
VERTEX
  8
PLAN_1
 62
     2
  6
CONTINUOUS
 10
0.228902
 20
0.835866
  0
SEQEND
  8
0
  0
POLYLINE
  8
PLAN_1
 62
     2
  6
CONTINUOUS
 66
     1
 40
0.003000
 41
0.003000
  0
VERTEX
  8
PLAN_1
 62
     2
  6
CONTINUOUS
 10
0.195827
 20
0.863717
  0
VERTEX
  8
PLAN_1
 62
     2
  6
CONTINUOUS
 10
0.194087
 20
0.863717
  0
VERTEX
  8
PLAN_1
 62
     2
  6
CONTINUOUS
 10
0.192346
 20
0.863138
  0
VERTEX
  8
PLAN_1
 62
     2
  6
CONTINUOUS
 10
0.190024
 20
0.861976
  0
VERTEX
  8
PLAN_1
 62
     2
  6
CONTINUOUS
 10
0.188283
 20
0.860815
  0
VERTEX
  8
PLAN_1
 62
     2
  6
CONTINUOUS
 10
0.187122
 20
0.859075
  0
VERTEX
  8
PLAN_1
 62
     2
  6
CONTINUOUS
 10
0.185965
 20
0.856756
  0
VERTEX
  8
PLAN_1
 62
     2
  6
CONTINUOUS
 10
0.184803
 20
0.853854
  0
VERTEX
  8
PLAN_1
 62
     2
  6
CONTINUOUS
 10
0.184803
 20
0.849791
  0
VERTEX
  8
PLAN_1
 62
     2
  6
CONTINUOUS
 10
0.184803
 20
0.846890
  0
VERTEX
  8
PLAN_1
 62
     2
  6
CONTINUOUS
 10
0.185965
 20
0.843988
  0
VERTEX
  8
PLAN_1
 62
     2
  6
CONTINUOUS
 10
0.187122
 20
0.841665
  0
VERTEX
  8
PLAN_1
 62
     2
  6
CONTINUOUS
 10
0.188866
 20
0.840508
  0
VERTEX
  8
PLAN_1
 62
     2
  6
CONTINUOUS
 10
0.190606
 20
0.839346
  0
VERTEX
  8
PLAN_1
 62
     2
  6
CONTINUOUS
 10
0.192346
 20
0.838185
  0
VERTEX
  8
PLAN_1
 62
     2
  6
CONTINUOUS
 10
0.194087
 20
0.838185
  0
VERTEX
  8
PLAN_1
 62
     2
  6
CONTINUOUS
 10
0.196409
 20
0.837606
  0
VERTEX
  8
PLAN_1
 62
     2
  6
CONTINUOUS
 10
0.198728
 20
0.838185
  0
VERTEX
  8
PLAN_1
 62
     2
  6
CONTINUOUS
 10
0.201051
 20
0.838768
  0
VERTEX
  8
PLAN_1
 62
     2
  6
CONTINUOUS
 10
0.202791
 20
0.839925
  0
VERTEX
  8
PLAN_1
 62
     2
  6
CONTINUOUS
 10
0.204531
 20
0.841665
  0
VERTEX
  8
PLAN_1
 62
     2
  6
CONTINUOUS
 10
0.205693
 20
0.843409
  0
VERTEX
  8
PLAN_1
 62
     2
  6
CONTINUOUS
 10
0.206854
 20
0.845728
  0
VERTEX
  8
PLAN_1
 62
     2
  6
CONTINUOUS
 10
0.207433
 20
0.848051
  0
VERTEX
  8
PLAN_1
 62
     2
  6
CONTINUOUS
 10
0.207433
 20
0.850370
  0
VERTEX
  8
PLAN_1
 62
     2
  6
CONTINUOUS
 10
0.207433
 20
0.853272
  0
VERTEX
  8
PLAN_1
 62
     2
  6
CONTINUOUS
 10
0.206272
 20
0.856173
  0
VERTEX
  8
PLAN_1
 62
     2
  6
CONTINUOUS
 10
0.205693
 20
0.858496
  0
VERTEX
  8
PLAN_1
 62
     2
  6
CONTINUOUS
 10
0.203953
 20
0.860236
  0
VERTEX
  8
PLAN_1
 62
     2
  6
CONTINUOUS
 10
0.202213
 20
0.861398
  0
VERTEX
  8
PLAN_1
 62
     2
  6
CONTINUOUS
 10
0.200469
 20
0.862555
  0
VERTEX
  8
PLAN_1
 62
     2
  6
CONTINUOUS
 10
0.198150
 20
0.863138
  0
VERTEX
  8
PLAN_1
 62
     2
  6
CONTINUOUS
 10
0.195827
 20
0.863717
  0
SEQEND
  8
0
  0
POLYLINE
  8
PLAN_1
 62
     2
  6
CONTINUOUS
 66
     1
 40
0.003000
 41
0.003000
  0
VERTEX
  8
PLAN_1
 62
     2
  6
CONTINUOUS
 10
0.202791
 20
0.884606
  0
VERTEX
  8
PLAN_1
 62
     2
  6
CONTINUOUS
 10
0.198728
 20
0.884606
  0
VERTEX
  8
PLAN_1
 62
     2
  6
CONTINUOUS
 10
0.194665
 20
0.885189
  0
VERTEX
  8
PLAN_1
 62
     2
  6
CONTINUOUS
 10
0.191185
 20
0.885768
  0
VERTEX
  8
PLAN_1
 62
     2
  6
CONTINUOUS
 10
0.188866
 20
0.887508
  0
VERTEX
  8
PLAN_1
 62
     2
  6
CONTINUOUS
 10
0.185965
 20
0.888669
  0
VERTEX
  8
PLAN_1
 62
     2
  6
CONTINUOUS
 10
0.184220
 20
0.890409
  0
VERTEX
  8
PLAN_1
 62
     2
  6
CONTINUOUS
 10
0.181902
 20
0.892150
  0
VERTEX
  8
PLAN_1
 62
     2
  6
CONTINUOUS
 10
0.180740
 20
0.893890
  0
VERTEX
  8
PLAN_1
 62
     2
  6
CONTINUOUS
 10
0.178421
 20
0.897953
  0
VERTEX
  8
PLAN_1
 62
     2
  6
CONTINUOUS
 10
0.177260
 20
0.902594
  0
VERTEX
  8
PLAN_1
 62
     2
  6
CONTINUOUS
 10
0.176677
 20
0.906079
  0
VERTEX
  8
PLAN_1
 62
     2
  6
CONTINUOUS
 10
0.176677
 20
0.909559
  0
VERTEX
  8
PLAN_1
 62
     2
  6
CONTINUOUS
 10
0.176677
 20
0.914201
  0
VERTEX
  8
PLAN_1
 62
     2
  6
CONTINUOUS
 10
0.177839
 20
0.918843
  0
VERTEX
  8
PLAN_1
 62
     2
  6
CONTINUOUS
 10
0.179579
 20
0.922323
  0
VERTEX
  8
PLAN_1
 62
     2
  6
CONTINUOUS
 10
0.182480
 20
0.925807
  0
VERTEX
  8
PLAN_1
 62
     2
  6
CONTINUOUS
 10
0.185382
 20
0.928709
  0
VERTEX
  8
PLAN_1
 62
     2
  6
CONTINUOUS
 10
0.189445
 20
0.931028
  0
VERTEX
  8
PLAN_1
 62
     2
  6
CONTINUOUS
 10
0.193508
 20
0.932189
  0
VERTEX
  8
PLAN_1
 62
     2
  6
CONTINUOUS
 10
0.198150
 20
0.932768
  0
VERTEX
  8
PLAN_1
 62
     2
  6
CONTINUOUS
 10
0.202791
 20
0.932189
  0
VERTEX
  8
PLAN_1
 62
     2
  6
CONTINUOUS
 10
0.206854
 20
0.931028
  0
VERTEX
  8
PLAN_1
 62
     2
  6
CONTINUOUS
 10
0.210335
 20
0.929287
  0
VERTEX
  8
PLAN_1
 62
     2
  6
CONTINUOUS
 10
0.213236
 20
0.926969
  0
VERTEX
  8
PLAN_1
 62
     2
  6
CONTINUOUS
 10
0.216138
 20
0.924067
  0
VERTEX
  8
PLAN_1
 62
     2
  6
CONTINUOUS
 10
0.218457
 20
0.920583
  0
VERTEX
  8
PLAN_1
 62
     2
  6
CONTINUOUS
 10
0.220780
 20
0.917102
  0
VERTEX
  8
PLAN_1
 62
     2
  6
CONTINUOUS
 10
0.223098
 20
0.913039
  0
VERTEX
  8
PLAN_1
 62
     2
  6
CONTINUOUS
 10
0.227161
 20
0.905496
  0
VERTEX
  8
PLAN_1
 62
     2
  6
CONTINUOUS
 10
0.228902
 20
0.902016
  0
VERTEX
  8
PLAN_1
 62
     2
  6
CONTINUOUS
 10
0.231224
 20
0.899114
  0
VERTEX
  8
PLAN_1
 62
     2
  6
CONTINUOUS
 10
0.232965
 20
0.897374
  0
VERTEX
  8
PLAN_1
 62
     2
  6
CONTINUOUS
 10
0.235287
 20
0.895634
  0
VERTEX
  8
PLAN_1
 62
     2
  6
CONTINUOUS
 10
0.237028
 20
0.894472
  0
VERTEX
  8
PLAN_1
 62
     2
  6
CONTINUOUS
 10
0.238189
 20
0.893311
  0
VERTEX
  8
PLAN_1
 62
     2
  6
CONTINUOUS
 10
0.239929
 20
0.893311
  0
VERTEX
  8
PLAN_1
 62
     2
  6
CONTINUOUS
 10
0.241091
 20
0.892732
  0
VERTEX
  8
PLAN_1
 62
     2
  6
CONTINUOUS
 10
0.241091
 20
0.932768
  0
VERTEX
  8
PLAN_1
 62
     2
  6
CONTINUOUS
 10
0.249791
 20
0.932768
  0
VERTEX
  8
PLAN_1
 62
     2
  6
CONTINUOUS
 10
0.249791
 20
0.882287
  0
VERTEX
  8
PLAN_1
 62
     2
  6
CONTINUOUS
 10
0.243988
 20
0.882866
  0
VERTEX
  8
PLAN_1
 62
     2
  6
CONTINUOUS
 10
0.239346
 20
0.884028
  0
VERTEX
  8
PLAN_1
 62
     2
  6
CONTINUOUS
 10
0.235287
 20
0.885768
  0
VERTEX
  8
PLAN_1
 62
     2
  6
CONTINUOUS
 10
0.231803
 20
0.887508
  0
VERTEX
  8
PLAN_1
 62
     2
  6
CONTINUOUS
 10
0.228323
 20
0.889831
  0
VERTEX
  8
PLAN_1
 62
     2
  6
CONTINUOUS
 10
0.225421
 20
0.892732
  0
VERTEX
  8
PLAN_1
 62
     2
  6
CONTINUOUS
 10
0.223098
 20
0.896213
  0
VERTEX
  8
PLAN_1
 62
     2
  6
CONTINUOUS
 10
0.220780
 20
0.899693
  0
VERTEX
  8
PLAN_1
 62
     2
  6
CONTINUOUS
 10
0.214976
 20
0.909559
  0
VERTEX
  8
PLAN_1
 62
     2
  6
CONTINUOUS
 10
0.213236
 20
0.911878
  0
VERTEX
  8
PLAN_1
 62
     2
  6
CONTINUOUS
 10
0.212075
 20
0.914780
  0
VERTEX
  8
PLAN_1
 62
     2
  6
CONTINUOUS
 10
0.210335
 20
0.917102
  0
VERTEX
  8
PLAN_1
 62
     2
  6
CONTINUOUS
 10
0.208594
 20
0.918843
  0
VERTEX
  8
PLAN_1
 62
     2
  6
CONTINUOUS
 10
0.206272
 20
0.920583
  0
VERTEX
  8
PLAN_1
 62
     2
  6
CONTINUOUS
 10
0.203953
 20
0.921744
  0
VERTEX
  8
PLAN_1
 62
     2
  6
CONTINUOUS
 10
0.201051
 20
0.922323
  0
VERTEX
  8
PLAN_1
 62
     2
  6
CONTINUOUS
 10
0.198150
 20
0.922906
  0
VERTEX
  8
PLAN_1
 62
     2
  6
CONTINUOUS
 10
0.195827
 20
0.922323
  0
VERTEX
  8
PLAN_1
 62
     2
  6
CONTINUOUS
 10
0.193508
 20
0.921744
  0
VERTEX
  8
PLAN_1
 62
     2
  6
CONTINUOUS
 10
0.191185
 20
0.921165
  0
VERTEX
  8
PLAN_1
 62
     2
  6
CONTINUOUS
 10
0.189445
 20
0.919421
  0
VERTEX
  8
PLAN_1
 62
     2
  6
CONTINUOUS
 10
0.187122
 20
0.917681
  0
VERTEX
  8
PLAN_1
 62
     2
  6
CONTINUOUS
 10
0.185965
 20
0.915362
  0
VERTEX
  8
PLAN_1
 62
     2
  6
CONTINUOUS
 10
0.184803
 20
0.911878
  0
VERTEX
  8
PLAN_1
 62
     2
  6
CONTINUOUS
 10
0.184803
 20
0.908398
  0
VERTEX
  8
PLAN_1
 62
     2
  6
CONTINUOUS
 10
0.184803
 20
0.906079
  0
VERTEX
  8
PLAN_1
 62
     2
  6
CONTINUOUS
 10
0.185382
 20
0.903756
  0
VERTEX
  8
PLAN_1
 62
     2
  6
CONTINUOUS
 10
0.185965
 20
0.902016
  0
VERTEX
  8
PLAN_1
 62
     2
  6
CONTINUOUS
 10
0.187122
 20
0.900276
  0
VERTEX
  8
PLAN_1
 62
     2
  6
CONTINUOUS
 10
0.188866
 20
0.897374
  0
VERTEX
  8
PLAN_1
 62
     2
  6
CONTINUOUS
 10
0.191768
 20
0.895634
  0
VERTEX
  8
PLAN_1
 62
     2
  6
CONTINUOUS
 10
0.194665
 20
0.894472
  0
VERTEX
  8
PLAN_1
 62
     2
  6
CONTINUOUS
 10
0.197567
 20
0.893890
  0
VERTEX
  8
PLAN_1
 62
     2
  6
CONTINUOUS
 10
0.200469
 20
0.893890
  0
VERTEX
  8
PLAN_1
 62
     2
  6
CONTINUOUS
 10
0.202791
 20
0.893311
  0
VERTEX
  8
PLAN_1
 62
     2
  6
CONTINUOUS
 10
0.202791
 20
0.884606
  0
SEQEND
  8
0
  0
POLYLINE
  8
PLAN_1
 62
     2
  6
CONTINUOUS
 66
     1
 40
0.003000
 41
0.003000
  0
VERTEX
  8
PLAN_1
 62
     2
  6
CONTINUOUS
 10
0.195248
 20
0.973390
  0
VERTEX
  8
PLAN_1
 62
     2
  6
CONTINUOUS
 10
0.195248
 20
0.982091
  0
VERTEX
  8
PLAN_1
 62
     2
  6
CONTINUOUS
 10
0.202791
 20
0.982091
  0
VERTEX
  8
PLAN_1
 62
     2
  6
CONTINUOUS
 10
0.201630
 20
0.983252
  0
VERTEX
  8
PLAN_1
 62
     2
  6
CONTINUOUS
 10
0.200469
 20
0.984413
  0
VERTEX
  8
PLAN_1
 62
     2
  6
CONTINUOUS
 10
0.198728
 20
0.985575
  0
VERTEX
  8
PLAN_1
 62
     2
  6
CONTINUOUS
 10
0.196988
 20
0.987315
  0
VERTEX
  8
PLAN_1
 62
     2
  6
CONTINUOUS
 10
0.195827
 20
0.989634
  0
VERTEX
  8
PLAN_1
 62
     2
  6
CONTINUOUS
 10
0.194665
 20
0.991957
  0
VERTEX
  8
PLAN_1
 62
     2
  6
CONTINUOUS
 10
0.194087
 20
0.995437
  0
VERTEX
  8
PLAN_1
 62
     2
  6
CONTINUOUS
 10
0.193508
 20
0.998921
  0
VERTEX
  8
PLAN_1
 62
     2
  6
CONTINUOUS
 10
0.194087
 20
1.001823
  0
VERTEX
  8
PLAN_1
 62
     2
  6
CONTINUOUS
 10
0.194665
 20
1.004720
  0
VERTEX
  8
PLAN_1
 62
     2
  6
CONTINUOUS
 10
0.195827
 20
1.007043
  0
VERTEX
  8
PLAN_1
 62
     2
  6
CONTINUOUS
 10
0.196988
 20
1.008783
  0
VERTEX
  8
PLAN_1
 62
     2
  6
CONTINUOUS
 10
0.198728
 20
1.010524
  0
VERTEX
  8
PLAN_1
 62
     2
  6
CONTINUOUS
 10
0.199890
 20
1.011685
  0
VERTEX
  8
PLAN_1
 62
     2
  6
CONTINUOUS
 10
0.201051
 20
1.012268
  0
VERTEX
  8
PLAN_1
 62
     2
  6
CONTINUOUS
 10
0.202791
 20
1.012846
  0
VERTEX
  8
PLAN_1
 62
     2
  6
CONTINUOUS
 10
0.200469
 20
1.014587
  0
VERTEX
  8
PLAN_1
 62
     2
  6
CONTINUOUS
 10
0.198728
 20
1.016327
  0
VERTEX
  8
PLAN_1
 62
     2
  6
CONTINUOUS
 10
0.197567
 20
1.018067
  0
VERTEX
  8
PLAN_1
 62
     2
  6
CONTINUOUS
 10
0.196409
 20
1.019811
  0
VERTEX
  8
PLAN_1
 62
     2
  6
CONTINUOUS
 10
0.195248
 20
1.022130
  0
VERTEX
  8
PLAN_1
 62
     2
  6
CONTINUOUS
 10
0.194087
 20
1.024453
  0
VERTEX
  8
PLAN_1
 62
     2
  6
CONTINUOUS
 10
0.194087
 20
1.026772
  0
VERTEX
  8
PLAN_1
 62
     2
  6
CONTINUOUS
 10
0.193508
 20
1.029673
  0
VERTEX
  8
PLAN_1
 62
     2
  6
CONTINUOUS
 10
0.194087
 20
1.031996
  0
VERTEX
  8
PLAN_1
 62
     2
  6
CONTINUOUS
 10
0.194665
 20
1.034898
  0
VERTEX
  8
PLAN_1
 62
     2
  6
CONTINUOUS
 10
0.195248
 20
1.037799
  0
VERTEX
  8
PLAN_1
 62
     2
  6
CONTINUOUS
 10
0.196988
 20
1.040118
  0
VERTEX
  8
PLAN_1
 62
     2
  6
CONTINUOUS
 10
0.199311
 20
1.043020
  0
VERTEX
  8
PLAN_1
 62
     2
  6
CONTINUOUS
 10
0.202791
 20
1.044760
  0
VERTEX
  8
PLAN_1
 62
     2
  6
CONTINUOUS
 10
0.206854
 20
1.045921
  0
VERTEX
  8
PLAN_1
 62
     2
  6
CONTINUOUS
 10
0.212075
 20
1.046500
  0
VERTEX
  8
PLAN_1
 62
     2
  6
CONTINUOUS
 10
0.249791
 20
1.046500
  0
VERTEX
  8
PLAN_1
 62
     2
  6
CONTINUOUS
 10
0.249791
 20
1.037217
  0
VERTEX
  8
PLAN_1
 62
     2
  6
CONTINUOUS
 10
0.214398
 20
1.037217
  0
VERTEX
  8
PLAN_1
 62
     2
  6
CONTINUOUS
 10
0.212075
 20
1.037217
  0
VERTEX
  8
PLAN_1
 62
     2
  6
CONTINUOUS
 10
0.209173
 20
1.037217
  0
VERTEX
  8
PLAN_1
 62
     2
  6
CONTINUOUS
 10
0.207433
 20
1.036055
  0
VERTEX
  8
PLAN_1
 62
     2
  6
CONTINUOUS
 10
0.205110
 20
1.035476
  0
VERTEX
  8
PLAN_1
 62
     2
  6
CONTINUOUS
 10
0.203953
 20
1.033736
  0
VERTEX
  8
PLAN_1
 62
     2
  6
CONTINUOUS
 10
0.202791
 20
1.031996
  0
VERTEX
  8
PLAN_1
 62
     2
  6
CONTINUOUS
 10
0.202213
 20
1.030256
  0
VERTEX
  8
PLAN_1
 62
     2
  6
CONTINUOUS
 10
0.201630
 20
1.027354
  0
VERTEX
  8
PLAN_1
 62
     2
  6
CONTINUOUS
 10
0.202213
 20
1.024453
  0
VERTEX
  8
PLAN_1
 62
     2
  6
CONTINUOUS
 10
0.203370
 20
1.022130
  0
VERTEX
  8
PLAN_1
 62
     2
  6
CONTINUOUS
 10
0.204531
 20
1.019811
  0
VERTEX
  8
PLAN_1
 62
     2
  6
CONTINUOUS
 10
0.206272
 20
1.018067
  0
VERTEX
  8
PLAN_1
 62
     2
  6
CONTINUOUS
 10
0.208594
 20
1.016327
  0
VERTEX
  8
PLAN_1
 62
     2
  6
CONTINUOUS
 10
0.210913
 20
1.015748
  0
VERTEX
  8
PLAN_1
 62
     2
  6
CONTINUOUS
 10
0.213815
 20
1.014587
  0
VERTEX
  8
PLAN_1
 62
     2
  6
CONTINUOUS
 10
0.216717
 20
1.014587
  0
VERTEX
  8
PLAN_1
 62
     2
  6
CONTINUOUS
 10
0.249791
 20
1.014587
  0
VERTEX
  8
PLAN_1
 62
     2
  6
CONTINUOUS
 10
0.249791
 20
1.005303
  0
VERTEX
  8
PLAN_1
 62
     2
  6
CONTINUOUS
 10
0.212075
 20
1.005303
  0
VERTEX
  8
PLAN_1
 62
     2
  6
CONTINUOUS
 10
0.210335
 20
1.005303
  0
VERTEX
  8
PLAN_1
 62
     2
  6
CONTINUOUS
 10
0.208594
 20
1.005303
  0
VERTEX
  8
PLAN_1
 62
     2
  6
CONTINUOUS
 10
0.206854
 20
1.004720
  0
VERTEX
  8
PLAN_1
 62
     2
  6
CONTINUOUS
 10
0.205110
 20
1.003563
  0
VERTEX
  8
PLAN_1
 62
     2
  6
CONTINUOUS
 10
0.203953
 20
1.002402
  0
VERTEX
  8
PLAN_1
 62
     2
  6
CONTINUOUS
 10
0.202791
 20
1.001240
  0
VERTEX
  8
PLAN_1
 62
     2
  6
CONTINUOUS
 10
0.202213
 20
0.998921
  0
VERTEX
  8
PLAN_1
 62
     2
  6
CONTINUOUS
 10
0.201630
 20
0.997177
  0
VERTEX
  8
PLAN_1
 62
     2
  6
CONTINUOUS
 10
0.202213
 20
0.994858
  0
VERTEX
  8
PLAN_1
 62
     2
  6
CONTINUOUS
 10
0.202791
 20
0.992535
  0
VERTEX
  8
PLAN_1
 62
     2
  6
CONTINUOUS
 10
0.203953
 20
0.990217
  0
VERTEX
  8
PLAN_1
 62
     2
  6
CONTINUOUS
 10
0.205693
 20
0.987894
  0
VERTEX
  8
PLAN_1
 62
     2
  6
CONTINUOUS
 10
0.208012
 20
0.985575
  0
VERTEX
  8
PLAN_1
 62
     2
  6
CONTINUOUS
 10
0.210913
 20
0.983835
  0
VERTEX
  8
PLAN_1
 62
     2
  6
CONTINUOUS
 10
0.214976
 20
0.982673
  0
VERTEX
  8
PLAN_1
 62
     2
  6
CONTINUOUS
 10
0.220201
 20
0.982673
  0
VERTEX
  8
PLAN_1
 62
     2
  6
CONTINUOUS
 10
0.249791
 20
0.982673
  0
VERTEX
  8
PLAN_1
 62
     2
  6
CONTINUOUS
 10
0.249791
 20
0.973390
  0
VERTEX
  8
PLAN_1
 62
     2
  6
CONTINUOUS
 10
0.195248
 20
0.973390
  0
SEQEND
  8
0
  0
POLYLINE
  8
PLAN_1
 62
     2
  6
CONTINUOUS
 66
     1
 40
0.003000
 41
0.003000
  0
VERTEX
  8
PLAN_1
 62
     2
  6
CONTINUOUS
 10
0.212075
 20
1.059846
  0
VERTEX
  8
PLAN_1
 62
     2
  6
CONTINUOUS
 10
0.207433
 20
1.060429
  0
VERTEX
  8
PLAN_1
 62
     2
  6
CONTINUOUS
 10
0.203370
 20
1.061591
  0
VERTEX
  8
PLAN_1
 62
     2
  6
CONTINUOUS
 10
0.200469
 20
1.063331
  0
VERTEX
  8
PLAN_1
 62
     2
  6
CONTINUOUS
 10
0.198150
 20
1.066232
  0
VERTEX
  8
PLAN_1
 62
     2
  6
CONTINUOUS
 10
0.195827
 20
1.069134
  0
VERTEX
  8
PLAN_1
 62
     2
  6
CONTINUOUS
 10
0.194665
 20
1.073193
  0
VERTEX
  8
PLAN_1
 62
     2
  6
CONTINUOUS
 10
0.194087
 20
1.077256
  0
VERTEX
  8
PLAN_1
 62
     2
  6
CONTINUOUS
 10
0.193508
 20
1.082476
  0
VERTEX
  8
PLAN_1
 62
     2
  6
CONTINUOUS
 10
0.193508
 20
1.084220
  0
VERTEX
  8
PLAN_1
 62
     2
  6
CONTINUOUS
 10
0.194087
 20
1.087122
  0
VERTEX
  8
PLAN_1
 62
     2
  6
CONTINUOUS
 10
0.194665
 20
1.090602
  0
VERTEX
  8
PLAN_1
 62
     2
  6
CONTINUOUS
 10
0.195827
 20
1.094083
  0
VERTEX
  8
PLAN_1
 62
     2
  6
CONTINUOUS
 10
0.198150
 20
1.096984
  0
VERTEX
  8
PLAN_1
 62
     2
  6
CONTINUOUS
 10
0.200469
 20
1.099886
  0
VERTEX
  8
PLAN_1
 62
     2
  6
CONTINUOUS
 10
0.202213
 20
1.101047
  0
VERTEX
  8
PLAN_1
 62
     2
  6
CONTINUOUS
 10
0.203953
 20
1.101626
  0
VERTEX
  8
PLAN_1
 62
     2
  6
CONTINUOUS
 10
0.206272
 20
1.102209
  0
VERTEX
  8
PLAN_1
 62
     2
  6
CONTINUOUS
 10
0.208594
 20
1.102209
  0
VERTEX
  8
PLAN_1
 62
     2
  6
CONTINUOUS
 10
0.239929
 20
1.102209
  0
VERTEX
  8
PLAN_1
 62
     2
  6
CONTINUOUS
 10
0.241091
 20
1.102209
  0
VERTEX
  8
PLAN_1
 62
     2
  6
CONTINUOUS
 10
0.241669
 20
1.102787
  0
VERTEX
  8
PLAN_1
 62
     2
  6
CONTINUOUS
 10
0.242248
 20
1.102787
  0
VERTEX
  8
PLAN_1
 62
     2
  6
CONTINUOUS
 10
0.242831
 20
1.103366
  0
VERTEX
  8
PLAN_1
 62
     2
  6
CONTINUOUS
 10
0.242831
 20
1.103949
  0
VERTEX
  8
PLAN_1
 62
     2
  6
CONTINUOUS
 10
0.243409
 20
1.103949
  0
VERTEX
  8
PLAN_1
 62
     2
  6
CONTINUOUS
 10
0.243409
 20
1.104528
  0
VERTEX
  8
PLAN_1
 62
     2
  6
CONTINUOUS
 10
0.243409
 20
1.105689
  0
VERTEX
  8
PLAN_1
 62
     2
  6
CONTINUOUS
 10
0.243409
 20
1.106268
  0
VERTEX
  8
PLAN_1
 62
     2
  6
CONTINUOUS
 10
0.243409
 20
1.106850
  0
VERTEX
  8
PLAN_1
 62
     2
  6
CONTINUOUS
 10
0.243409
 20
1.107429
  0
VERTEX
  8
PLAN_1
 62
     2
  6
CONTINUOUS
 10
0.242831
 20
1.108012
  0
VERTEX
  8
PLAN_1
 62
     2
  6
CONTINUOUS
 10
0.242831
 20
1.108591
  0
VERTEX
  8
PLAN_1
 62
     2
  6
CONTINUOUS
 10
0.249791
 20
1.108591
  0
VERTEX
  8
PLAN_1
 62
     2
  6
CONTINUOUS
 10
0.249791
 20
1.108012
  0
VERTEX
  8
PLAN_1
 62
     2
  6
CONTINUOUS
 10
0.249791
 20
1.107429
  0
VERTEX
  8
PLAN_1
 62
     2
  6
CONTINUOUS
 10
0.250374
 20
1.106850
  0
VERTEX
  8
PLAN_1
 62
     2
  6
CONTINUOUS
 10
0.250374
 20
1.106268
  0
VERTEX
  8
PLAN_1
 62
     2
  6
CONTINUOUS
 10
0.250374
 20
1.105689
  0
VERTEX
  8
PLAN_1
 62
     2
  6
CONTINUOUS
 10
0.250374
 20
1.105110
  0
VERTEX
  8
PLAN_1
 62
     2
  6
CONTINUOUS
 10
0.250953
 20
1.103949
  0
VERTEX
  8
PLAN_1
 62
     2
  6
CONTINUOUS
 10
0.250953
 20
1.103366
  0
VERTEX
  8
PLAN_1
 62
     2
  6
CONTINUOUS
 10
0.250374
 20
1.100469
  0
VERTEX
  8
PLAN_1
 62
     2
  6
CONTINUOUS
 10
0.249791
 20
1.098724
  0
VERTEX
  8
PLAN_1
 62
     2
  6
CONTINUOUS
 10
0.249213
 20
1.096984
  0
VERTEX
  8
PLAN_1
 62
     2
  6
CONTINUOUS
 10
0.248051
 20
1.095823
  0
VERTEX
  8
PLAN_1
 62
     2
  6
CONTINUOUS
 10
0.246890
 20
1.094665
  0
VERTEX
  8
PLAN_1
 62
     2
  6
CONTINUOUS
 10
0.245150
 20
1.094083
  0
VERTEX
  8
PLAN_1
 62
     2
  6
CONTINUOUS
 10
0.243988
 20
1.094083
  0
VERTEX
  8
PLAN_1
 62
     2
  6
CONTINUOUS
 10
0.242248
 20
1.094083
  0
VERTEX
  8
PLAN_1
 62
     2
  6
CONTINUOUS
 10
0.243988
 20
1.092343
  0
VERTEX
  8
PLAN_1
 62
     2
  6
CONTINUOUS
 10
0.245150
 20
1.090602
  0
VERTEX
  8
PLAN_1
 62
     2
  6
CONTINUOUS
 10
0.246890
 20
1.088862
  0
VERTEX
  8
PLAN_1
 62
     2
  6
CONTINUOUS
 10
0.248051
 20
1.086539
  0
VERTEX
  8
PLAN_1
 62
     2
  6
CONTINUOUS
 10
0.249213
 20
1.084220
  0
VERTEX
  8
PLAN_1
 62
     2
  6
CONTINUOUS
 10
0.250374
 20
1.081319
  0
VERTEX
  8
PLAN_1
 62
     2
  6
CONTINUOUS
 10
0.250953
 20
1.077835
  0
VERTEX
  8
PLAN_1
 62
     2
  6
CONTINUOUS
 10
0.250953
 20
1.074354
  0
VERTEX
  8
PLAN_1
 62
     2
  6
CONTINUOUS
 10
0.250953
 20
1.070291
  0
VERTEX
  8
PLAN_1
 62
     2
  6
CONTINUOUS
 10
0.249791
 20
1.067390
  0
VERTEX
  8
PLAN_1
 62
     2
  6
CONTINUOUS
 10
0.248634
 20
1.064488
  0
VERTEX
  8
PLAN_1
 62
     2
  6
CONTINUOUS
 10
0.246890
 20
1.061591
  0
VERTEX
  8
PLAN_1
 62
     2
  6
CONTINUOUS
 10
0.244571
 20
1.059846
  0
VERTEX
  8
PLAN_1
 62
     2
  6
CONTINUOUS
 10
0.241669
 20
1.058106
  0
VERTEX
  8
PLAN_1
 62
     2
  6
CONTINUOUS
 10
0.238768
 20
1.057528
  0
VERTEX
  8
PLAN_1
 62
     2
  6
CONTINUOUS
 10
0.235287
 20
1.056945
  0
VERTEX
  8
PLAN_1
 62
     2
  6
CONTINUOUS
 10
0.233543
 20
1.056945
  0
VERTEX
  8
PLAN_1
 62
     2
  6
CONTINUOUS
 10
0.231224
 20
1.057528
  0
VERTEX
  8
PLAN_1
 62
     2
  6
CONTINUOUS
 10
0.228323
 20
1.058106
  0
VERTEX
  8
PLAN_1
 62
     2
  6
CONTINUOUS
 10
0.226000
 20
1.059846
  0
VERTEX
  8
PLAN_1
 62
     2
  6
CONTINUOUS
 10
0.223681
 20
1.061591
  0
VERTEX
  8
PLAN_1
 62
     2
  6
CONTINUOUS
 10
0.221358
 20
1.064488
  0
VERTEX
  8
PLAN_1
 62
     2
  6
CONTINUOUS
 10
0.219618
 20
1.068551
  0
VERTEX
  8
PLAN_1
 62
     2
  6
CONTINUOUS
 10
0.218457
 20
1.073776
  0
VERTEX
  8
PLAN_1
 62
     2
  6
CONTINUOUS
 10
0.216717
 20
1.088862
  0
VERTEX
  8
PLAN_1
 62
     2
  6
CONTINUOUS
 10
0.216717
 20
1.089441
  0
VERTEX
  8
PLAN_1
 62
     2
  6
CONTINUOUS
 10
0.216138
 20
1.090602
  0
VERTEX
  8
PLAN_1
 62
     2
  6
CONTINUOUS
 10
0.216138
 20
1.091181
  0
VERTEX
  8
PLAN_1
 62
     2
  6
CONTINUOUS
 10
0.215555
 20
1.091764
  0
VERTEX
  8
PLAN_1
 62
     2
  6
CONTINUOUS
 10
0.214398
 20
1.092343
  0
VERTEX
  8
PLAN_1
 62
     2
  6
CONTINUOUS
 10
0.213236
 20
1.092921
  0
VERTEX
  8
PLAN_1
 62
     2
  6
CONTINUOUS
 10
0.212075
 20
1.093504
  0
VERTEX
  8
PLAN_1
 62
     2
  6
CONTINUOUS
 10
0.210335
 20
1.093504
  0
VERTEX
  8
PLAN_1
 62
     2
  6
CONTINUOUS
 10
0.208012
 20
1.093504
  0
VERTEX
  8
PLAN_1
 62
     2
  6
CONTINUOUS
 10
0.206272
 20
1.092921
  0
VERTEX
  8
PLAN_1
 62
     2
  6
CONTINUOUS
 10
0.204531
 20
1.091764
  0
VERTEX
  8
PLAN_1
 62
     2
  6
CONTINUOUS
 10
0.203370
 20
1.090602
  0
VERTEX
  8
PLAN_1
 62
     2
  6
CONTINUOUS
 10
0.202791
 20
1.088280
  0
VERTEX
  8
PLAN_1
 62
     2
  6
CONTINUOUS
 10
0.201630
 20
1.086539
  0
VERTEX
  8
PLAN_1
 62
     2
  6
CONTINUOUS
 10
0.201630
 20
1.083638
  0
VERTEX
  8
PLAN_1
 62
     2
  6
CONTINUOUS
 10
0.201051
 20
1.080736
  0
VERTEX
  8
PLAN_1
 62
     2
  6
CONTINUOUS
 10
0.201630
 20
1.077256
  0
VERTEX
  8
PLAN_1
 62
     2
  6
CONTINUOUS
 10
0.202213
 20
1.074354
  0
VERTEX
  8
PLAN_1
 62
     2
  6
CONTINUOUS
 10
0.203370
 20
1.072614
  0
VERTEX
  8
PLAN_1
 62
     2
  6
CONTINUOUS
 10
0.205110
 20
1.070874
  0
VERTEX
  8
PLAN_1
 62
     2
  6
CONTINUOUS
 10
0.206854
 20
1.069713
  0
VERTEX
  8
PLAN_1
 62
     2
  6
CONTINUOUS
 10
0.208594
 20
1.069134
  0
VERTEX
  8
PLAN_1
 62
     2
  6
CONTINUOUS
 10
0.210335
 20
1.068551
  0
VERTEX
  8
PLAN_1
 62
     2
  6
CONTINUOUS
 10
0.212075
 20
1.067972
  0
VERTEX
  8
PLAN_1
 62
     2
  6
CONTINUOUS
 10
0.212075
 20
1.059846
  0
SEQEND
  8
0
  0
POLYLINE
  8
PLAN_1
 62
     2
  6
CONTINUOUS
 66
     1
 40
0.003000
 41
0.003000
  0
VERTEX
  8
PLAN_1
 62
     2
  6
CONTINUOUS
 10
0.221941
 20
1.093504
  0
VERTEX
  8
PLAN_1
 62
     2
  6
CONTINUOUS
 10
0.222520
 20
1.092921
  0
VERTEX
  8
PLAN_1
 62
     2
  6
CONTINUOUS
 10
0.222520
 20
1.091764
  0
VERTEX
  8
PLAN_1
 62
     2
  6
CONTINUOUS
 10
0.223098
 20
1.090602
  0
VERTEX
  8
PLAN_1
 62
     2
  6
CONTINUOUS
 10
0.223681
 20
1.089441
  0
VERTEX
  8
PLAN_1
 62
     2
  6
CONTINUOUS
 10
0.223681
 20
1.087701
  0
VERTEX
  8
PLAN_1
 62
     2
  6
CONTINUOUS
 10
0.224260
 20
1.085378
  0
VERTEX
  8
PLAN_1
 62
     2
  6
CONTINUOUS
 10
0.224843
 20
1.081898
  0
VERTEX
  8
PLAN_1
 62
     2
  6
CONTINUOUS
 10
0.225421
 20
1.078417
  0
VERTEX
  8
PLAN_1
 62
     2
  6
CONTINUOUS
 10
0.225421
 20
1.076677
  0
VERTEX
  8
PLAN_1
 62
     2
  6
CONTINUOUS
 10
0.226000
 20
1.074354
  0
VERTEX
  8
PLAN_1
 62
     2
  6
CONTINUOUS
 10
0.226583
 20
1.072614
  0
VERTEX
  8
PLAN_1
 62
     2
  6
CONTINUOUS
 10
0.227161
 20
1.070874
  0
VERTEX
  8
PLAN_1
 62
     2
  6
CONTINUOUS
 10
0.228323
 20
1.069134
  0
VERTEX
  8
PLAN_1
 62
     2
  6
CONTINUOUS
 10
0.230063
 20
1.067972
  0
VERTEX
  8
PLAN_1
 62
     2
  6
CONTINUOUS
 10
0.231803
 20
1.066811
  0
VERTEX
  8
PLAN_1
 62
     2
  6
CONTINUOUS
 10
0.234126
 20
1.066811
  0
VERTEX
  8
PLAN_1
 62
     2
  6
CONTINUOUS
 10
0.236445
 20
1.066811
  0
VERTEX
  8
PLAN_1
 62
     2
  6
CONTINUOUS
 10
0.238189
 20
1.067390
  0
VERTEX
  8
PLAN_1
 62
     2
  6
CONTINUOUS
 10
0.239929
 20
1.067972
  0
VERTEX
  8
PLAN_1
 62
     2
  6
CONTINUOUS
 10
0.241091
 20
1.069134
  0
VERTEX
  8
PLAN_1
 62
     2
  6
CONTINUOUS
 10
0.242248
 20
1.070291
  0
VERTEX
  8
PLAN_1
 62
     2
  6
CONTINUOUS
 10
0.242831
 20
1.072031
  0
VERTEX
  8
PLAN_1
 62
     2
  6
CONTINUOUS
 10
0.243409
 20
1.073776
  0
VERTEX
  8
PLAN_1
 62
     2
  6
CONTINUOUS
 10
0.243409
 20
1.076677
  0
VERTEX
  8
PLAN_1
 62
     2
  6
CONTINUOUS
 10
0.243409
 20
1.079579
  0
VERTEX
  8
PLAN_1
 62
     2
  6
CONTINUOUS
 10
0.242831
 20
1.082476
  0
VERTEX
  8
PLAN_1
 62
     2
  6
CONTINUOUS
 10
0.241669
 20
1.085378
  0
VERTEX
  8
PLAN_1
 62
     2
  6
CONTINUOUS
 10
0.239929
 20
1.088280
  0
VERTEX
  8
PLAN_1
 62
     2
  6
CONTINUOUS
 10
0.238189
 20
1.090024
  0
VERTEX
  8
PLAN_1
 62
     2
  6
CONTINUOUS
 10
0.235866
 20
1.091764
  0
VERTEX
  8
PLAN_1
 62
     2
  6
CONTINUOUS
 10
0.233543
 20
1.092921
  0
VERTEX
  8
PLAN_1
 62
     2
  6
CONTINUOUS
 10
0.230646
 20
1.093504
  0
VERTEX
  8
PLAN_1
 62
     2
  6
CONTINUOUS
 10
0.221941
 20
1.093504
  0
SEQEND
  8
0
  0
POLYLINE
  8
PLAN_1
 62
     2
  6
CONTINUOUS
 66
     1
 40
0.003000
 41
0.003000
  0
VERTEX
  8
PLAN_1
 62
     2
  6
CONTINUOUS
 10
0.249791
 20
1.161976
  0
VERTEX
  8
PLAN_1
 62
     2
  6
CONTINUOUS
 10
0.249791
 20
1.150370
  0
VERTEX
  8
PLAN_1
 62
     2
  6
CONTINUOUS
 10
0.228902
 20
1.137024
  0
VERTEX
  8
PLAN_1
 62
     2
  6
CONTINUOUS
 10
0.249791
 20
1.123677
  0
VERTEX
  8
PLAN_1
 62
     2
  6
CONTINUOUS
 10
0.249791
 20
1.112654
  0
VERTEX
  8
PLAN_1
 62
     2
  6
CONTINUOUS
 10
0.221941
 20
1.131220
  0
VERTEX
  8
PLAN_1
 62
     2
  6
CONTINUOUS
 10
0.195248
 20
1.113232
  0
VERTEX
  8
PLAN_1
 62
     2
  6
CONTINUOUS
 10
0.195248
 20
1.124839
  0
VERTEX
  8
PLAN_1
 62
     2
  6
CONTINUOUS
 10
0.214398
 20
1.137602
  0
VERTEX
  8
PLAN_1
 62
     2
  6
CONTINUOUS
 10
0.195248
 20
1.150370
  0
VERTEX
  8
PLAN_1
 62
     2
  6
CONTINUOUS
 10
0.195248
 20
1.161394
  0
VERTEX
  8
PLAN_1
 62
     2
  6
CONTINUOUS
 10
0.221941
 20
1.142827
  0
VERTEX
  8
PLAN_1
 62
     2
  6
CONTINUOUS
 10
0.249791
 20
1.161976
  0
SEQEND
  8
0
  0
SOLID
  8
PLAN_1
 62
     2
 10
0.249791
 20
1.179382
 11
0.249791
 21
1.170098
 12
0.195248
 22
1.179382
 13
0.195248
 23
1.170098
  0
POLYLINE
  8
PLAN_1
 62
     2
  6
CONTINUOUS
 66
     1
 40
0.003000
 41
0.003000
  0
VERTEX
  8
PLAN_1
 62
     2
  6
CONTINUOUS
 10
0.249791
 20
1.179382
  0
VERTEX
  8
PLAN_1
 62
     2
  6
CONTINUOUS
 10
0.249791
 20
1.170098
  0
VERTEX
  8
PLAN_1
 62
     2
  6
CONTINUOUS
 10
0.195248
 20
1.170098
  0
VERTEX
  8
PLAN_1
 62
     2
  6
CONTINUOUS
 10
0.195248
 20
1.179382
  0
VERTEX
  8
PLAN_1
 62
     2
  6
CONTINUOUS
 10
0.249791
 20
1.179382
  0
SEQEND
  8
0
  0
SOLID
  8
PLAN_1
 62
     2
 10
0.185382
 20
1.170098
 11
0.174937
 21
1.170098
 12
0.185382
 22
1.179382
 13
0.174937
 23
1.179382
  0
POLYLINE
  8
PLAN_1
 62
     2
  6
CONTINUOUS
 66
     1
 40
0.003000
 41
0.003000
  0
VERTEX
  8
PLAN_1
 62
     2
  6
CONTINUOUS
 10
0.185382
 20
1.170098
  0
VERTEX
  8
PLAN_1
 62
     2
  6
CONTINUOUS
 10
0.174937
 20
1.170098
  0
VERTEX
  8
PLAN_1
 62
     2
  6
CONTINUOUS
 10
0.174937
 20
1.179382
  0
VERTEX
  8
PLAN_1
 62
     2
  6
CONTINUOUS
 10
0.185382
 20
1.179382
  0
VERTEX
  8
PLAN_1
 62
     2
  6
CONTINUOUS
 10
0.185382
 20
1.170098
  0
SEQEND
  8
0
  0
POLYLINE
  8
PLAN_1
 62
     2
  6
CONTINUOUS
 66
     1
 40
0.003000
 41
0.003000
  0
VERTEX
  8
PLAN_1
 62
     2
  6
CONTINUOUS
 10
-1.868764
 20
4.569886
  0
VERTEX
  8
PLAN_1
 62
     2
  6
CONTINUOUS
 10
-1.868764
 20
4.561764
  0
SEQEND
  8
0
  0
POLYLINE
  8
PLAN_1
 62
     2
  6
CONTINUOUS
 66
     1
 40
0.003000
 41
0.003000
  0
VERTEX
  8
PLAN_1
 62
     2
  6
CONTINUOUS
 10
-1.868764
 20
4.553059
  0
VERTEX
  8
PLAN_1
 62
     2
  6
CONTINUOUS
 10
-1.868764
 20
4.544933
  0
SEQEND
  8
0
  0
POLYLINE
  8
PLAN_1
 62
     2
  6
CONTINUOUS
 66
     1
 40
0.003000
 41
0.003000
  0
VERTEX
  8
PLAN_1
 62
     2
  6
CONTINUOUS
 10
-1.868764
 20
4.536811
  0
VERTEX
  8
PLAN_1
 62
     2
  6
CONTINUOUS
 10
-1.868764
 20
4.528106
  0
SEQEND
  8
0
  0
POLYLINE
  8
PLAN_1
 62
     2
  6
CONTINUOUS
 66
     1
 40
0.003000
 41
0.003000
  0
VERTEX
  8
PLAN_1
 62
     2
  6
CONTINUOUS
 10
-1.868764
 20
4.519984
  0
VERTEX
  8
PLAN_1
 62
     2
  6
CONTINUOUS
 10
-1.868764
 20
4.511858
  0
SEQEND
  8
0
  0
POLYLINE
  8
PLAN_1
 62
     2
  6
CONTINUOUS
 66
     1
 40
0.003000
 41
0.003000
  0
VERTEX
  8
PLAN_1
 62
     2
  6
CONTINUOUS
 10
-1.868764
 20
4.503157
  0
VERTEX
  8
PLAN_1
 62
     2
  6
CONTINUOUS
 10
-1.868764
 20
4.495031
  0
SEQEND
  8
0
  0
POLYLINE
  8
PLAN_1
 62
     2
  6
CONTINUOUS
 66
     1
 40
0.003000
 41
0.003000
  0
VERTEX
  8
PLAN_1
 62
     2
  6
CONTINUOUS
 10
-1.868764
 20
4.486327
  0
VERTEX
  8
PLAN_1
 62
     2
  6
CONTINUOUS
 10
-1.868764
 20
4.478205
  0
SEQEND
  8
0
  0
POLYLINE
  8
PLAN_1
 62
     2
  6
CONTINUOUS
 66
     1
 40
0.003000
 41
0.003000
  0
VERTEX
  8
PLAN_1
 62
     2
  6
CONTINUOUS
 10
-1.868764
 20
4.470079
  0
VERTEX
  8
PLAN_1
 62
     2
  6
CONTINUOUS
 10
-1.868764
 20
4.461378
  0
SEQEND
  8
0
  0
POLYLINE
  8
PLAN_1
 62
     2
  6
CONTINUOUS
 66
     1
 40
0.003000
 41
0.003000
  0
VERTEX
  8
PLAN_1
 62
     2
  6
CONTINUOUS
 10
-1.868764
 20
4.453252
  0
VERTEX
  8
PLAN_1
 62
     2
  6
CONTINUOUS
 10
-1.868764
 20
4.445130
  0
SEQEND
  8
0
  0
POLYLINE
  8
PLAN_1
 62
     2
  6
CONTINUOUS
 66
     1
 40
0.003000
 41
0.003000
  0
VERTEX
  8
PLAN_1
 62
     2
  6
CONTINUOUS
 10
-1.868764
 20
4.436425
  0
VERTEX
  8
PLAN_1
 62
     2
  6
CONTINUOUS
 10
-1.868764
 20
4.428299
  0
SEQEND
  8
0
  0
POLYLINE
  8
PLAN_1
 62
     2
  6
CONTINUOUS
 66
     1
 40
0.003000
 41
0.003000
  0
VERTEX
  8
PLAN_1
 62
     2
  6
CONTINUOUS
 10
-1.868764
 20
4.420177
  0
VERTEX
  8
PLAN_1
 62
     2
  6
CONTINUOUS
 10
-1.868764
 20
4.411472
  0
SEQEND
  8
0
  0
POLYLINE
  8
PLAN_1
 62
     2
  6
CONTINUOUS
 66
     1
 40
0.003000
 41
0.003000
  0
VERTEX
  8
PLAN_1
 62
     2
  6
CONTINUOUS
 10
-1.868764
 20
4.403350
  0
VERTEX
  8
PLAN_1
 62
     2
  6
CONTINUOUS
 10
-1.868764
 20
4.395224
  0
SEQEND
  8
0
  0
POLYLINE
  8
PLAN_1
 62
     2
  6
CONTINUOUS
 66
     1
 40
0.003000
 41
0.003000
  0
VERTEX
  8
PLAN_1
 62
     2
  6
CONTINUOUS
 10
-1.868764
 20
4.386524
  0
VERTEX
  8
PLAN_1
 62
     2
  6
CONTINUOUS
 10
-1.868764
 20
4.378398
  0
SEQEND
  8
0
  0
POLYLINE
  8
PLAN_1
 62
     2
  6
CONTINUOUS
 66
     1
 40
0.003000
 41
0.003000
  0
VERTEX
  8
PLAN_1
 62
     2
  6
CONTINUOUS
 10
-1.868764
 20
4.370276
  0
VERTEX
  8
PLAN_1
 62
     2
  6
CONTINUOUS
 10
-1.868764
 20
4.361571
  0
SEQEND
  8
0
  0
POLYLINE
  8
PLAN_1
 62
     2
  6
CONTINUOUS
 66
     1
 40
0.003000
 41
0.003000
  0
VERTEX
  8
PLAN_1
 62
     2
  6
CONTINUOUS
 10
-1.868764
 20
4.353445
  0
VERTEX
  8
PLAN_1
 62
     2
  6
CONTINUOUS
 10
-1.868764
 20
4.344744
  0
SEQEND
  8
0
  0
POLYLINE
  8
PLAN_1
 62
     2
  6
CONTINUOUS
 66
     1
 40
0.003000
 41
0.003000
  0
VERTEX
  8
PLAN_1
 62
     2
  6
CONTINUOUS
 10
-1.868764
 20
4.336618
  0
VERTEX
  8
PLAN_1
 62
     2
  6
CONTINUOUS
 10
-1.868764
 20
4.328496
  0
SEQEND
  8
0
  0
POLYLINE
  8
PLAN_1
 62
     2
  6
CONTINUOUS
 66
     1
 40
0.003000
 41
0.003000
  0
VERTEX
  8
PLAN_1
 62
     2
  6
CONTINUOUS
 10
-1.868764
 20
4.319791
  0
VERTEX
  8
PLAN_1
 62
     2
  6
CONTINUOUS
 10
-1.868764
 20
4.311665
  0
SEQEND
  8
0
  0
POLYLINE
  8
PLAN_1
 62
     2
  6
CONTINUOUS
 66
     1
 40
0.003000
 41
0.003000
  0
VERTEX
  8
PLAN_1
 62
     2
  6
CONTINUOUS
 10
-1.868764
 20
4.303543
  0
VERTEX
  8
PLAN_1
 62
     2
  6
CONTINUOUS
 10
-1.868764
 20
4.294839
  0
SEQEND
  8
0
  0
POLYLINE
  8
PLAN_1
 62
     2
  6
CONTINUOUS
 66
     1
 40
0.003000
 41
0.003000
  0
VERTEX
  8
PLAN_1
 62
     2
  6
CONTINUOUS
 10
-1.868764
 20
4.286717
  0
VERTEX
  8
PLAN_1
 62
     2
  6
CONTINUOUS
 10
-1.868764
 20
4.278591
  0
SEQEND
  8
0
  0
POLYLINE
  8
PLAN_1
 62
     2
  6
CONTINUOUS
 66
     1
 40
0.003000
 41
0.003000
  0
VERTEX
  8
PLAN_1
 62
     2
  6
CONTINUOUS
 10
-1.868764
 20
4.269890
  0
VERTEX
  8
PLAN_1
 62
     2
  6
CONTINUOUS
 10
-1.868764
 20
4.261764
  0
SEQEND
  8
0
  0
POLYLINE
  8
PLAN_1
 62
     2
  6
CONTINUOUS
 66
     1
 40
0.003000
 41
0.003000
  0
VERTEX
  8
PLAN_1
 62
     2
  6
CONTINUOUS
 10
-1.868764
 20
4.253642
  0
VERTEX
  8
PLAN_1
 62
     2
  6
CONTINUOUS
 10
-1.868764
 20
4.244937
  0
SEQEND
  8
0
  0
POLYLINE
  8
PLAN_1
 62
     2
  6
CONTINUOUS
 66
     1
 40
0.003000
 41
0.003000
  0
VERTEX
  8
PLAN_1
 62
     2
  6
CONTINUOUS
 10
-1.868764
 20
4.236811
  0
VERTEX
  8
PLAN_1
 62
     2
  6
CONTINUOUS
 10
-1.868764
 20
4.228689
  0
SEQEND
  8
0
  0
POLYLINE
  8
PLAN_1
 62
     2
  6
CONTINUOUS
 66
     1
 40
0.003000
 41
0.003000
  0
VERTEX
  8
PLAN_1
 62
     2
  6
CONTINUOUS
 10
-1.868764
 20
4.219984
  0
VERTEX
  8
PLAN_1
 62
     2
  6
CONTINUOUS
 10
-1.868764
 20
4.211862
  0
SEQEND
  8
0
  0
POLYLINE
  8
PLAN_1
 62
     2
  6
CONTINUOUS
 66
     1
 40
0.003000
 41
0.003000
  0
VERTEX
  8
PLAN_1
 62
     2
  6
CONTINUOUS
 10
-1.868764
 20
4.203157
  0
VERTEX
  8
PLAN_1
 62
     2
  6
CONTINUOUS
 10
-1.868764
 20
4.195031
  0
SEQEND
  8
0
  0
POLYLINE
  8
PLAN_1
 62
     2
  6
CONTINUOUS
 66
     1
 40
0.003000
 41
0.003000
  0
VERTEX
  8
PLAN_1
 62
     2
  6
CONTINUOUS
 10
-1.868764
 20
4.186909
  0
VERTEX
  8
PLAN_1
 62
     2
  6
CONTINUOUS
 10
-1.868764
 20
4.178205
  0
SEQEND
  8
0
  0
POLYLINE
  8
PLAN_1
 62
     2
  6
CONTINUOUS
 66
     1
 40
0.003000
 41
0.003000
  0
VERTEX
  8
PLAN_1
 62
     2
  6
CONTINUOUS
 10
-1.868764
 20
4.170083
  0
VERTEX
  8
PLAN_1
 62
     2
  6
CONTINUOUS
 10
-1.868764
 20
4.161957
  0
SEQEND
  8
0
  0
POLYLINE
  8
PLAN_1
 62
     2
  6
CONTINUOUS
 66
     1
 40
0.003000
 41
0.003000
  0
VERTEX
  8
PLAN_1
 62
     2
  6
CONTINUOUS
 10
-1.868764
 20
4.153256
  0
VERTEX
  8
PLAN_1
 62
     2
  6
CONTINUOUS
 10
-1.868764
 20
4.145130
  0
SEQEND
  8
0
  0
POLYLINE
  8
PLAN_1
 62
     2
  6
CONTINUOUS
 66
     1
 40
0.003000
 41
0.003000
  0
VERTEX
  8
PLAN_1
 62
     2
  6
CONTINUOUS
 10
-1.868764
 20
4.137008
  0
VERTEX
  8
PLAN_1
 62
     2
  6
CONTINUOUS
 10
-1.868764
 20
4.128303
  0
SEQEND
  8
0
  0
POLYLINE
  8
PLAN_1
 62
     2
  6
CONTINUOUS
 66
     1
 40
0.003000
 41
0.003000
  0
VERTEX
  8
PLAN_1
 62
     2
  6
CONTINUOUS
 10
-1.868764
 20
4.120177
  0
VERTEX
  8
PLAN_1
 62
     2
  6
CONTINUOUS
 10
-1.868764
 20
4.112055
  0
SEQEND
  8
0
  0
POLYLINE
  8
PLAN_1
 62
     2
  6
CONTINUOUS
 66
     1
 40
0.003000
 41
0.003000
  0
VERTEX
  8
PLAN_1
 62
     2
  6
CONTINUOUS
 10
-1.868764
 20
4.103350
  0
VERTEX
  8
PLAN_1
 62
     2
  6
CONTINUOUS
 10
-1.868764
 20
4.095228
  0
SEQEND
  8
0
  0
POLYLINE
  8
PLAN_1
 62
     2
  6
CONTINUOUS
 66
     1
 40
0.003000
 41
0.003000
  0
VERTEX
  8
PLAN_1
 62
     2
  6
CONTINUOUS
 10
-1.868764
 20
4.087102
  0
VERTEX
  8
PLAN_1
 62
     2
  6
CONTINUOUS
 10
-1.868764
 20
4.078402
  0
SEQEND
  8
0
  0
POLYLINE
  8
PLAN_1
 62
     2
  6
CONTINUOUS
 66
     1
 40
0.003000
 41
0.003000
  0
VERTEX
  8
PLAN_1
 62
     2
  6
CONTINUOUS
 10
-1.868764
 20
4.070276
  0
VERTEX
  8
PLAN_1
 62
     2
  6
CONTINUOUS
 10
-1.868764
 20
4.062154
  0
SEQEND
  8
0
  0
POLYLINE
  8
PLAN_1
 62
     2
  6
CONTINUOUS
 66
     1
 40
0.003000
 41
0.003000
  0
VERTEX
  8
PLAN_1
 62
     2
  6
CONTINUOUS
 10
-1.868764
 20
4.053449
  0
VERTEX
  8
PLAN_1
 62
     2
  6
CONTINUOUS
 10
-1.868764
 20
4.045323
  0
SEQEND
  8
0
  0
POLYLINE
  8
PLAN_1
 62
     2
  6
CONTINUOUS
 66
     1
 40
0.003000
 41
0.003000
  0
VERTEX
  8
PLAN_1
 62
     2
  6
CONTINUOUS
 10
-1.868764
 20
4.036622
  0
VERTEX
  8
PLAN_1
 62
     2
  6
CONTINUOUS
 10
-1.868764
 20
4.028496
  0
SEQEND
  8
0
  0
POLYLINE
  8
PLAN_1
 62
     2
  6
CONTINUOUS
 66
     1
 40
0.003000
 41
0.003000
  0
VERTEX
  8
PLAN_1
 62
     2
  6
CONTINUOUS
 10
-1.868764
 20
4.020374
  0
VERTEX
  8
PLAN_1
 62
     2
  6
CONTINUOUS
 10
-1.868764
 20
4.011669
  0
SEQEND
  8
0
  0
POLYLINE
  8
PLAN_1
 62
     2
  6
CONTINUOUS
 66
     1
 40
0.003000
 41
0.003000
  0
VERTEX
  8
PLAN_1
 62
     2
  6
CONTINUOUS
 10
-1.868764
 20
4.003543
  0
VERTEX
  8
PLAN_1
 62
     2
  6
CONTINUOUS
 10
-1.868764
 20
3.995421
  0
SEQEND
  8
0
  0
POLYLINE
  8
PLAN_1
 62
     2
  6
CONTINUOUS
 66
     1
 40
0.003000
 41
0.003000
  0
VERTEX
  8
PLAN_1
 62
     2
  6
CONTINUOUS
 10
-1.868764
 20
3.986717
  0
VERTEX
  8
PLAN_1
 62
     2
  6
CONTINUOUS
 10
-1.868764
 20
3.978594
  0
SEQEND
  8
0
  0
POLYLINE
  8
PLAN_1
 62
     2
  6
CONTINUOUS
 66
     1
 40
0.003000
 41
0.003000
  0
VERTEX
  8
PLAN_1
 62
     2
  6
CONTINUOUS
 10
-1.868764
 20
3.970469
  0
VERTEX
  8
PLAN_1
 62
     2
  6
CONTINUOUS
 10
-1.868764
 20
3.961768
  0
SEQEND
  8
0
  0
POLYLINE
  8
PLAN_1
 62
     2
  6
CONTINUOUS
 66
     1
 40
0.003000
 41
0.003000
  0
VERTEX
  8
PLAN_1
 62
     2
  6
CONTINUOUS
 10
-1.868764
 20
3.953642
  0
VERTEX
  8
PLAN_1
 62
     2
  6
CONTINUOUS
 10
-1.868764
 20
3.945520
  0
SEQEND
  8
0
  0
POLYLINE
  8
PLAN_1
 62
     2
  6
CONTINUOUS
 66
     1
 40
0.003000
 41
0.003000
  0
VERTEX
  8
PLAN_1
 62
     2
  6
CONTINUOUS
 10
-1.868764
 20
3.936815
  0
VERTEX
  8
PLAN_1
 62
     2
  6
CONTINUOUS
 10
-1.868764
 20
3.928689
  0
SEQEND
  8
0
  0
POLYLINE
  8
PLAN_1
 62
     2
  6
CONTINUOUS
 66
     1
 40
0.003000
 41
0.003000
  0
VERTEX
  8
PLAN_1
 62
     2
  6
CONTINUOUS
 10
-1.868764
 20
3.920567
  0
VERTEX
  8
PLAN_1
 62
     2
  6
CONTINUOUS
 10
-1.868764
 20
3.911862
  0
SEQEND
  8
0
  0
POLYLINE
  8
PLAN_1
 62
     2
  6
CONTINUOUS
 66
     1
 40
0.003000
 41
0.003000
  0
VERTEX
  8
PLAN_1
 62
     2
  6
CONTINUOUS
 10
-1.868764
 20
3.903740
  0
VERTEX
  8
PLAN_1
 62
     2
  6
CONTINUOUS
 10
-1.868764
 20
3.895035
  0
SEQEND
  8
0
  0
POLYLINE
  8
PLAN_1
 62
     2
  6
CONTINUOUS
 66
     1
 40
0.003000
 41
0.003000
  0
VERTEX
  8
PLAN_1
 62
     2
  6
CONTINUOUS
 10
-1.868764
 20
3.886909
  0
VERTEX
  8
PLAN_1
 62
     2
  6
CONTINUOUS
 10
-1.868764
 20
3.878787
  0
SEQEND
  8
0
  0
POLYLINE
  8
PLAN_1
 62
     2
  6
CONTINUOUS
 66
     1
 40
0.003000
 41
0.003000
  0
VERTEX
  8
PLAN_1
 62
     2
  6
CONTINUOUS
 10
-1.868764
 20
3.870083
  0
VERTEX
  8
PLAN_1
 62
     2
  6
CONTINUOUS
 10
-1.868764
 20
3.861961
  0
SEQEND
  8
0
  0
POLYLINE
  8
PLAN_1
 62
     2
  6
CONTINUOUS
 66
     1
 40
0.003000
 41
0.003000
  0
VERTEX
  8
PLAN_1
 62
     2
  6
CONTINUOUS
 10
-1.868764
 20
3.853835
  0
VERTEX
  8
PLAN_1
 62
     2
  6
CONTINUOUS
 10
-1.868764
 20
3.845134
  0
SEQEND
  8
0
  0
POLYLINE
  8
PLAN_1
 62
     2
  6
CONTINUOUS
 66
     1
 40
0.003000
 41
0.003000
  0
VERTEX
  8
PLAN_1
 62
     2
  6
CONTINUOUS
 10
-1.868764
 20
3.837008
  0
VERTEX
  8
PLAN_1
 62
     2
  6
CONTINUOUS
 10
-1.868764
 20
3.828886
  0
SEQEND
  8
0
  0
POLYLINE
  8
PLAN_1
 62
     2
  6
CONTINUOUS
 66
     1
 40
0.003000
 41
0.003000
  0
VERTEX
  8
PLAN_1
 62
     2
  6
CONTINUOUS
 10
-1.868764
 20
3.820181
  0
VERTEX
  8
PLAN_1
 62
     2
  6
CONTINUOUS
 10
-1.868764
 20
3.812055
  0
SEQEND
  8
0
  0
POLYLINE
  8
PLAN_1
 62
     2
  6
CONTINUOUS
 66
     1
 40
0.003000
 41
0.003000
  0
VERTEX
  8
PLAN_1
 62
     2
  6
CONTINUOUS
 10
-1.868764
 20
3.803933
  0
VERTEX
  8
PLAN_1
 62
     2
  6
CONTINUOUS
 10
-1.868764
 20
3.795228
  0
SEQEND
  8
0
  0
POLYLINE
  8
PLAN_1
 62
     2
  6
CONTINUOUS
 66
     1
 40
0.003000
 41
0.003000
  0
VERTEX
  8
PLAN_1
 62
     2
  6
CONTINUOUS
 10
-1.868764
 20
3.787106
  0
VERTEX
  8
PLAN_1
 62
     2
  6
CONTINUOUS
 10
-1.868764
 20
3.778980
  0
SEQEND
  8
0
  0
POLYLINE
  8
PLAN_1
 62
     2
  6
CONTINUOUS
 66
     1
 40
0.003000
 41
0.003000
  0
VERTEX
  8
PLAN_1
 62
     2
  6
CONTINUOUS
 10
-1.868764
 20
3.770280
  0
VERTEX
  8
PLAN_1
 62
     2
  6
CONTINUOUS
 10
-1.868764
 20
3.762154
  0
SEQEND
  8
0
  0
POLYLINE
  8
PLAN_1
 62
     2
  6
CONTINUOUS
 66
     1
 40
0.003000
 41
0.003000
  0
VERTEX
  8
PLAN_1
 62
     2
  6
CONTINUOUS
 10
-1.868764
 20
3.753449
  0
VERTEX
  8
PLAN_1
 62
     2
  6
CONTINUOUS
 10
-1.868764
 20
3.745327
  0
SEQEND
  8
0
  0
POLYLINE
  8
PLAN_1
 62
     2
  6
CONTINUOUS
 66
     1
 40
0.003000
 41
0.003000
  0
VERTEX
  8
PLAN_1
 62
     2
  6
CONTINUOUS
 10
-1.868764
 20
3.737201
  0
VERTEX
  8
PLAN_1
 62
     2
  6
CONTINUOUS
 10
-1.868764
 20
3.728500
  0
SEQEND
  8
0
  0
POLYLINE
  8
PLAN_1
 62
     2
  6
CONTINUOUS
 66
     1
 40
0.003000
 41
0.003000
  0
VERTEX
  8
PLAN_1
 62
     2
  6
CONTINUOUS
 10
-1.868764
 20
3.720374
  0
VERTEX
  8
PLAN_1
 62
     2
  6
CONTINUOUS
 10
-1.868764
 20
3.712252
  0
SEQEND
  8
0
  0
POLYLINE
  8
PLAN_1
 62
     2
  6
CONTINUOUS
 66
     1
 40
0.003000
 41
0.003000
  0
VERTEX
  8
PLAN_1
 62
     2
  6
CONTINUOUS
 10
-1.868764
 20
3.703547
  0
VERTEX
  8
PLAN_1
 62
     2
  6
CONTINUOUS
 10
-1.868764
 20
3.695421
  0
SEQEND
  8
0
  0
POLYLINE
  8
PLAN_1
 62
     2
  6
CONTINUOUS
 66
     1
 40
0.003000
 41
0.003000
  0
VERTEX
  8
PLAN_1
 62
     2
  6
CONTINUOUS
 10
-1.868764
 20
3.687299
  0
VERTEX
  8
PLAN_1
 62
     2
  6
CONTINUOUS
 10
-1.868764
 20
3.678594
  0
SEQEND
  8
0
  0
POLYLINE
  8
PLAN_1
 62
     2
  6
CONTINUOUS
 66
     1
 40
0.003000
 41
0.003000
  0
VERTEX
  8
PLAN_1
 62
     2
  6
CONTINUOUS
 10
-1.868764
 20
3.670472
  0
VERTEX
  8
PLAN_1
 62
     2
  6
CONTINUOUS
 10
-1.868764
 20
3.662346
  0
SEQEND
  8
0
  0
POLYLINE
  8
PLAN_1
 62
     2
  6
CONTINUOUS
 66
     1
 40
0.003000
 41
0.003000
  0
VERTEX
  8
PLAN_1
 62
     2
  6
CONTINUOUS
 10
-1.868764
 20
3.653646
  0
VERTEX
  8
PLAN_1
 62
     2
  6
CONTINUOUS
 10
-1.868764
 20
3.645520
  0
SEQEND
  8
0
  0
POLYLINE
  8
PLAN_1
 62
     2
  6
CONTINUOUS
 66
     1
 40
0.003000
 41
0.003000
  0
VERTEX
  8
PLAN_1
 62
     2
  6
CONTINUOUS
 10
-1.868764
 20
3.637398
  0
VERTEX
  8
PLAN_1
 62
     2
  6
CONTINUOUS
 10
-1.868764
 20
3.628693
  0
SEQEND
  8
0
  0
POLYLINE
  8
PLAN_1
 62
     2
  6
CONTINUOUS
 66
     1
 40
0.003000
 41
0.003000
  0
VERTEX
  8
PLAN_1
 62
     2
  6
CONTINUOUS
 10
-1.868764
 20
3.620567
  0
VERTEX
  8
PLAN_1
 62
     2
  6
CONTINUOUS
 10
-1.868764
 20
3.612445
  0
SEQEND
  8
0
  0
POLYLINE
  8
PLAN_1
 62
     2
  6
CONTINUOUS
 66
     1
 40
0.003000
 41
0.003000
  0
VERTEX
  8
PLAN_1
 62
     2
  6
CONTINUOUS
 10
-1.868764
 20
3.603740
  0
VERTEX
  8
PLAN_1
 62
     2
  6
CONTINUOUS
 10
-1.868764
 20
3.595618
  0
SEQEND
  8
0
  0
POLYLINE
  8
PLAN_1
 62
     2
  6
CONTINUOUS
 66
     1
 40
0.003000
 41
0.003000
  0
VERTEX
  8
PLAN_1
 62
     2
  6
CONTINUOUS
 10
-1.868764
 20
3.586913
  0
VERTEX
  8
PLAN_1
 62
     2
  6
CONTINUOUS
 10
-1.868764
 20
3.578787
  0
SEQEND
  8
0
  0
POLYLINE
  8
PLAN_1
 62
     2
  6
CONTINUOUS
 66
     1
 40
0.003000
 41
0.003000
  0
VERTEX
  8
PLAN_1
 62
     2
  6
CONTINUOUS
 10
-1.868764
 20
3.570665
  0
VERTEX
  8
PLAN_1
 62
     2
  6
CONTINUOUS
 10
-1.868764
 20
3.561961
  0
SEQEND
  8
0
  0
POLYLINE
  8
PLAN_1
 62
     2
  6
CONTINUOUS
 66
     1
 40
0.003000
 41
0.003000
  0
VERTEX
  8
PLAN_1
 62
     2
  6
CONTINUOUS
 10
-1.868764
 20
3.553839
  0
VERTEX
  8
PLAN_1
 62
     2
  6
CONTINUOUS
 10
-1.868764
 20
3.545713
  0
SEQEND
  8
0
  0
POLYLINE
  8
PLAN_1
 62
     2
  6
CONTINUOUS
 66
     1
 40
0.003000
 41
0.003000
  0
VERTEX
  8
PLAN_1
 62
     2
  6
CONTINUOUS
 10
-1.868764
 20
3.537012
  0
VERTEX
  8
PLAN_1
 62
     2
  6
CONTINUOUS
 10
-1.868764
 20
3.528886
  0
SEQEND
  8
0
  0
POLYLINE
  8
PLAN_1
 62
     2
  6
CONTINUOUS
 66
     1
 40
0.003000
 41
0.003000
  0
VERTEX
  8
PLAN_1
 62
     2
  6
CONTINUOUS
 10
-1.868764
 20
3.520764
  0
VERTEX
  8
PLAN_1
 62
     2
  6
CONTINUOUS
 10
-1.868764
 20
3.512059
  0
SEQEND
  8
0
  0
POLYLINE
  8
PLAN_1
 62
     2
  6
CONTINUOUS
 66
     1
 40
0.003000
 41
0.003000
  0
VERTEX
  8
PLAN_1
 62
     2
  6
CONTINUOUS
 10
-1.868764
 20
3.503933
  0
VERTEX
  8
PLAN_1
 62
     2
  6
CONTINUOUS
 10
-1.868764
 20
3.495811
  0
SEQEND
  8
0
  0
POLYLINE
  8
PLAN_1
 62
     2
  6
CONTINUOUS
 66
     1
 40
0.003000
 41
0.003000
  0
VERTEX
  8
PLAN_1
 62
     2
  6
CONTINUOUS
 10
-1.868764
 20
3.487106
  0
VERTEX
  8
PLAN_1
 62
     2
  6
CONTINUOUS
 10
-1.868764
 20
3.478984
  0
SEQEND
  8
0
  0
POLYLINE
  8
PLAN_1
 62
     2
  6
CONTINUOUS
 66
     1
 40
0.003000
 41
0.003000
  0
VERTEX
  8
PLAN_1
 62
     2
  6
CONTINUOUS
 10
-1.868764
 20
3.470858
  0
VERTEX
  8
PLAN_1
 62
     2
  6
CONTINUOUS
 10
-1.868764
 20
3.462157
  0
SEQEND
  8
0
  0
POLYLINE
  8
PLAN_1
 62
     2
  6
CONTINUOUS
 66
     1
 40
0.003000
 41
0.003000
  0
VERTEX
  8
PLAN_1
 62
     2
  6
CONTINUOUS
 10
-1.868764
 20
3.454031
  0
VERTEX
  8
PLAN_1
 62
     2
  6
CONTINUOUS
 10
-1.868764
 20
3.445327
  0
SEQEND
  8
0
  0
POLYLINE
  8
PLAN_1
 62
     2
  6
CONTINUOUS
 66
     1
 40
0.003000
 41
0.003000
  0
VERTEX
  8
PLAN_1
 62
     2
  6
CONTINUOUS
 10
-1.868764
 20
3.437205
  0
VERTEX
  8
PLAN_1
 62
     2
  6
CONTINUOUS
 10
-1.868764
 20
3.429079
  0
SEQEND
  8
0
  0
POLYLINE
  8
PLAN_1
 62
     2
  6
CONTINUOUS
 66
     1
 40
0.003000
 41
0.003000
  0
VERTEX
  8
PLAN_1
 62
     2
  6
CONTINUOUS
 10
-1.868764
 20
3.420378
  0
VERTEX
  8
PLAN_1
 62
     2
  6
CONTINUOUS
 10
-1.868764
 20
3.412252
  0
SEQEND
  8
0
  0
POLYLINE
  8
PLAN_1
 62
     2
  6
CONTINUOUS
 66
     1
 40
0.003000
 41
0.003000
  0
VERTEX
  8
PLAN_1
 62
     2
  6
CONTINUOUS
 10
-1.868764
 20
3.404130
  0
VERTEX
  8
PLAN_1
 62
     2
  6
CONTINUOUS
 10
-1.868764
 20
3.395425
  0
SEQEND
  8
0
  0
POLYLINE
  8
PLAN_1
 62
     2
  6
CONTINUOUS
 66
     1
 40
0.003000
 41
0.003000
  0
VERTEX
  8
PLAN_1
 62
     2
  6
CONTINUOUS
 10
-1.868764
 20
3.387299
  0
VERTEX
  8
PLAN_1
 62
     2
  6
CONTINUOUS
 10
-1.868764
 20
3.379177
  0
SEQEND
  8
0
  0
POLYLINE
  8
PLAN_1
 62
     2
  6
CONTINUOUS
 66
     1
 40
0.003000
 41
0.003000
  0
VERTEX
  8
PLAN_1
 62
     2
  6
CONTINUOUS
 10
-1.868764
 20
3.370472
  0
VERTEX
  8
PLAN_1
 62
     2
  6
CONTINUOUS
 10
-1.868764
 20
3.362350
  0
SEQEND
  8
0
  0
POLYLINE
  8
PLAN_1
 62
     2
  6
CONTINUOUS
 66
     1
 40
0.003000
 41
0.003000
  0
VERTEX
  8
PLAN_1
 62
     2
  6
CONTINUOUS
 10
-1.868764
 20
3.354224
  0
VERTEX
  8
PLAN_1
 62
     2
  6
CONTINUOUS
 10
-1.868764
 20
3.345524
  0
SEQEND
  8
0
  0
POLYLINE
  8
PLAN_1
 62
     2
  6
CONTINUOUS
 66
     1
 40
0.003000
 41
0.003000
  0
VERTEX
  8
PLAN_1
 62
     2
  6
CONTINUOUS
 10
-1.868764
 20
3.337398
  0
VERTEX
  8
PLAN_1
 62
     2
  6
CONTINUOUS
 10
-1.868764
 20
3.329276
  0
SEQEND
  8
0
  0
POLYLINE
  8
PLAN_1
 62
     2
  6
CONTINUOUS
 66
     1
 40
0.003000
 41
0.003000
  0
VERTEX
  8
PLAN_1
 62
     2
  6
CONTINUOUS
 10
-1.868764
 20
3.320571
  0
VERTEX
  8
PLAN_1
 62
     2
  6
CONTINUOUS
 10
-1.868764
 20
3.312445
  0
SEQEND
  8
0
  0
POLYLINE
  8
PLAN_1
 62
     2
  6
CONTINUOUS
 66
     1
 40
0.003000
 41
0.003000
  0
VERTEX
  8
PLAN_1
 62
     2
  6
CONTINUOUS
 10
-1.868764
 20
3.303744
  0
VERTEX
  8
PLAN_1
 62
     2
  6
CONTINUOUS
 10
-1.868764
 20
3.295618
  0
SEQEND
  8
0
  0
POLYLINE
  8
PLAN_1
 62
     2
  6
CONTINUOUS
 66
     1
 40
0.003000
 41
0.003000
  0
VERTEX
  8
PLAN_1
 62
     2
  6
CONTINUOUS
 10
-1.868764
 20
3.287496
  0
VERTEX
  8
PLAN_1
 62
     2
  6
CONTINUOUS
 10
-1.868764
 20
3.278791
  0
SEQEND
  8
0
  0
POLYLINE
  8
PLAN_1
 62
     2
  6
CONTINUOUS
 66
     1
 40
0.003000
 41
0.003000
  0
VERTEX
  8
PLAN_1
 62
     2
  6
CONTINUOUS
 10
-1.868764
 20
3.270665
  0
VERTEX
  8
PLAN_1
 62
     2
  6
CONTINUOUS
 10
-1.868764
 20
3.262543
  0
SEQEND
  8
0
  0
POLYLINE
  8
PLAN_1
 62
     2
  6
CONTINUOUS
 66
     1
 40
0.003000
 41
0.003000
  0
VERTEX
  8
PLAN_1
 62
     2
  6
CONTINUOUS
 10
-1.868764
 20
3.253839
  0
VERTEX
  8
PLAN_1
 62
     2
  6
CONTINUOUS
 10
-1.868764
 20
3.245717
  0
SEQEND
  8
0
  0
POLYLINE
  8
PLAN_1
 62
     2
  6
CONTINUOUS
 66
     1
 40
0.003000
 41
0.003000
  0
VERTEX
  8
PLAN_1
 62
     2
  6
CONTINUOUS
 10
-1.868764
 20
3.237591
  0
VERTEX
  8
PLAN_1
 62
     2
  6
CONTINUOUS
 10
-1.868764
 20
3.228890
  0
SEQEND
  8
0
  0
POLYLINE
  8
PLAN_1
 62
     2
  6
CONTINUOUS
 66
     1
 40
0.003000
 41
0.003000
  0
VERTEX
  8
PLAN_1
 62
     2
  6
CONTINUOUS
 10
-1.868764
 20
3.220764
  0
VERTEX
  8
PLAN_1
 62
     2
  6
CONTINUOUS
 10
-1.868764
 20
3.212642
  0
SEQEND
  8
0
  0
POLYLINE
  8
PLAN_1
 62
     2
  6
CONTINUOUS
 66
     1
 40
0.003000
 41
0.003000
  0
VERTEX
  8
PLAN_1
 62
     2
  6
CONTINUOUS
 10
-1.868764
 20
3.203937
  0
VERTEX
  8
PLAN_1
 62
     2
  6
CONTINUOUS
 10
-1.868764
 20
3.195811
  0
SEQEND
  8
0
  0
POLYLINE
  8
PLAN_1
 62
     2
  6
CONTINUOUS
 66
     1
 40
0.003000
 41
0.003000
  0
VERTEX
  8
PLAN_1
 62
     2
  6
CONTINUOUS
 10
-1.868764
 20
3.187689
  0
VERTEX
  8
PLAN_1
 62
     2
  6
CONTINUOUS
 10
-1.868764
 20
3.178984
  0
SEQEND
  8
0
  0
POLYLINE
  8
PLAN_1
 62
     2
  6
CONTINUOUS
 66
     1
 40
0.003000
 41
0.003000
  0
VERTEX
  8
PLAN_1
 62
     2
  6
CONTINUOUS
 10
-1.868764
 20
3.170862
  0
VERTEX
  8
PLAN_1
 62
     2
  6
CONTINUOUS
 10
-1.868764
 20
3.162736
  0
SEQEND
  8
0
  0
POLYLINE
  8
PLAN_1
 62
     2
  6
CONTINUOUS
 66
     1
 40
0.003000
 41
0.003000
  0
VERTEX
  8
PLAN_1
 62
     2
  6
CONTINUOUS
 10
-1.868764
 20
3.154031
  0
VERTEX
  8
PLAN_1
 62
     2
  6
CONTINUOUS
 10
-1.868764
 20
3.145909
  0
SEQEND
  8
0
  0
POLYLINE
  8
PLAN_1
 62
     2
  6
CONTINUOUS
 66
     1
 40
0.003000
 41
0.003000
  0
VERTEX
  8
PLAN_1
 62
     2
  6
CONTINUOUS
 10
-1.868764
 20
3.137205
  0
VERTEX
  8
PLAN_1
 62
     2
  6
CONTINUOUS
 10
-1.868764
 20
3.129083
  0
SEQEND
  8
0
  0
POLYLINE
  8
PLAN_1
 62
     2
  6
CONTINUOUS
 66
     1
 40
0.003000
 41
0.003000
  0
VERTEX
  8
PLAN_1
 62
     2
  6
CONTINUOUS
 10
-1.868764
 20
3.120957
  0
VERTEX
  8
PLAN_1
 62
     2
  6
CONTINUOUS
 10
-1.868764
 20
3.112256
  0
SEQEND
  8
0
  0
POLYLINE
  8
PLAN_1
 62
     2
  6
CONTINUOUS
 66
     1
 40
0.003000
 41
0.003000
  0
VERTEX
  8
PLAN_1
 62
     2
  6
CONTINUOUS
 10
-1.868764
 20
3.104130
  0
VERTEX
  8
PLAN_1
 62
     2
  6
CONTINUOUS
 10
-1.868764
 20
3.096008
  0
SEQEND
  8
0
  0
POLYLINE
  8
PLAN_1
 62
     2
  6
CONTINUOUS
 66
     1
 40
0.003000
 41
0.003000
  0
VERTEX
  8
PLAN_1
 62
     2
  6
CONTINUOUS
 10
-1.868764
 20
3.087303
  0
VERTEX
  8
PLAN_1
 62
     2
  6
CONTINUOUS
 10
-1.868764
 20
3.079177
  0
SEQEND
  8
0
  0
POLYLINE
  8
PLAN_1
 62
     2
  6
CONTINUOUS
 66
     1
 40
0.003000
 41
0.003000
  0
VERTEX
  8
PLAN_1
 62
     2
  6
CONTINUOUS
 10
-1.868764
 20
3.071055
  0
VERTEX
  8
PLAN_1
 62
     2
  6
CONTINUOUS
 10
-1.868764
 20
3.062350
  0
SEQEND
  8
0
  0
POLYLINE
  8
PLAN_1
 62
     2
  6
CONTINUOUS
 66
     1
 40
0.003000
 41
0.003000
  0
VERTEX
  8
PLAN_1
 62
     2
  6
CONTINUOUS
 10
-1.868764
 20
3.054228
  0
VERTEX
  8
PLAN_1
 62
     2
  6
CONTINUOUS
 10
-1.868764
 20
3.046102
  0
SEQEND
  8
0
  0
POLYLINE
  8
PLAN_1
 62
     2
  6
CONTINUOUS
 66
     1
 40
0.003000
 41
0.003000
  0
VERTEX
  8
PLAN_1
 62
     2
  6
CONTINUOUS
 10
-1.868764
 20
3.037402
  0
VERTEX
  8
PLAN_1
 62
     2
  6
CONTINUOUS
 10
-1.868764
 20
3.029276
  0
SEQEND
  8
0
  0
POLYLINE
  8
PLAN_1
 62
     2
  6
CONTINUOUS
 66
     1
 40
0.003000
 41
0.003000
  0
VERTEX
  8
PLAN_1
 62
     2
  6
CONTINUOUS
 10
-1.868764
 20
3.021154
  0
VERTEX
  8
PLAN_1
 62
     2
  6
CONTINUOUS
 10
-1.868764
 20
3.012449
  0
SEQEND
  8
0
  0
POLYLINE
  8
PLAN_1
 62
     2
  6
CONTINUOUS
 66
     1
 40
0.003000
 41
0.003000
  0
VERTEX
  8
PLAN_1
 62
     2
  6
CONTINUOUS
 10
-1.868764
 20
3.004323
  0
VERTEX
  8
PLAN_1
 62
     2
  6
CONTINUOUS
 10
-1.868764
 20
2.995622
  0
SEQEND
  8
0
  0
POLYLINE
  8
PLAN_1
 62
     2
  6
CONTINUOUS
 66
     1
 40
0.003000
 41
0.003000
  0
VERTEX
  8
PLAN_1
 62
     2
  6
CONTINUOUS
 10
-1.868764
 20
2.987496
  0
VERTEX
  8
PLAN_1
 62
     2
  6
CONTINUOUS
 10
-1.868764
 20
2.979374
  0
SEQEND
  8
0
  0
POLYLINE
  8
PLAN_1
 62
     2
  6
CONTINUOUS
 66
     1
 40
0.003000
 41
0.003000
  0
VERTEX
  8
PLAN_1
 62
     2
  6
CONTINUOUS
 10
-1.868764
 20
2.970669
  0
VERTEX
  8
PLAN_1
 62
     2
  6
CONTINUOUS
 10
-1.868764
 20
2.962543
  0
SEQEND
  8
0
  0
POLYLINE
  8
PLAN_1
 62
     2
  6
CONTINUOUS
 66
     1
 40
0.003000
 41
0.003000
  0
VERTEX
  8
PLAN_1
 62
     2
  6
CONTINUOUS
 10
-1.868764
 20
2.954421
  0
VERTEX
  8
PLAN_1
 62
     2
  6
CONTINUOUS
 10
-1.868764
 20
2.945717
  0
SEQEND
  8
0
  0
POLYLINE
  8
PLAN_1
 62
     2
  6
CONTINUOUS
 66
     1
 40
0.003000
 41
0.003000
  0
VERTEX
  8
PLAN_1
 62
     2
  6
CONTINUOUS
 10
-1.868764
 20
2.937594
  0
VERTEX
  8
PLAN_1
 62
     2
  6
CONTINUOUS
 10
-1.868764
 20
2.929469
  0
SEQEND
  8
0
  0
POLYLINE
  8
PLAN_1
 62
     2
  6
CONTINUOUS
 66
     1
 40
0.003000
 41
0.003000
  0
VERTEX
  8
PLAN_1
 62
     2
  6
CONTINUOUS
 10
-1.868764
 20
2.920768
  0
VERTEX
  8
PLAN_1
 62
     2
  6
CONTINUOUS
 10
-1.868764
 20
2.912642
  0
SEQEND
  8
0
  0
POLYLINE
  8
PLAN_1
 62
     2
  6
CONTINUOUS
 66
     1
 40
0.003000
 41
0.003000
  0
VERTEX
  8
PLAN_1
 62
     2
  6
CONTINUOUS
 10
-1.868764
 20
2.904520
  0
VERTEX
  8
PLAN_1
 62
     2
  6
CONTINUOUS
 10
-1.868764
 20
2.895815
  0
SEQEND
  8
0
  0
POLYLINE
  8
PLAN_1
 62
     2
  6
CONTINUOUS
 66
     1
 40
0.003000
 41
0.003000
  0
VERTEX
  8
PLAN_1
 62
     2
  6
CONTINUOUS
 10
-1.868764
 20
2.887689
  0
VERTEX
  8
PLAN_1
 62
     2
  6
CONTINUOUS
 10
-1.868764
 20
2.879567
  0
SEQEND
  8
0
  0
POLYLINE
  8
PLAN_1
 62
     2
  6
CONTINUOUS
 66
     1
 40
0.003000
 41
0.003000
  0
VERTEX
  8
PLAN_1
 62
     2
  6
CONTINUOUS
 10
-1.868764
 20
2.870862
  0
VERTEX
  8
PLAN_1
 62
     2
  6
CONTINUOUS
 10
-1.868764
 20
2.862740
  0
SEQEND
  8
0
  0
POLYLINE
  8
PLAN_1
 62
     2
  6
CONTINUOUS
 66
     1
 40
0.003000
 41
0.003000
  0
VERTEX
  8
PLAN_1
 62
     2
  6
CONTINUOUS
 10
-1.868764
 20
2.854035
  0
VERTEX
  8
PLAN_1
 62
     2
  6
CONTINUOUS
 10
-1.868764
 20
2.845909
  0
SEQEND
  8
0
  0
POLYLINE
  8
PLAN_1
 62
     2
  6
CONTINUOUS
 66
     1
 40
0.003000
 41
0.003000
  0
VERTEX
  8
PLAN_1
 62
     2
  6
CONTINUOUS
 10
-1.868764
 20
2.837787
  0
VERTEX
  8
PLAN_1
 62
     2
  6
CONTINUOUS
 10
-1.868764
 20
2.829083
  0
SEQEND
  8
0
  0
POLYLINE
  8
PLAN_1
 62
     2
  6
CONTINUOUS
 66
     1
 40
0.003000
 41
0.003000
  0
VERTEX
  8
PLAN_1
 62
     2
  6
CONTINUOUS
 10
-1.868764
 20
2.820961
  0
VERTEX
  8
PLAN_1
 62
     2
  6
CONTINUOUS
 10
-1.868764
 20
2.812835
  0
SEQEND
  8
0
  0
POLYLINE
  8
PLAN_1
 62
     2
  6
CONTINUOUS
 66
     1
 40
0.003000
 41
0.003000
  0
VERTEX
  8
PLAN_1
 62
     2
  6
CONTINUOUS
 10
-1.868764
 20
2.804134
  0
VERTEX
  8
PLAN_1
 62
     2
  6
CONTINUOUS
 10
-1.868764
 20
2.796008
  0
SEQEND
  8
0
  0
POLYLINE
  8
PLAN_1
 62
     2
  6
CONTINUOUS
 66
     1
 40
0.003000
 41
0.003000
  0
VERTEX
  8
PLAN_1
 62
     2
  6
CONTINUOUS
 10
-1.868764
 20
2.787886
  0
VERTEX
  8
PLAN_1
 62
     2
  6
CONTINUOUS
 10
-1.868764
 20
2.779181
  0
SEQEND
  8
0
  0
POLYLINE
  8
PLAN_1
 62
     2
  6
CONTINUOUS
 66
     1
 40
0.003000
 41
0.003000
  0
VERTEX
  8
PLAN_1
 62
     2
  6
CONTINUOUS
 10
-1.868764
 20
2.771055
  0
VERTEX
  8
PLAN_1
 62
     2
  6
CONTINUOUS
 10
-1.868764
 20
2.762933
  0
SEQEND
  8
0
  0
POLYLINE
  8
PLAN_1
 62
     2
  6
CONTINUOUS
 66
     1
 40
0.003000
 41
0.003000
  0
VERTEX
  8
PLAN_1
 62
     2
  6
CONTINUOUS
 10
-1.868764
 20
2.754228
  0
VERTEX
  8
PLAN_1
 62
     2
  6
CONTINUOUS
 10
-1.868764
 20
2.746106
  0
SEQEND
  8
0
  0
POLYLINE
  8
PLAN_1
 62
     2
  6
CONTINUOUS
 66
     1
 40
0.003000
 41
0.003000
  0
VERTEX
  8
PLAN_1
 62
     2
  6
CONTINUOUS
 10
-1.868764
 20
2.737980
  0
VERTEX
  8
PLAN_1
 62
     2
  6
CONTINUOUS
 10
-1.868764
 20
2.729280
  0
SEQEND
  8
0
  0
POLYLINE
  8
PLAN_1
 62
     2
  6
CONTINUOUS
 66
     1
 40
0.003000
 41
0.003000
  0
VERTEX
  8
PLAN_1
 62
     2
  6
CONTINUOUS
 10
-1.868764
 20
2.721154
  0
VERTEX
  8
PLAN_1
 62
     2
  6
CONTINUOUS
 10
-1.868764
 20
2.713031
  0
SEQEND
  8
0
  0
POLYLINE
  8
PLAN_1
 62
     2
  6
CONTINUOUS
 66
     1
 40
0.003000
 41
0.003000
  0
VERTEX
  8
PLAN_1
 62
     2
  6
CONTINUOUS
 10
-1.868764
 20
2.704327
  0
VERTEX
  8
PLAN_1
 62
     2
  6
CONTINUOUS
 10
-1.868764
 20
2.696201
  0
SEQEND
  8
0
  0
POLYLINE
  8
PLAN_1
 62
     2
  6
CONTINUOUS
 66
     1
 40
0.003000
 41
0.003000
  0
VERTEX
  8
PLAN_1
 62
     2
  6
CONTINUOUS
 10
-1.868764
 20
2.687500
  0
VERTEX
  8
PLAN_1
 62
     2
  6
CONTINUOUS
 10
-1.868764
 20
2.679374
  0
SEQEND
  8
0
  0
POLYLINE
  8
PLAN_1
 62
     2
  6
CONTINUOUS
 66
     1
 40
0.003000
 41
0.003000
  0
VERTEX
  8
PLAN_1
 62
     2
  6
CONTINUOUS
 10
-1.868764
 20
2.671252
  0
VERTEX
  8
PLAN_1
 62
     2
  6
CONTINUOUS
 10
-1.868764
 20
2.662547
  0
SEQEND
  8
0
  0
POLYLINE
  8
PLAN_1
 62
     2
  6
CONTINUOUS
 66
     1
 40
0.003000
 41
0.003000
  0
VERTEX
  8
PLAN_1
 62
     2
  6
CONTINUOUS
 10
-1.868764
 20
2.654421
  0
VERTEX
  8
PLAN_1
 62
     2
  6
CONTINUOUS
 10
-1.868764
 20
2.646299
  0
SEQEND
  8
0
  0
POLYLINE
  8
PLAN_1
 62
     2
  6
CONTINUOUS
 66
     1
 40
0.003000
 41
0.003000
  0
VERTEX
  8
PLAN_1
 62
     2
  6
CONTINUOUS
 10
-1.868764
 20
2.637594
  0
VERTEX
  8
PLAN_1
 62
     2
  6
CONTINUOUS
 10
-1.868764
 20
2.629472
  0
SEQEND
  8
0
  0
POLYLINE
  8
PLAN_1
 62
     2
  6
CONTINUOUS
 66
     1
 40
0.003000
 41
0.003000
  0
VERTEX
  8
PLAN_1
 62
     2
  6
CONTINUOUS
 10
-1.868764
 20
2.621346
  0
VERTEX
  8
PLAN_1
 62
     2
  6
CONTINUOUS
 10
-1.868764
 20
2.612646
  0
SEQEND
  8
0
  0
POLYLINE
  8
PLAN_1
 62
     2
  6
CONTINUOUS
 66
     1
 40
0.003000
 41
0.003000
  0
VERTEX
  8
PLAN_1
 62
     2
  6
CONTINUOUS
 10
-1.868764
 20
2.604520
  0
VERTEX
  8
PLAN_1
 62
     2
  6
CONTINUOUS
 10
-1.868764
 20
2.596398
  0
SEQEND
  8
0
  0
POLYLINE
  8
PLAN_1
 62
     2
  6
CONTINUOUS
 66
     1
 40
0.003000
 41
0.003000
  0
VERTEX
  8
PLAN_1
 62
     2
  6
CONTINUOUS
 10
-1.868764
 20
2.587693
  0
VERTEX
  8
PLAN_1
 62
     2
  6
CONTINUOUS
 10
-1.868764
 20
2.579567
  0
SEQEND
  8
0
  0
POLYLINE
  8
PLAN_1
 62
     2
  6
CONTINUOUS
 66
     1
 40
0.003000
 41
0.003000
  0
VERTEX
  8
PLAN_1
 62
     2
  6
CONTINUOUS
 10
-1.868764
 20
2.571445
  0
VERTEX
  8
PLAN_1
 62
     2
  6
CONTINUOUS
 10
-1.868764
 20
2.562740
  0
SEQEND
  8
0
  0
POLYLINE
  8
PLAN_1
 62
     2
  6
CONTINUOUS
 66
     1
 40
0.003000
 41
0.003000
  0
VERTEX
  8
PLAN_1
 62
     2
  6
CONTINUOUS
 10
-1.868764
 20
2.554618
  0
VERTEX
  8
PLAN_1
 62
     2
  6
CONTINUOUS
 10
-1.868764
 20
2.545913
  0
SEQEND
  8
0
  0
POLYLINE
  8
PLAN_1
 62
     2
  6
CONTINUOUS
 66
     1
 40
0.003000
 41
0.003000
  0
VERTEX
  8
PLAN_1
 62
     2
  6
CONTINUOUS
 10
-1.868764
 20
2.537787
  0
VERTEX
  8
PLAN_1
 62
     2
  6
CONTINUOUS
 10
-1.868764
 20
2.529665
  0
SEQEND
  8
0
  0
POLYLINE
  8
PLAN_1
 62
     2
  6
CONTINUOUS
 66
     1
 40
0.003000
 41
0.003000
  0
VERTEX
  8
PLAN_1
 62
     2
  6
CONTINUOUS
 10
-1.868764
 20
2.520961
  0
VERTEX
  8
PLAN_1
 62
     2
  6
CONTINUOUS
 10
-1.868764
 20
2.512839
  0
SEQEND
  8
0
  0
POLYLINE
  8
PLAN_1
 62
     2
  6
CONTINUOUS
 66
     1
 40
0.003000
 41
0.003000
  0
VERTEX
  8
PLAN_1
 62
     2
  6
CONTINUOUS
 10
-1.868764
 20
2.504713
  0
VERTEX
  8
PLAN_1
 62
     2
  6
CONTINUOUS
 10
-1.868764
 20
2.496012
  0
SEQEND
  8
0
  0
POLYLINE
  8
PLAN_1
 62
     2
  6
CONTINUOUS
 66
     1
 40
0.003000
 41
0.003000
  0
VERTEX
  8
PLAN_1
 62
     2
  6
CONTINUOUS
 10
-1.868764
 20
2.487886
  0
VERTEX
  8
PLAN_1
 62
     2
  6
CONTINUOUS
 10
-1.868764
 20
2.479764
  0
SEQEND
  8
0
  0
POLYLINE
  8
PLAN_1
 62
     2
  6
CONTINUOUS
 66
     1
 40
0.003000
 41
0.003000
  0
VERTEX
  8
PLAN_1
 62
     2
  6
CONTINUOUS
 10
-1.868764
 20
2.471059
  0
VERTEX
  8
PLAN_1
 62
     2
  6
CONTINUOUS
 10
-1.868764
 20
2.462933
  0
SEQEND
  8
0
  0
POLYLINE
  8
PLAN_1
 62
     2
  6
CONTINUOUS
 66
     1
 40
0.003000
 41
0.003000
  0
VERTEX
  8
PLAN_1
 62
     2
  6
CONTINUOUS
 10
-1.868764
 20
2.454811
  0
VERTEX
  8
PLAN_1
 62
     2
  6
CONTINUOUS
 10
-1.868764
 20
2.446106
  0
SEQEND
  8
0
  0
POLYLINE
  8
PLAN_1
 62
     2
  6
CONTINUOUS
 66
     1
 40
0.003000
 41
0.003000
  0
VERTEX
  8
PLAN_1
 62
     2
  6
CONTINUOUS
 10
-1.868764
 20
2.437984
  0
VERTEX
  8
PLAN_1
 62
     2
  6
CONTINUOUS
 10
-1.868764
 20
2.429858
  0
SEQEND
  8
0
  0
POLYLINE
  8
PLAN_1
 62
     2
  6
CONTINUOUS
 66
     1
 40
0.003000
 41
0.003000
  0
VERTEX
  8
PLAN_1
 62
     2
  6
CONTINUOUS
 10
-1.868764
 20
2.421157
  0
VERTEX
  8
PLAN_1
 62
     2
  6
CONTINUOUS
 10
-1.868764
 20
2.413031
  0
SEQEND
  8
0
  0
POLYLINE
  8
PLAN_1
 62
     2
  6
CONTINUOUS
 66
     1
 40
0.003000
 41
0.003000
  0
VERTEX
  8
PLAN_1
 62
     2
  6
CONTINUOUS
 10
-1.868764
 20
2.404909
  0
VERTEX
  8
PLAN_1
 62
     2
  6
CONTINUOUS
 10
-1.868764
 20
2.396205
  0
SEQEND
  8
0
  0
POLYLINE
  8
PLAN_1
 62
     2
  6
CONTINUOUS
 66
     1
 40
0.003000
 41
0.003000
  0
VERTEX
  8
PLAN_1
 62
     2
  6
CONTINUOUS
 10
-1.868764
 20
2.388079
  0
VERTEX
  8
PLAN_1
 62
     2
  6
CONTINUOUS
 10
-1.868764
 20
2.379378
  0
SEQEND
  8
0
  0
POLYLINE
  8
PLAN_1
 62
     2
  6
CONTINUOUS
 66
     1
 40
0.003000
 41
0.003000
  0
VERTEX
  8
PLAN_1
 62
     2
  6
CONTINUOUS
 10
-1.868764
 20
2.371252
  0
VERTEX
  8
PLAN_1
 62
     2
  6
CONTINUOUS
 10
-1.868764
 20
2.363130
  0
SEQEND
  8
0
  0
POLYLINE
  8
PLAN_1
 62
     2
  6
CONTINUOUS
 66
     1
 40
0.003000
 41
0.003000
  0
VERTEX
  8
PLAN_1
 62
     2
  6
CONTINUOUS
 10
-1.868764
 20
2.354425
  0
VERTEX
  8
PLAN_1
 62
     2
  6
CONTINUOUS
 10
-1.868764
 20
2.346299
  0
SEQEND
  8
0
  0
POLYLINE
  8
PLAN_1
 62
     2
  6
CONTINUOUS
 66
     1
 40
0.003000
 41
0.003000
  0
VERTEX
  8
PLAN_1
 62
     2
  6
CONTINUOUS
 10
-1.868764
 20
2.338177
  0
VERTEX
  8
PLAN_1
 62
     2
  6
CONTINUOUS
 10
-1.868764
 20
2.329472
  0
SEQEND
  8
0
  0
POLYLINE
  8
PLAN_1
 62
     2
  6
CONTINUOUS
 66
     1
 40
0.003000
 41
0.003000
  0
VERTEX
  8
PLAN_1
 62
     2
  6
CONTINUOUS
 10
-1.868764
 20
2.321350
  0
VERTEX
  8
PLAN_1
 62
     2
  6
CONTINUOUS
 10
-1.868764
 20
2.313224
  0
SEQEND
  8
0
  0
POLYLINE
  8
PLAN_1
 62
     2
  6
CONTINUOUS
 66
     1
 40
0.003000
 41
0.003000
  0
VERTEX
  8
PLAN_1
 62
     2
  6
CONTINUOUS
 10
-1.868764
 20
2.304524
  0
VERTEX
  8
PLAN_1
 62
     2
  6
CONTINUOUS
 10
-1.868764
 20
2.296398
  0
SEQEND
  8
0
  0
POLYLINE
  8
PLAN_1
 62
     2
  6
CONTINUOUS
 66
     1
 40
0.003000
 41
0.003000
  0
VERTEX
  8
PLAN_1
 62
     2
  6
CONTINUOUS
 10
-1.868764
 20
2.288276
  0
VERTEX
  8
PLAN_1
 62
     2
  6
CONTINUOUS
 10
-1.868764
 20
2.279571
  0
SEQEND
  8
0
  0
POLYLINE
  8
PLAN_1
 62
     2
  6
CONTINUOUS
 66
     1
 40
0.003000
 41
0.003000
  0
VERTEX
  8
PLAN_1
 62
     2
  6
CONTINUOUS
 10
-1.868764
 20
2.271445
  0
VERTEX
  8
PLAN_1
 62
     2
  6
CONTINUOUS
 10
-1.868764
 20
2.263323
  0
SEQEND
  8
0
  0
POLYLINE
  8
PLAN_1
 62
     2
  6
CONTINUOUS
 66
     1
 40
0.003000
 41
0.003000
  0
VERTEX
  8
PLAN_1
 62
     2
  6
CONTINUOUS
 10
-1.868764
 20
2.254618
  0
VERTEX
  8
PLAN_1
 62
     2
  6
CONTINUOUS
 10
-1.868764
 20
2.246496
  0
SEQEND
  8
0
  0
POLYLINE
  8
PLAN_1
 62
     2
  6
CONTINUOUS
 66
     1
 40
0.003000
 41
0.003000
  0
VERTEX
  8
PLAN_1
 62
     2
  6
CONTINUOUS
 10
-1.868764
 20
2.237791
  0
VERTEX
  8
PLAN_1
 62
     2
  6
CONTINUOUS
 10
-1.868764
 20
2.229665
  0
SEQEND
  8
0
  0
POLYLINE
  8
PLAN_1
 62
     2
  6
CONTINUOUS
 66
     1
 40
0.003000
 41
0.003000
  0
VERTEX
  8
PLAN_1
 62
     2
  6
CONTINUOUS
 10
-1.868764
 20
2.221543
  0
VERTEX
  8
PLAN_1
 62
     2
  6
CONTINUOUS
 10
-1.868764
 20
2.212839
  0
SEQEND
  8
0
  0
POLYLINE
  8
PLAN_1
 62
     2
  6
CONTINUOUS
 66
     1
 40
0.003000
 41
0.003000
  0
VERTEX
  8
PLAN_1
 62
     2
  6
CONTINUOUS
 10
-1.868764
 20
2.204717
  0
VERTEX
  8
PLAN_1
 62
     2
  6
CONTINUOUS
 10
-1.868764
 20
2.196591
  0
SEQEND
  8
0
  0
POLYLINE
  8
PLAN_1
 62
     2
  6
CONTINUOUS
 66
     1
 40
0.003000
 41
0.003000
  0
VERTEX
  8
PLAN_1
 62
     2
  6
CONTINUOUS
 10
-1.868764
 20
2.187890
  0
VERTEX
  8
PLAN_1
 62
     2
  6
CONTINUOUS
 10
-1.868764
 20
2.179764
  0
SEQEND
  8
0
  0
POLYLINE
  8
PLAN_1
 62
     2
  6
CONTINUOUS
 66
     1
 40
0.003000
 41
0.003000
  0
VERTEX
  8
PLAN_1
 62
     2
  6
CONTINUOUS
 10
-1.868764
 20
2.171642
  0
VERTEX
  8
PLAN_1
 62
     2
  6
CONTINUOUS
 10
-1.868764
 20
2.162937
  0
SEQEND
  8
0
  0
POLYLINE
  8
PLAN_1
 62
     2
  6
CONTINUOUS
 66
     1
 40
0.003000
 41
0.003000
  0
VERTEX
  8
PLAN_1
 62
     2
  6
CONTINUOUS
 10
-1.868764
 20
2.154811
  0
VERTEX
  8
PLAN_1
 62
     2
  6
CONTINUOUS
 10
-1.868764
 20
2.146689
  0
SEQEND
  8
0
  0
POLYLINE
  8
PLAN_1
 62
     2
  6
CONTINUOUS
 66
     1
 40
0.003000
 41
0.003000
  0
VERTEX
  8
PLAN_1
 62
     2
  6
CONTINUOUS
 10
-1.868764
 20
2.137984
  0
VERTEX
  8
PLAN_1
 62
     2
  6
CONTINUOUS
 10
-1.868764
 20
2.129862
  0
SEQEND
  8
0
  0
POLYLINE
  8
PLAN_1
 62
     2
  6
CONTINUOUS
 66
     1
 40
0.003000
 41
0.003000
  0
VERTEX
  8
PLAN_1
 62
     2
  6
CONTINUOUS
 10
-1.868764
 20
2.121736
  0
VERTEX
  8
PLAN_1
 62
     2
  6
CONTINUOUS
 10
-1.868764
 20
2.113031
  0
SEQEND
  8
0
  0
POLYLINE
  8
PLAN_1
 62
     2
  6
CONTINUOUS
 66
     1
 40
0.003000
 41
0.003000
  0
VERTEX
  8
PLAN_1
 62
     2
  6
CONTINUOUS
 10
-1.868764
 20
2.104909
  0
VERTEX
  8
PLAN_1
 62
     2
  6
CONTINUOUS
 10
-1.868764
 20
2.096205
  0
SEQEND
  8
0
  0
POLYLINE
  8
PLAN_1
 62
     2
  6
CONTINUOUS
 66
     1
 40
0.003000
 41
0.003000
  0
VERTEX
  8
PLAN_1
 62
     2
  6
CONTINUOUS
 10
-1.868764
 20
2.088083
  0
VERTEX
  8
PLAN_1
 62
     2
  6
CONTINUOUS
 10
-1.868764
 20
2.079957
  0
SEQEND
  8
0
  0
POLYLINE
  8
PLAN_1
 62
     2
  6
CONTINUOUS
 66
     1
 40
0.003000
 41
0.003000
  0
VERTEX
  8
PLAN_1
 62
     2
  6
CONTINUOUS
 10
-1.868764
 20
2.071256
  0
VERTEX
  8
PLAN_1
 62
     2
  6
CONTINUOUS
 10
-1.868764
 20
2.063130
  0
SEQEND
  8
0
  0
POLYLINE
  8
PLAN_1
 62
     2
  6
CONTINUOUS
 66
     1
 40
0.003000
 41
0.003000
  0
VERTEX
  8
PLAN_1
 62
     2
  6
CONTINUOUS
 10
-1.868764
 20
2.055008
  0
VERTEX
  8
PLAN_1
 62
     2
  6
CONTINUOUS
 10
-1.868764
 20
2.046303
  0
SEQEND
  8
0
  0
POLYLINE
  8
PLAN_1
 62
     2
  6
CONTINUOUS
 66
     1
 40
0.003000
 41
0.003000
  0
VERTEX
  8
PLAN_1
 62
     2
  6
CONTINUOUS
 10
-1.868764
 20
2.038177
  0
VERTEX
  8
PLAN_1
 62
     2
  6
CONTINUOUS
 10
-1.868764
 20
2.030055
  0
SEQEND
  8
0
  0
POLYLINE
  8
PLAN_1
 62
     2
  6
CONTINUOUS
 66
     1
 40
0.004059
 41
0.004059
  0
VERTEX
  8
PLAN_1
 62
     2
  6
CONTINUOUS
 10
0.112850
 20
-2.408992
  0
VERTEX
  8
PLAN_1
 62
     2
  6
CONTINUOUS
 10
0.112850
 20
-2.829685
  0
SEQEND
  8
0
  0
POLYLINE
  8
PLAN_1
 62
     2
  6
CONTINUOUS
 66
     1
 40
0.004059
 41
0.004059
  0
VERTEX
  8
PLAN_1
 62
     2
  6
CONTINUOUS
 10
0.267780
 20
-2.827366
  0
VERTEX
  8
PLAN_1
 62
     2
  6
CONTINUOUS
 10
0.267780
 20
-2.411311
  0
SEQEND
  8
0
  0
SOLID
  8
PLAN_1
 62
     2
 10
0.267780
 20
-2.381720
 11
0.252114
 21
-2.440906
 12
0.267780
 22
-2.381720
 13
0.283449
 23
-2.440906
  0
POLYLINE
  8
PLAN_1
 62
     2
  6
CONTINUOUS
 66
     1
 40
0.003000
 41
0.003000
  0
VERTEX
  8
PLAN_1
 62
     2
  6
CONTINUOUS
 10
0.267780
 20
-2.381720
  0
VERTEX
  8
PLAN_1
 62
     2
  6
CONTINUOUS
 10
0.252114
 20
-2.440906
  0
VERTEX
  8
PLAN_1
 62
     2
  6
CONTINUOUS
 10
0.283449
 20
-2.440906
  0
VERTEX
  8
PLAN_1
 62
     2
  6
CONTINUOUS
 10
0.267780
 20
-2.381720
  0
SEQEND
  8
0
  0
SOLID
  8
PLAN_1
 62
     2
 10
0.267780
 20
-2.856957
 11
0.252114
 21
-2.797772
 12
0.267780
 22
-2.856957
 13
0.283449
 23
-2.797772
  0
POLYLINE
  8
PLAN_1
 62
     2
  6
CONTINUOUS
 66
     1
 40
0.003000
 41
0.003000
  0
VERTEX
  8
PLAN_1
 62
     2
  6
CONTINUOUS
 10
0.267780
 20
-2.856957
  0
VERTEX
  8
PLAN_1
 62
     2
  6
CONTINUOUS
 10
0.252114
 20
-2.797772
  0
VERTEX
  8
PLAN_1
 62
     2
  6
CONTINUOUS
 10
0.283449
 20
-2.797772
  0
VERTEX
  8
PLAN_1
 62
     2
  6
CONTINUOUS
 10
0.267780
 20
-2.856957
  0
SEQEND
  8
0
  0
POLYLINE
  8
PLAN_1
 62
     2
  6
CONTINUOUS
 66
     1
 40
0.004059
 41
0.004059
  0
VERTEX
  8
PLAN_1
 62
     2
  6
CONTINUOUS
 10
-0.299720
 20
-2.856957
  0
VERTEX
  8
PLAN_1
 62
     2
  6
CONTINUOUS
 10
0.291571
 20
-2.856957
  0
SEQEND
  8
0
  0
POLYLINE
  8
PLAN_1
 62
     2
  6
CONTINUOUS
 66
     1
 40
0.003000
 41
0.003000
  0
VERTEX
  8
PLAN_1
 62
     2
  6
CONTINUOUS
 10
0.243988
 20
-2.639937
  0
VERTEX
  8
PLAN_1
 62
     2
  6
CONTINUOUS
 10
0.243988
 20
-2.649803
  0
VERTEX
  8
PLAN_1
 62
     2
  6
CONTINUOUS
 10
0.192346
 20
-2.649803
  0
VERTEX
  8
PLAN_1
 62
     2
  6
CONTINUOUS
 10
0.192346
 20
-2.666630
  0
VERTEX
  8
PLAN_1
 62
     2
  6
CONTINUOUS
 10
0.184803
 20
-2.666630
  0
VERTEX
  8
PLAN_1
 62
     2
  6
CONTINUOUS
 10
0.184803
 20
-2.662567
  0
VERTEX
  8
PLAN_1
 62
     2
  6
CONTINUOUS
 10
0.184220
 20
-2.659087
  0
VERTEX
  8
PLAN_1
 62
     2
  6
CONTINUOUS
 10
0.183642
 20
-2.656185
  0
VERTEX
  8
PLAN_1
 62
     2
  6
CONTINUOUS
 10
0.182480
 20
-2.653283
  0
VERTEX
  8
PLAN_1
 62
     2
  6
CONTINUOUS
 10
0.180740
 20
-2.651543
  0
VERTEX
  8
PLAN_1
 62
     2
  6
CONTINUOUS
 10
0.178421
 20
-2.649803
  0
VERTEX
  8
PLAN_1
 62
     2
  6
CONTINUOUS
 10
0.174937
 20
-2.648063
  0
VERTEX
  8
PLAN_1
 62
     2
  6
CONTINUOUS
 10
0.170878
 20
-2.646902
  0
VERTEX
  8
PLAN_1
 62
     2
  6
CONTINUOUS
 10
0.170878
 20
-2.639937
  0
VERTEX
  8
PLAN_1
 62
     2
  6
CONTINUOUS
 10
0.243988
 20
-2.639937
  0
SEQEND
  8
0
  0
POLYLINE
  8
PLAN_1
 62
     2
  6
CONTINUOUS
 66
     1
 40
0.003000
 41
0.003000
  0
VERTEX
  8
PLAN_1
 62
     2
  6
CONTINUOUS
 10
0.197567
 20
-2.614988
  0
VERTEX
  8
PLAN_1
 62
     2
  6
CONTINUOUS
 10
0.192925
 20
-2.614406
  0
VERTEX
  8
PLAN_1
 62
     2
  6
CONTINUOUS
 10
0.189445
 20
-2.613827
  0
VERTEX
  8
PLAN_1
 62
     2
  6
CONTINUOUS
 10
0.185965
 20
-2.613244
  0
VERTEX
  8
PLAN_1
 62
     2
  6
CONTINUOUS
 10
0.183063
 20
-2.612087
  0
VERTEX
  8
PLAN_1
 62
     2
  6
CONTINUOUS
 10
0.180740
 20
-2.610343
  0
VERTEX
  8
PLAN_1
 62
     2
  6
CONTINUOUS
 10
0.178421
 20
-2.608602
  0
VERTEX
  8
PLAN_1
 62
     2
  6
CONTINUOUS
 10
0.176677
 20
-2.606862
  0
VERTEX
  8
PLAN_1
 62
     2
  6
CONTINUOUS
 10
0.175520
 20
-2.605122
  0
VERTEX
  8
PLAN_1
 62
     2
  6
CONTINUOUS
 10
0.173197
 20
-2.601059
  0
VERTEX
  8
PLAN_1
 62
     2
  6
CONTINUOUS
 10
0.172035
 20
-2.597000
  0
VERTEX
  8
PLAN_1
 62
     2
  6
CONTINUOUS
 10
0.171457
 20
-2.592937
  0
VERTEX
  8
PLAN_1
 62
     2
  6
CONTINUOUS
 10
0.170878
 20
-2.589457
  0
VERTEX
  8
PLAN_1
 62
     2
  6
CONTINUOUS
 10
0.171457
 20
-2.584811
  0
VERTEX
  8
PLAN_1
 62
     2
  6
CONTINUOUS
 10
0.172618
 20
-2.580752
  0
VERTEX
  8
PLAN_1
 62
     2
  6
CONTINUOUS
 10
0.174358
 20
-2.576689
  0
VERTEX
  8
PLAN_1
 62
     2
  6
CONTINUOUS
 10
0.176677
 20
-2.573209
  0
VERTEX
  8
PLAN_1
 62
     2
  6
CONTINUOUS
 10
0.180161
 20
-2.570307
  0
VERTEX
  8
PLAN_1
 62
     2
  6
CONTINUOUS
 10
0.183642
 20
-2.568567
  0
VERTEX
  8
PLAN_1
 62
     2
  6
CONTINUOUS
 10
0.188283
 20
-2.566823
  0
VERTEX
  8
PLAN_1
 62
     2
  6
CONTINUOUS
 10
0.192925
 20
-2.566823
  0
VERTEX
  8
PLAN_1
 62
     2
  6
CONTINUOUS
 10
0.197567
 20
-2.566823
  0
VERTEX
  8
PLAN_1
 62
     2
  6
CONTINUOUS
 10
0.201630
 20
-2.567984
  0
VERTEX
  8
PLAN_1
 62
     2
  6
CONTINUOUS
 10
0.205110
 20
-2.569724
  0
VERTEX
  8
PLAN_1
 62
     2
  6
CONTINUOUS
 10
0.208012
 20
-2.572047
  0
VERTEX
  8
PLAN_1
 62
     2
  6
CONTINUOUS
 10
0.210335
 20
-2.574949
  0
VERTEX
  8
PLAN_1
 62
     2
  6
CONTINUOUS
 10
0.213236
 20
-2.578429
  0
VERTEX
  8
PLAN_1
 62
     2
  6
CONTINUOUS
 10
0.214976
 20
-2.581909
  0
VERTEX
  8
PLAN_1
 62
     2
  6
CONTINUOUS
 10
0.217299
 20
-2.585972
  0
VERTEX
  8
PLAN_1
 62
     2
  6
CONTINUOUS
 10
0.221358
 20
-2.593516
  0
VERTEX
  8
PLAN_1
 62
     2
  6
CONTINUOUS
 10
0.223681
 20
-2.597000
  0
VERTEX
  8
PLAN_1
 62
     2
  6
CONTINUOUS
 10
0.225421
 20
-2.599902
  0
VERTEX
  8
PLAN_1
 62
     2
  6
CONTINUOUS
 10
0.227744
 20
-2.602220
  0
VERTEX
  8
PLAN_1
 62
     2
  6
CONTINUOUS
 10
0.229484
 20
-2.603382
  0
VERTEX
  8
PLAN_1
 62
     2
  6
CONTINUOUS
 10
0.231224
 20
-2.604543
  0
VERTEX
  8
PLAN_1
 62
     2
  6
CONTINUOUS
 10
0.232965
 20
-2.605701
  0
VERTEX
  8
PLAN_1
 62
     2
  6
CONTINUOUS
 10
0.234126
 20
-2.606283
  0
VERTEX
  8
PLAN_1
 62
     2
  6
CONTINUOUS
 10
0.235866
 20
-2.606283
  0
VERTEX
  8
PLAN_1
 62
     2
  6
CONTINUOUS
 10
0.235866
 20
-2.566823
  0
VERTEX
  8
PLAN_1
 62
     2
  6
CONTINUOUS
 10
0.243988
 20
-2.566823
  0
VERTEX
  8
PLAN_1
 62
     2
  6
CONTINUOUS
 10
0.243988
 20
-2.616728
  0
VERTEX
  8
PLAN_1
 62
     2
  6
CONTINUOUS
 10
0.238768
 20
-2.616146
  0
VERTEX
  8
PLAN_1
 62
     2
  6
CONTINUOUS
 10
0.234126
 20
-2.614988
  0
VERTEX
  8
PLAN_1
 62
     2
  6
CONTINUOUS
 10
0.230063
 20
-2.613827
  0
VERTEX
  8
PLAN_1
 62
     2
  6
CONTINUOUS
 10
0.226000
 20
-2.611504
  0
VERTEX
  8
PLAN_1
 62
     2
  6
CONTINUOUS
 10
0.223098
 20
-2.609185
  0
VERTEX
  8
PLAN_1
 62
     2
  6
CONTINUOUS
 10
0.220201
 20
-2.606283
  0
VERTEX
  8
PLAN_1
 62
     2
  6
CONTINUOUS
 10
0.217299
 20
-2.602799
  0
VERTEX
  8
PLAN_1
 62
     2
  6
CONTINUOUS
 10
0.214976
 20
-2.599319
  0
VERTEX
  8
PLAN_1
 62
     2
  6
CONTINUOUS
 10
0.209756
 20
-2.590035
  0
VERTEX
  8
PLAN_1
 62
     2
  6
CONTINUOUS
 10
0.208012
 20
-2.587134
  0
VERTEX
  8
PLAN_1
 62
     2
  6
CONTINUOUS
 10
0.206272
 20
-2.584232
  0
VERTEX
  8
PLAN_1
 62
     2
  6
CONTINUOUS
 10
0.204531
 20
-2.581909
  0
VERTEX
  8
PLAN_1
 62
     2
  6
CONTINUOUS
 10
0.202791
 20
-2.580169
  0
VERTEX
  8
PLAN_1
 62
     2
  6
CONTINUOUS
 10
0.201051
 20
-2.578429
  0
VERTEX
  8
PLAN_1
 62
     2
  6
CONTINUOUS
 10
0.198728
 20
-2.577268
  0
VERTEX
  8
PLAN_1
 62
     2
  6
CONTINUOUS
 10
0.195827
 20
-2.576689
  0
VERTEX
  8
PLAN_1
 62
     2
  6
CONTINUOUS
 10
0.192346
 20
-2.576110
  0
VERTEX
  8
PLAN_1
 62
     2
  6
CONTINUOUS
 10
0.190024
 20
-2.576689
  0
VERTEX
  8
PLAN_1
 62
     2
  6
CONTINUOUS
 10
0.188283
 20
-2.577268
  0
VERTEX
  8
PLAN_1
 62
     2
  6
CONTINUOUS
 10
0.185965
 20
-2.577850
  0
VERTEX
  8
PLAN_1
 62
     2
  6
CONTINUOUS
 10
0.183642
 20
-2.579591
  0
VERTEX
  8
PLAN_1
 62
     2
  6
CONTINUOUS
 10
0.181902
 20
-2.581331
  0
VERTEX
  8
PLAN_1
 62
     2
  6
CONTINUOUS
 10
0.180740
 20
-2.584232
  0
VERTEX
  8
PLAN_1
 62
     2
  6
CONTINUOUS
 10
0.179579
 20
-2.587134
  0
VERTEX
  8
PLAN_1
 62
     2
  6
CONTINUOUS
 10
0.179579
 20
-2.590614
  0
VERTEX
  8
PLAN_1
 62
     2
  6
CONTINUOUS
 10
0.179579
 20
-2.593516
  0
VERTEX
  8
PLAN_1
 62
     2
  6
CONTINUOUS
 10
0.180161
 20
-2.595256
  0
VERTEX
  8
PLAN_1
 62
     2
  6
CONTINUOUS
 10
0.180740
 20
-2.597579
  0
VERTEX
  8
PLAN_1
 62
     2
  6
CONTINUOUS
 10
0.181323
 20
-2.598740
  0
VERTEX
  8
PLAN_1
 62
     2
  6
CONTINUOUS
 10
0.183642
 20
-2.601642
  0
VERTEX
  8
PLAN_1
 62
     2
  6
CONTINUOUS
 10
0.186543
 20
-2.603382
  0
VERTEX
  8
PLAN_1
 62
     2
  6
CONTINUOUS
 10
0.189445
 20
-2.604543
  0
VERTEX
  8
PLAN_1
 62
     2
  6
CONTINUOUS
 10
0.192346
 20
-2.605122
  0
VERTEX
  8
PLAN_1
 62
     2
  6
CONTINUOUS
 10
0.195248
 20
-2.605701
  0
VERTEX
  8
PLAN_1
 62
     2
  6
CONTINUOUS
 10
0.197567
 20
-2.605701
  0
VERTEX
  8
PLAN_1
 62
     2
  6
CONTINUOUS
 10
0.197567
 20
-2.614988
  0
SEQEND
  8
0
  0
POLYLINE
  8
PLAN_1
 62
     2
  6
CONTINUOUS
 66
     1
 40
0.003000
 41
0.003000
  0
VERTEX
  8
PLAN_1
 62
     2
  6
CONTINUOUS
 10
-1.108031
 20
-3.103571
  0
VERTEX
  8
PLAN_1
 62
     2
  6
CONTINUOUS
 10
-1.106874
 20
-3.102409
  0
VERTEX
  8
PLAN_1
 62
     2
  6
CONTINUOUS
 10
-1.105713
 20
-3.101831
  0
VERTEX
  8
PLAN_1
 62
     2
  6
CONTINUOUS
 10
-1.103972
 20
-3.101252
  0
VERTEX
  8
PLAN_1
 62
     2
  6
CONTINUOUS
 10
-1.102232
 20
-3.100091
  0
VERTEX
  8
PLAN_1
 62
     2
  6
CONTINUOUS
 10
-1.100488
 20
-3.100091
  0
VERTEX
  8
PLAN_1
 62
     2
  6
CONTINUOUS
 10
-1.098748
 20
-3.099512
  0
VERTEX
  8
PLAN_1
 62
     2
  6
CONTINUOUS
 10
-1.096429
 20
-3.098929
  0
VERTEX
  8
PLAN_1
 62
     2
  6
CONTINUOUS
 10
-1.094106
 20
-3.098929
  0
VERTEX
  8
PLAN_1
 62
     2
  6
CONTINUOUS
 10
-1.089465
 20
-3.099512
  0
VERTEX
  8
PLAN_1
 62
     2
  6
CONTINUOUS
 10
-1.085402
 20
-3.100669
  0
VERTEX
  8
PLAN_1
 62
     2
  6
CONTINUOUS
 10
-1.081343
 20
-3.102409
  0
VERTEX
  8
PLAN_1
 62
     2
  6
CONTINUOUS
 10
-1.077858
 20
-3.105311
  0
VERTEX
  8
PLAN_1
 62
     2
  6
CONTINUOUS
 10
-1.074378
 20
-3.108213
  0
VERTEX
  8
PLAN_1
 62
     2
  6
CONTINUOUS
 10
-1.072055
 20
-3.112276
  0
VERTEX
  8
PLAN_1
 62
     2
  6
CONTINUOUS
 10
-1.070898
 20
-3.116917
  0
VERTEX
  8
PLAN_1
 62
     2
  6
CONTINUOUS
 10
-1.070315
 20
-3.122142
  0
VERTEX
  8
PLAN_1
 62
     2
  6
CONTINUOUS
 10
-1.070315
 20
-3.125622
  0
VERTEX
  8
PLAN_1
 62
     2
  6
CONTINUOUS
 10
-1.070898
 20
-3.129685
  0
VERTEX
  8
PLAN_1
 62
     2
  6
CONTINUOUS
 10
-1.072638
 20
-3.134327
  0
VERTEX
  8
PLAN_1
 62
     2
  6
CONTINUOUS
 10
-1.074957
 20
-3.138390
  0
VERTEX
  8
PLAN_1
 62
     2
  6
CONTINUOUS
 10
-1.076118
 20
-3.140130
  0
VERTEX
  8
PLAN_1
 62
     2
  6
CONTINUOUS
 10
-1.078441
 20
-3.141870
  0
VERTEX
  8
PLAN_1
 62
     2
  6
CONTINUOUS
 10
-1.080181
 20
-3.143610
  0
VERTEX
  8
PLAN_1
 62
     2
  6
CONTINUOUS
 10
-1.083083
 20
-3.145350
  0
VERTEX
  8
PLAN_1
 62
     2
  6
CONTINUOUS
 10
-1.085402
 20
-3.146512
  0
VERTEX
  8
PLAN_1
 62
     2
  6
CONTINUOUS
 10
-1.088886
 20
-3.147091
  0
VERTEX
  8
PLAN_1
 62
     2
  6
CONTINUOUS
 10
-1.092366
 20
-3.147673
  0
VERTEX
  8
PLAN_1
 62
     2
  6
CONTINUOUS
 10
-1.096429
 20
-3.148252
  0
VERTEX
  8
PLAN_1
 62
     2
  6
CONTINUOUS
 10
-1.100488
 20
-3.147673
  0
VERTEX
  8
PLAN_1
 62
     2
  6
CONTINUOUS
 10
-1.103972
 20
-3.147091
  0
VERTEX
  8
PLAN_1
 62
     2
  6
CONTINUOUS
 10
-1.108031
 20
-3.145933
  0
VERTEX
  8
PLAN_1
 62
     2
  6
CONTINUOUS
 10
-1.111516
 20
-3.144189
  0
VERTEX
  8
PLAN_1
 62
     2
  6
CONTINUOUS
 10
-1.114417
 20
-3.141287
  0
VERTEX
  8
PLAN_1
 62
     2
  6
CONTINUOUS
 10
-1.117319
 20
-3.137807
  0
VERTEX
  8
PLAN_1
 62
     2
  6
CONTINUOUS
 10
-1.119059
 20
-3.133165
  0
VERTEX
  8
PLAN_1
 62
     2
  6
CONTINUOUS
 10
-1.120220
 20
-3.127945
  0
VERTEX
  8
PLAN_1
 62
     2
  6
CONTINUOUS
 10
-1.110933
 20
-3.127945
  0
VERTEX
  8
PLAN_1
 62
     2
  6
CONTINUOUS
 10
-1.110354
 20
-3.130843
  0
VERTEX
  8
PLAN_1
 62
     2
  6
CONTINUOUS
 10
-1.109193
 20
-3.133165
  0
VERTEX
  8
PLAN_1
 62
     2
  6
CONTINUOUS
 10
-1.107453
 20
-3.135488
  0
VERTEX
  8
PLAN_1
 62
     2
  6
CONTINUOUS
 10
-1.105713
 20
-3.137228
  0
VERTEX
  8
PLAN_1
 62
     2
  6
CONTINUOUS
 10
-1.103390
 20
-3.138390
  0
VERTEX
  8
PLAN_1
 62
     2
  6
CONTINUOUS
 10
-1.101071
 20
-3.139547
  0
VERTEX
  8
PLAN_1
 62
     2
  6
CONTINUOUS
 10
-1.098169
 20
-3.140130
  0
VERTEX
  8
PLAN_1
 62
     2
  6
CONTINUOUS
 10
-1.095268
 20
-3.140130
  0
VERTEX
  8
PLAN_1
 62
     2
  6
CONTINUOUS
 10
-1.091787
 20
-3.139547
  0
VERTEX
  8
PLAN_1
 62
     2
  6
CONTINUOUS
 10
-1.088886
 20
-3.138969
  0
VERTEX
  8
PLAN_1
 62
     2
  6
CONTINUOUS
 10
-1.085984
 20
-3.137228
  0
VERTEX
  8
PLAN_1
 62
     2
  6
CONTINUOUS
 10
-1.084244
 20
-3.135488
  0
VERTEX
  8
PLAN_1
 62
     2
  6
CONTINUOUS
 10
-1.082500
 20
-3.132587
  0
VERTEX
  8
PLAN_1
 62
     2
  6
CONTINUOUS
 10
-1.080760
 20
-3.129685
  0
VERTEX
  8
PLAN_1
 62
     2
  6
CONTINUOUS
 10
-1.080181
 20
-3.126783
  0
VERTEX
  8
PLAN_1
 62
     2
  6
CONTINUOUS
 10
-1.079598
 20
-3.123299
  0
VERTEX
  8
PLAN_1
 62
     2
  6
CONTINUOUS
 10
-1.080181
 20
-3.119819
  0
VERTEX
  8
PLAN_1
 62
     2
  6
CONTINUOUS
 10
-1.081343
 20
-3.116339
  0
VERTEX
  8
PLAN_1
 62
     2
  6
CONTINUOUS
 10
-1.082500
 20
-3.113437
  0
VERTEX
  8
PLAN_1
 62
     2
  6
CONTINUOUS
 10
-1.084823
 20
-3.111114
  0
VERTEX
  8
PLAN_1
 62
     2
  6
CONTINUOUS
 10
-1.087146
 20
-3.109374
  0
VERTEX
  8
PLAN_1
 62
     2
  6
CONTINUOUS
 10
-1.089465
 20
-3.108213
  0
VERTEX
  8
PLAN_1
 62
     2
  6
CONTINUOUS
 10
-1.092945
 20
-3.107634
  0
VERTEX
  8
PLAN_1
 62
     2
  6
CONTINUOUS
 10
-1.095846
 20
-3.107055
  0
VERTEX
  8
PLAN_1
 62
     2
  6
CONTINUOUS
 10
-1.098169
 20
-3.107055
  0
VERTEX
  8
PLAN_1
 62
     2
  6
CONTINUOUS
 10
-1.099909
 20
-3.107634
  0
VERTEX
  8
PLAN_1
 62
     2
  6
CONTINUOUS
 10
-1.101650
 20
-3.108213
  0
VERTEX
  8
PLAN_1
 62
     2
  6
CONTINUOUS
 10
-1.103390
 20
-3.108795
  0
VERTEX
  8
PLAN_1
 62
     2
  6
CONTINUOUS
 10
-1.105134
 20
-3.109957
  0
VERTEX
  8
PLAN_1
 62
     2
  6
CONTINUOUS
 10
-1.106874
 20
-3.111114
  0
VERTEX
  8
PLAN_1
 62
     2
  6
CONTINUOUS
 10
-1.108031
 20
-3.112854
  0
VERTEX
  8
PLAN_1
 62
     2
  6
CONTINUOUS
 10
-1.109776
 20
-3.114016
  0
VERTEX
  8
PLAN_1
 62
     2
  6
CONTINUOUS
 10
-1.117319
 20
-3.114016
  0
VERTEX
  8
PLAN_1
 62
     2
  6
CONTINUOUS
 10
-1.112094
 20
-3.074559
  0
VERTEX
  8
PLAN_1
 62
     2
  6
CONTINUOUS
 10
-1.074378
 20
-3.074559
  0
VERTEX
  8
PLAN_1
 62
     2
  6
CONTINUOUS
 10
-1.074378
 20
-3.083264
  0
VERTEX
  8
PLAN_1
 62
     2
  6
CONTINUOUS
 10
-1.105134
 20
-3.083264
  0
VERTEX
  8
PLAN_1
 62
     2
  6
CONTINUOUS
 10
-1.108031
 20
-3.103571
  0
SEQEND
  8
0
  0
POLYLINE
  8
PLAN_1
 62
     2
  6
CONTINUOUS
 66
     1
 40
0.003000
 41
0.003000
  0
VERTEX
  8
PLAN_1
 62
     2
  6
CONTINUOUS
 10
-1.061031
 20
-3.097768
  0
VERTEX
  8
PLAN_1
 62
     2
  6
CONTINUOUS
 10
-1.061031
 20
-3.093126
  0
VERTEX
  8
PLAN_1
 62
     2
  6
CONTINUOUS
 10
-1.059870
 20
-3.088484
  0
VERTEX
  8
PLAN_1
 62
     2
  6
CONTINUOUS
 10
-1.058130
 20
-3.084421
  0
VERTEX
  8
PLAN_1
 62
     2
  6
CONTINUOUS
 10
-1.055228
 20
-3.080362
  0
VERTEX
  8
PLAN_1
 62
     2
  6
CONTINUOUS
 10
-1.051748
 20
-3.077461
  0
VERTEX
  8
PLAN_1
 62
     2
  6
CONTINUOUS
 10
-1.047685
 20
-3.075138
  0
VERTEX
  8
PLAN_1
 62
     2
  6
CONTINUOUS
 10
-1.043043
 20
-3.073398
  0
VERTEX
  8
PLAN_1
 62
     2
  6
CONTINUOUS
 10
-1.037823
 20
-3.072819
  0
VERTEX
  8
PLAN_1
 62
     2
  6
CONTINUOUS
 10
-1.033760
 20
-3.073398
  0
VERTEX
  8
PLAN_1
 62
     2
  6
CONTINUOUS
 10
-1.030280
 20
-3.073976
  0
VERTEX
  8
PLAN_1
 62
     2
  6
CONTINUOUS
 10
-1.026795
 20
-3.075138
  0
VERTEX
  8
PLAN_1
 62
     2
  6
CONTINUOUS
 10
-1.023894
 20
-3.076878
  0
VERTEX
  8
PLAN_1
 62
     2
  6
CONTINUOUS
 10
-1.021575
 20
-3.078622
  0
VERTEX
  8
PLAN_1
 62
     2
  6
CONTINUOUS
 10
-1.019252
 20
-3.080362
  0
VERTEX
  8
PLAN_1
 62
     2
  6
CONTINUOUS
 10
-1.017512
 20
-3.082681
  0
VERTEX
  8
PLAN_1
 62
     2
  6
CONTINUOUS
 10
-1.016350
 20
-3.085583
  0
VERTEX
  8
PLAN_1
 62
     2
  6
CONTINUOUS
 10
-1.014031
 20
-3.090807
  0
VERTEX
  8
PLAN_1
 62
     2
  6
CONTINUOUS
 10
-1.012870
 20
-3.096610
  0
VERTEX
  8
PLAN_1
 62
     2
  6
CONTINUOUS
 10
-1.012287
 20
-3.101831
  0
VERTEX
  8
PLAN_1
 62
     2
  6
CONTINUOUS
 10
-1.012287
 20
-3.107055
  0
VERTEX
  8
PLAN_1
 62
     2
  6
CONTINUOUS
 10
-1.012287
 20
-3.111114
  0
VERTEX
  8
PLAN_1
 62
     2
  6
CONTINUOUS
 10
-1.012870
 20
-3.116339
  0
VERTEX
  8
PLAN_1
 62
     2
  6
CONTINUOUS
 10
-1.014031
 20
-3.123299
  0
VERTEX
  8
PLAN_1
 62
     2
  6
CONTINUOUS
 10
-1.015772
 20
-3.130264
  0
VERTEX
  8
PLAN_1
 62
     2
  6
CONTINUOUS
 10
-1.017512
 20
-3.133744
  0
VERTEX
  8
PLAN_1
 62
     2
  6
CONTINUOUS
 10
-1.019252
 20
-3.137228
  0
VERTEX
  8
PLAN_1
 62
     2
  6
CONTINUOUS
 10
-1.021575
 20
-3.140130
  0
VERTEX
  8
PLAN_1
 62
     2
  6
CONTINUOUS
 10
-1.023894
 20
-3.142449
  0
VERTEX
  8
PLAN_1
 62
     2
  6
CONTINUOUS
 10
-1.026795
 20
-3.144772
  0
VERTEX
  8
PLAN_1
 62
     2
  6
CONTINUOUS
 10
-1.030280
 20
-3.146512
  0
VERTEX
  8
PLAN_1
 62
     2
  6
CONTINUOUS
 10
-1.034339
 20
-3.147673
  0
VERTEX
  8
PLAN_1
 62
     2
  6
CONTINUOUS
 10
-1.038980
 20
-3.148252
  0
VERTEX
  8
PLAN_1
 62
     2
  6
CONTINUOUS
 10
-1.044783
 20
-3.147673
  0
VERTEX
  8
PLAN_1
 62
     2
  6
CONTINUOUS
 10
-1.049425
 20
-3.145933
  0
VERTEX
  8
PLAN_1
 62
     2
  6
CONTINUOUS
 10
-1.052909
 20
-3.143610
  0
VERTEX
  8
PLAN_1
 62
     2
  6
CONTINUOUS
 10
-1.055811
 20
-3.140709
  0
VERTEX
  8
PLAN_1
 62
     2
  6
CONTINUOUS
 10
-1.058130
 20
-3.137807
  0
VERTEX
  8
PLAN_1
 62
     2
  6
CONTINUOUS
 10
-1.059291
 20
-3.134327
  0
VERTEX
  8
PLAN_1
 62
     2
  6
CONTINUOUS
 10
-1.060453
 20
-3.131425
  0
VERTEX
  8
PLAN_1
 62
     2
  6
CONTINUOUS
 10
-1.060453
 20
-3.128524
  0
VERTEX
  8
PLAN_1
 62
     2
  6
CONTINUOUS
 10
-1.051165
 20
-3.128524
  0
VERTEX
  8
PLAN_1
 62
     2
  6
CONTINUOUS
 10
-1.051165
 20
-3.131425
  0
VERTEX
  8
PLAN_1
 62
     2
  6
CONTINUOUS
 10
-1.050008
 20
-3.133744
  0
VERTEX
  8
PLAN_1
 62
     2
  6
CONTINUOUS
 10
-1.049425
 20
-3.135488
  0
VERTEX
  8
PLAN_1
 62
     2
  6
CONTINUOUS
 10
-1.047685
 20
-3.137228
  0
VERTEX
  8
PLAN_1
 62
     2
  6
CONTINUOUS
 10
-1.045945
 20
-3.138390
  0
VERTEX
  8
PLAN_1
 62
     2
  6
CONTINUOUS
 10
-1.044205
 20
-3.139547
  0
VERTEX
  8
PLAN_1
 62
     2
  6
CONTINUOUS
 10
-1.041882
 20
-3.140130
  0
VERTEX
  8
PLAN_1
 62
     2
  6
CONTINUOUS
 10
-1.038980
 20
-3.140709
  0
VERTEX
  8
PLAN_1
 62
     2
  6
CONTINUOUS
 10
-1.035500
 20
-3.140130
  0
VERTEX
  8
PLAN_1
 62
     2
  6
CONTINUOUS
 10
-1.032020
 20
-3.138969
  0
VERTEX
  8
PLAN_1
 62
     2
  6
CONTINUOUS
 10
-1.029697
 20
-3.136646
  0
VERTEX
  8
PLAN_1
 62
     2
  6
CONTINUOUS
 10
-1.027378
 20
-3.133744
  0
VERTEX
  8
PLAN_1
 62
     2
  6
CONTINUOUS
 10
-1.025055
 20
-3.130264
  0
VERTEX
  8
PLAN_1
 62
     2
  6
CONTINUOUS
 10
-1.023894
 20
-3.125622
  0
VERTEX
  8
PLAN_1
 62
     2
  6
CONTINUOUS
 10
-1.022154
 20
-3.119819
  0
VERTEX
  8
PLAN_1
 62
     2
  6
CONTINUOUS
 10
-1.021575
 20
-3.112854
  0
VERTEX
  8
PLAN_1
 62
     2
  6
CONTINUOUS
 10
-1.022732
 20
-3.115177
  0
VERTEX
  8
PLAN_1
 62
     2
  6
CONTINUOUS
 10
-1.024476
 20
-3.116917
  0
VERTEX
  8
PLAN_1
 62
     2
  6
CONTINUOUS
 10
-1.026217
 20
-3.118079
  0
VERTEX
  8
PLAN_1
 62
     2
  6
CONTINUOUS
 10
-1.028535
 20
-3.119240
  0
VERTEX
  8
PLAN_1
 62
     2
  6
CONTINUOUS
 10
-1.030858
 20
-3.120402
  0
VERTEX
  8
PLAN_1
 62
     2
  6
CONTINUOUS
 10
-1.033177
 20
-3.120980
  0
VERTEX
  8
PLAN_1
 62
     2
  6
CONTINUOUS
 10
-1.035500
 20
-3.121559
  0
VERTEX
  8
PLAN_1
 62
     2
  6
CONTINUOUS
 10
-1.038402
 20
-3.121559
  0
VERTEX
  8
PLAN_1
 62
     2
  6
CONTINUOUS
 10
-1.043043
 20
-3.120980
  0
VERTEX
  8
PLAN_1
 62
     2
  6
CONTINUOUS
 10
-1.047685
 20
-3.119819
  0
VERTEX
  8
PLAN_1
 62
     2
  6
CONTINUOUS
 10
-1.051748
 20
-3.118079
  0
VERTEX
  8
PLAN_1
 62
     2
  6
CONTINUOUS
 10
-1.054650
 20
-3.115177
  0
VERTEX
  8
PLAN_1
 62
     2
  6
CONTINUOUS
 10
-1.057551
 20
-3.111697
  0
VERTEX
  8
PLAN_1
 62
     2
  6
CONTINUOUS
 10
-1.059870
 20
-3.107634
  0
VERTEX
  8
PLAN_1
 62
     2
  6
CONTINUOUS
 10
-1.061031
 20
-3.102992
  0
VERTEX
  8
PLAN_1
 62
     2
  6
CONTINUOUS
 10
-1.061031
 20
-3.097768
  0
SEQEND
  8
0
  0
POLYLINE
  8
PLAN_1
 62
     2
  6
CONTINUOUS
 66
     1
 40
0.003000
 41
0.003000
  0
VERTEX
  8
PLAN_1
 62
     2
  6
CONTINUOUS
 10
-1.022732
 20
-3.096610
  0
VERTEX
  8
PLAN_1
 62
     2
  6
CONTINUOUS
 10
-1.023315
 20
-3.093709
  0
VERTEX
  8
PLAN_1
 62
     2
  6
CONTINUOUS
 10
-1.023894
 20
-3.090807
  0
VERTEX
  8
PLAN_1
 62
     2
  6
CONTINUOUS
 10
-1.025055
 20
-3.088484
  0
VERTEX
  8
PLAN_1
 62
     2
  6
CONTINUOUS
 10
-1.026217
 20
-3.085583
  0
VERTEX
  8
PLAN_1
 62
     2
  6
CONTINUOUS
 10
-1.028535
 20
-3.083843
  0
VERTEX
  8
PLAN_1
 62
     2
  6
CONTINUOUS
 10
-1.030858
 20
-3.082681
  0
VERTEX
  8
PLAN_1
 62
     2
  6
CONTINUOUS
 10
-1.033760
 20
-3.081524
  0
VERTEX
  8
PLAN_1
 62
     2
  6
CONTINUOUS
 10
-1.037823
 20
-3.080941
  0
VERTEX
  8
PLAN_1
 62
     2
  6
CONTINUOUS
 10
-1.040720
 20
-3.081524
  0
VERTEX
  8
PLAN_1
 62
     2
  6
CONTINUOUS
 10
-1.043622
 20
-3.082102
  0
VERTEX
  8
PLAN_1
 62
     2
  6
CONTINUOUS
 10
-1.045945
 20
-3.083843
  0
VERTEX
  8
PLAN_1
 62
     2
  6
CONTINUOUS
 10
-1.047685
 20
-3.085583
  0
VERTEX
  8
PLAN_1
 62
     2
  6
CONTINUOUS
 10
-1.049425
 20
-3.087906
  0
VERTEX
  8
PLAN_1
 62
     2
  6
CONTINUOUS
 10
-1.050587
 20
-3.090807
  0
VERTEX
  8
PLAN_1
 62
     2
  6
CONTINUOUS
 10
-1.051748
 20
-3.094287
  0
VERTEX
  8
PLAN_1
 62
     2
  6
CONTINUOUS
 10
-1.051748
 20
-3.097768
  0
VERTEX
  8
PLAN_1
 62
     2
  6
CONTINUOUS
 10
-1.051165
 20
-3.102409
  0
VERTEX
  8
PLAN_1
 62
     2
  6
CONTINUOUS
 10
-1.050587
 20
-3.105894
  0
VERTEX
  8
PLAN_1
 62
     2
  6
CONTINUOUS
 10
-1.048846
 20
-3.108795
  0
VERTEX
  8
PLAN_1
 62
     2
  6
CONTINUOUS
 10
-1.046524
 20
-3.110535
  0
VERTEX
  8
PLAN_1
 62
     2
  6
CONTINUOUS
 10
-1.044205
 20
-3.112276
  0
VERTEX
  8
PLAN_1
 62
     2
  6
CONTINUOUS
 10
-1.041882
 20
-3.112854
  0
VERTEX
  8
PLAN_1
 62
     2
  6
CONTINUOUS
 10
-1.039563
 20
-3.113437
  0
VERTEX
  8
PLAN_1
 62
     2
  6
CONTINUOUS
 10
-1.036661
 20
-3.113437
  0
VERTEX
  8
PLAN_1
 62
     2
  6
CONTINUOUS
 10
-1.034921
 20
-3.113437
  0
VERTEX
  8
PLAN_1
 62
     2
  6
CONTINUOUS
 10
-1.032598
 20
-3.112854
  0
VERTEX
  8
PLAN_1
 62
     2
  6
CONTINUOUS
 10
-1.030280
 20
-3.112276
  0
VERTEX
  8
PLAN_1
 62
     2
  6
CONTINUOUS
 10
-1.027957
 20
-3.110535
  0
VERTEX
  8
PLAN_1
 62
     2
  6
CONTINUOUS
 10
-1.026217
 20
-3.108213
  0
VERTEX
  8
PLAN_1
 62
     2
  6
CONTINUOUS
 10
-1.024476
 20
-3.105311
  0
VERTEX
  8
PLAN_1
 62
     2
  6
CONTINUOUS
 10
-1.023315
 20
-3.101831
  0
VERTEX
  8
PLAN_1
 62
     2
  6
CONTINUOUS
 10
-1.022732
 20
-3.096610
  0
SEQEND
  8
0
  0
ENDSEC
  0
EOF
