999
DXF file: C:\Users\sesa63760\Dev\_Creo\CAD\MCADID0003388_3D-CAD\drw0001_4.dxf
999
Pro/ENGINEER 2019471 by Parametric Technology Corporation
  0
SECTION
  2
HEADER
  9
$ACADVER
  1
AC1024
  9
$DWGCODEPAGE
  3
ANSI_1252
  9
$EXTMAX
 10
166.6535135528
 20
235.6956834532
 30
0.0
  9
$EXTMIN
 10
0.0
 20
0.0
 30
0.0
  9
$LIMMIN
 10
0.0
 20
0.0
  9
$LIMMAX
 10
166.6535135528
 20
235.6956834532
  9
$VIEWCTR
 10
83.3267567764
 20
117.8478417266
  9
$VIEWSIZE
 40
235.6956834532
  9
$CLAYER
  8
0
  9
$LTSCALE
 40
15.3638667732
  9
$CELTYPE
  6
BYLAYER
  9
$DIMSCALE
 40
1.0
  9
$DIMASZ
 40
1.9839703994
  9
$DIMEXO
 40
1.0
  9
$DIMDLI
 40
10.6150352252
  9
$DIMEXE
 40
1.0
  9
$DIMCEN
 40
2.5140872902
  9
$DIMLFAC
 40
1.0
  9
$DIMBLK
  1
_FILLED
  9
$DIMALT
 70
0
  9
$DIMALTF
 40
0.0393700787
  9
$DIMTXT
 40
2.7775585592
  9
$DIMTOL
 70
1
  9
$DIMLIM
 70
0
  9
$DIMTFAC
 40
1.0
  9
$DIMTP
 40
0.01
  9
$DIMTM
 40
0.01
  9
$DIMGAP
 40
0.625
  9
$DIMDSEP
 70
46
  9
$AUNITS
 70
0
  9
$PDMODE
 70
3
  9
$PDSIZE
 40
0.3125
  9
$HANDSEED
  5
2F9
  9
$TILEMODE
 70
1
  9
$MEASUREMENT
 70
1
  9
$INSUNITS
 70
4
  0
ENDSEC
  0
SECTION
  2
CLASSES
  0
CLASS
  1
ACDBDICTIONARYWDFLT
  2
AcDbDictionaryWithDefault
  3
AutoCAD 2000
 90
0
 91
1
280
0
281
0
  0
CLASS
  1
ACDBPLACEHOLDER
  2
AcDbPlaceHolder
  3
AutoCAD 2000
 90
0
 91
1
280
0
281
0
  0
CLASS
  1
LAYOUT
  2
AcDbLayout
  3
AutoCAD 2000
 90
0
 91
0
280
0
281
0
  0
ENDSEC
  0
SECTION
  2
TABLES
  0
TABLE
  2
VPORT
  5
8
100
AcDbSymbolTable
 70
2
  0
VPORT
  5
1F4
100
AcDbSymbolTableRecord
100
AcDbViewportTableRecord
  2
*ACTIVE
 70
0
 10
0.0
 20
0.0
 11
1.0
 21
1.0
 12
83.3267567764
 22
117.8478417266
 13
0.0
 23
0.0
 14
1.0
 24
1.0
 15
0.0
 25
0.0
 16
0.0
 26
0.0
 36
1.0
 17
0.0
 27
0.0
 37
0.0
 40
235.6956834532
 41
0.7070707071
 42
50.0
 43
0.0
 44
0.0
 50
0.0
 51
0.0
 71
0
 72
100
 73
1
 74
1
 75
0
 76
0
 77
0
 78
0
  0
ENDTAB
  0
TABLE
  2
LTYPE
  5
5
100
AcDbSymbolTable
 70
6
  0
LTYPE
  5
14
100
AcDbSymbolTableRecord
100
AcDbLinetypeTableRecord
  2
BYBLOCK
 70
0
  3

 72
65
 73
0
 40
0.0
  0
LTYPE
  5
15
100
AcDbSymbolTableRecord
100
AcDbLinetypeTableRecord
  2
BYLAYER
 70
0
  3

 72
65
 73
0
 40
0.0
  0
LTYPE
  5
16
100
AcDbSymbolTableRecord
100
AcDbLinetypeTableRecord
  2
CONTINUOUS
 70
64
  3
Solid line
 72
65
 73
0
 40
0.0
  0
LTYPE
  5
1F5
100
AcDbSymbolTableRecord
100
AcDbLinetypeTableRecord
  2
CENTER
 70
64
  3
____ _ ____ _ ____ _ ____ _ ____ _ ____ _ ____
 72
65
 73
4
 40
0.6
 49
0.375
 74
0
 49
-0.075
 74
0
 49
0.075
 74
0
 49
-0.075
 74
0
  0
LTYPE
  5
1F6
100
AcDbSymbolTableRecord
100
AcDbLinetypeTableRecord
  2
HIDDEN
 70
64
  3
- - - - - - - - - - - - - - - - - - - -
 72
65
 73
2
 40
0.2
 49
0.1
 74
0
 49
-0.1
 74
0
  0
LTYPE
  5
1F7
100
AcDbSymbolTableRecord
100
AcDbLinetypeTableRecord
  2
PHANTOM
 70
64
  3
_____ _ _ _____ _ _ _____ _ _ _____
 72
65
 73
6
 40
0.8
 49
0.45
 74
0
 49
-0.05
 74
0
 49
0.1
 74
0
 49
-0.05
 74
0
 49
0.1
 74
0
 49
-0.05
 74
0
  0
LTYPE
  5
1F8
100
AcDbSymbolTableRecord
100
AcDbLinetypeTableRecord
  2
DOT
 70
64
  3
. . . . . . . . . . . . . . . . . . . .
 72
65
 73
2
 40
0.2
 49
0.1
 74
0
 49
-0.1
 74
0
  0
LTYPE
  5
1F9
100
AcDbSymbolTableRecord
100
AcDbLinetypeTableRecord
  2
DASHED
 70
64
  3
- - - - - - - - - - - - - - - - - - - -
 72
65
 73
2
 40
0.2
 49
0.1
 74
0
 49
-0.1
 74
0
  0
ENDTAB
  0
TABLE
  2
LAYER
  5
2
100
AcDbSymbolTable
 70
36
  0
LAYER
  5
10
100
AcDbSymbolTableRecord
100
AcDbLayerTableRecord
  2
0
 70
0
 62
7
  6
CONTINUOUS
370
-3
390
F
  0
LAYER
  5
1FA
100
AcDbSymbolTableRecord
100
AcDbLayerTableRecord
  2
DEFAULT_1
 70
0
 62
7
  6
CENTER
370
-3
390
F
  0
LAYER
  5
1FB
100
AcDbSymbolTableRecord
100
AcDbLayerTableRecord
  2
DEFAULT_2
 70
0
 62
7
  6
HIDDEN
370
-3
390
F
  0
LAYER
  5
1FC
100
AcDbSymbolTableRecord
100
AcDbLayerTableRecord
  2
DEFAULT_3
 70
0
 62
7
  6
PHANTOM
370
-3
390
F
  0
LAYER
  5
1FD
100
AcDbSymbolTableRecord
100
AcDbLayerTableRecord
  2
00_COMPONENTS
 70
0
 62
7
  6
CONTINUOUS
370
-3
390
F
  0
LAYER
  5
1FE
100
AcDbSymbolTableRecord
100
AcDbLayerTableRecord
  2
01_1_DEFAULT_DATUMS
 70
0
 62
7
  6
CONTINUOUS
370
-3
390
F
  0
LAYER
  5
1FF
100
AcDbSymbolTableRecord
100
AcDbLayerTableRecord
  2
01_PLANES
 70
0
 62
7
  6
CONTINUOUS
370
-3
390
F
  0
LAYER
  5
200
100
AcDbSymbolTableRecord
100
AcDbLayerTableRecord
  2
02_COORD_SYS
 70
0
 62
7
  6
CONTINUOUS
370
-3
390
F
  0
LAYER
  5
201
100
AcDbSymbolTableRecord
100
AcDbLayerTableRecord
  2
03_AXES
 70
0
 62
7
  6
CONTINUOUS
370
-3
390
F
  0
LAYER
  5
202
100
AcDbSymbolTableRecord
100
AcDbLayerTableRecord
  2
04_POINTS
 70
0
 62
7
  6
CONTINUOUS
370
-3
390
F
  0
LAYER
  5
203
100
AcDbSymbolTableRecord
100
AcDbLayerTableRecord
  2
05_CURVES
 70
0
 62
7
  6
CONTINUOUS
370
-3
390
F
  0
LAYER
  5
204
100
AcDbSymbolTableRecord
100
AcDbLayerTableRecord
  2
06_SURFS
 70
0
 62
7
  6
CONTINUOUS
370
-3
390
F
  0
LAYER
  5
205
100
AcDbSymbolTableRecord
100
AcDbLayerTableRecord
  2
07_COSMETICS
 70
0
 62
7
  6
CONTINUOUS
370
-3
390
F
  0
LAYER
  5
206
100
AcDbSymbolTableRecord
100
AcDbLayerTableRecord
  2
10_NOTES
 70
0
 62
7
  6
CONTINUOUS
370
-3
390
F
  0
LAYER
  5
207
100
AcDbSymbolTableRecord
100
AcDbLayerTableRecord
  2
11_NOTES_PUB
 70
0
 62
7
  6
CONTINUOUS
370
-3
390
F
  0
LAYER
  5
208
100
AcDbSymbolTableRecord
100
AcDbLayerTableRecord
  2
13_REF_GTOL
 70
0
 62
7
  6
CONTINUOUS
370
-3
390
F
  0
LAYER
  5
209
100
AcDbSymbolTableRecord
100
AcDbLayerTableRecord
  2
16_MISC
 70
0
 62
7
  6
CONTINUOUS
370
-3
390
F
  0
LAYER
  5
20A
100
AcDbSymbolTableRecord
100
AcDbLayerTableRecord
  2
17_NO_PRINT
 70
0
 62
7
  6
CONTINUOUS
370
-3
390
F
  0
LAYER
  5
20B
100
AcDbSymbolTableRecord
100
AcDbLayerTableRecord
  2
18_DATUM_CAMS_JOINTS
 70
0
 62
7
  6
CONTINUOUS
370
-3
390
F
  0
LAYER
  5
20C
100
AcDbSymbolTableRecord
100
AcDbLayerTableRecord
  2
19_DATUM_FUNCTIONAL
 70
0
 62
7
  6
CONTINUOUS
370
-3
390
F
  0
LAYER
  5
20D
100
AcDbSymbolTableRecord
100
AcDbLayerTableRecord
  2
20_DATUM_KINEMATIC_SCHEME
 70
0
 62
7
  6
CONTINUOUS
370
-3
390
F
  0
ENDTAB
  0
TABLE
  2
STYLE
  5
3
100
AcDbSymbolTable
 70
1
  0
STYLE
  5
11
100
AcDbSymbolTableRecord
100
AcDbTextStyleTableRecord
  2
STANDARD
 70
0
 40
0.0
 41
1.0
 50
0.0
 71
0
 42
0.2
  3
ARIAL.TTF
  4

  0
STYLE
  5
20E
100
AcDbSymbolTableRecord
100
AcDbTextStyleTableRecord
  2
TEXTSTYLE_1
 70
0
 40
0.0
 41
0.8
 50
0.0
 71
0
 42
0.2
  3
gdt
  4

  0
ENDTAB
  0
TABLE
  2
VIEW
  5
6
100
AcDbSymbolTable
 70
0
  0
ENDTAB
  0
TABLE
  2
UCS
  5
7
100
AcDbSymbolTable
 70
0
  0
ENDTAB
  0
TABLE
  2
APPID
  5
9
100
AcDbSymbolTable
 70
1
  0
APPID
  5
20F
100
AcDbSymbolTableRecord
100
AcDbRegAppTableRecord
  2
ACAD
 70
0
  0
ENDTAB
  0
TABLE
  2
BLOCK_RECORD
  5
1
100
AcDbSymbolTable
 70
0
  0
BLOCK_RECORD
  5
210
100
AcDbSymbolTableRecord
100
AcDbBlockTableRecord
  2
*Model_Space
  0
BLOCK_RECORD
  5
211
100
AcDbSymbolTableRecord
100
AcDbBlockTableRecord
  2
*Paper_Space
  0
BLOCK_RECORD
  5
212
100
AcDbSymbolTableRecord
100
AcDbBlockTableRecord
  2
_FILLED
  0
ENDTAB
  0
TABLE
  2
DIMSTYLE
  5
A
100
AcDbSymbolTable
 70
1
100
AcDbDimStyleTable
 71
0
  0
DIMSTYLE
105
213
100
AcDbSymbolTableRecord
100
AcDbDimStyleTableRecord
  2
STANDARD
 70
0
  3

  4

 40
1.0
 41
1.9839703994
 42
1.0
 43
0.38
 44
1.0
 45
0.0
 46
0.0
 47
0.01
 48
0.01
140
2.7775585592
141
0.09
142
0.0
143
25.4
144
1.0
145
0.0
146
1.0
147
0.625
 71
1
 72
0
 73
0
 74
0
 75
0
 76
0
 77
1
 78
8
 79
2
170
0
171
1
172
0
173
0
174
0
175
0
176
0
177
0
178
0
270
2
179
2
271
2
272
2
273
2
274
2
275
0
280
0
281
0
282
0
283
1
284
8
285
0
286
0
287
3
288
0
340
11
278
46
341
212
342
212
343
212
344
212
  0
ENDTAB
  0
ENDSEC
  0
SECTION
  2
BLOCKS
  0
BLOCK
  5
20
100
AcDbEntity
  8
0
100
AcDbBlockBegin
  2
*Model_Space
 70
0
 10
0.0
 20
0.0
 30
0.0
  3
*Model_Space
  1

  0
ENDBLK
  5
21
100
AcDbEntity
  8
0
100
AcDbBlockEnd
  0
BLOCK
  5
1C
100
AcDbEntity
  8
0
100
AcDbBlockBegin
  2
*Paper_Space
 70
0
 10
0.0
 20
0.0
 30
0.0
  3
*Paper_Space
  1

  0
ENDBLK
  5
1D
100
AcDbEntity
  8
0
100
AcDbBlockEnd
  0
BLOCK
  5
214
100
AcDbEntity
  8
0
100
AcDbBlockBegin
  2
_FILLED
 70
64
 10
0.0
 20
0.0
  3
_FILLED
  1

  0
SOLID
  5
215
100
AcDbEntity
  8
0
  6
BYBLOCK
 62
0
100
AcDbTrace
 10
0.0
 20
0.0
 11
-1.0
 21
0.25
 12
-1.0
 22
-0.25
 13
-1.0
 23
-0.25
  0
ENDBLK
  5
216
100
AcDbEntity
  8
0
  6
BYBLOCK
 62
0
100
AcDbBlockEnd
  0
ENDSEC
  0
SECTION
  2
ENTITIES
  0
LINE
  5
217
100
AcDbEntity
  8
0
100
AcDbLine
 62
7
  6
BYLAYER
 10
96.3404258411
 20
16.876618705
 11
74.6404258411
 21
16.876618705
  0
LINE
  5
218
100
AcDbEntity
  8
0
100
AcDbLine
 62
7
  6
BYLAYER
 10
73.0904258411
 20
20.376618705
 11
97.8904258411
 21
20.376618705
  0
LINE
  5
219
100
AcDbEntity
  8
0
100
AcDbLine
 62
7
  6
BYLAYER
 10
69.9904258411
 20
21.376618705
 11
72.9904258411
 21
21.376618705
  0
LINE
  5
21A
100
AcDbEntity
  8
0
100
AcDbLine
 62
7
  6
BYLAYER
 10
97.9904258411
 20
21.376618705
 11
100.9904258411
 21
21.376618705
  0
LINE
  5
21B
100
AcDbEntity
  8
0
100
AcDbLine
 62
7
  6
BYLAYER
 10
100.9904258411
 20
22.4517297415
 11
97.9904258411
 21
22.4517297415
  0
LINE
  5
21C
100
AcDbEntity
  8
0
100
AcDbLine
 62
7
  6
BYLAYER
 10
72.9904258411
 20
22.4517297415
 11
69.9904258411
 21
22.4517297415
  0
LINE
  5
21D
100
AcDbEntity
  8
0
100
AcDbLine
 62
7
  6
BYLAYER
 10
72.9904258411
 20
23.376618705
 11
73.0904258411
 21
23.376618705
  0
LINE
  5
21E
100
AcDbEntity
  8
0
100
AcDbLine
 62
7
  6
BYLAYER
 10
97.8904258411
 20
23.376618705
 11
97.9904258411
 21
23.376618705
  0
LINE
  5
21F
100
AcDbEntity
  8
0
100
AcDbLine
 62
7
  6
BYLAYER
 10
100.9904258411
 20
23.6124587973
 11
97.9904258411
 21
23.6124587973
  0
LINE
  5
220
100
AcDbEntity
  8
0
100
AcDbLine
 62
7
  6
BYLAYER
 10
72.9904258411
 20
23.6124587973
 11
69.9904258411
 21
23.6124587973
  0
LINE
  5
221
100
AcDbEntity
  8
0
100
AcDbLine
 62
7
  6
BYLAYER
 10
97.8904258411
 20
24.3777226526
 11
73.0904258411
 21
24.3777226526
  0
LINE
  5
222
100
AcDbEntity
  8
0
100
AcDbLine
 62
7
  6
BYLAYER
 10
100.9904258411
 20
24.8714917412
 11
97.9904258411
 21
24.8714917412
  0
LINE
  5
223
100
AcDbEntity
  8
0
100
AcDbLine
 62
7
  6
BYLAYER
 10
72.9904258411
 20
24.8714917412
 11
69.9904258411
 21
24.8714917412
  0
LINE
  5
224
100
AcDbEntity
  8
0
100
AcDbLine
 62
7
  6
BYLAYER
 10
100.9904258411
 20
25.4289375108
 11
69.9904258411
 21
25.4289375108
  0
LINE
  5
225
100
AcDbEntity
  8
0
100
AcDbLine
 62
7
  6
BYLAYER
 10
79.2282519015
 20
72.8529902217
 11
83.2722339012
 21
72.8529902217
  0
LINE
  5
226
100
AcDbEntity
  8
0
100
AcDbLine
 62
7
  6
BYLAYER
 10
87.7086177811
 20
72.8529902217
 11
91.7510324433
 21
72.8529902217
  0
LINE
  5
227
100
AcDbEntity
  8
0
100
AcDbLine
 62
7
  6
BYLAYER
 10
74.4904258411
 20
73.226618705
 11
75.4904258411
 21
73.226618705
  0
LINE
  5
228
100
AcDbEntity
  8
0
100
AcDbLine
 62
7
  6
BYLAYER
 10
95.4904258411
 20
73.226618705
 11
96.4904258411
 21
73.226618705
  0
LINE
  5
229
100
AcDbEntity
  8
0
100
AcDbLine
 62
7
  6
BYLAYER
 10
87.5519883528
 20
80.7618945292
 11
83.4282955351
 21
80.7618945292
  0
LINE
  5
22A
100
AcDbEntity
  8
0
100
AcDbLine
 62
7
  6
BYLAYER
 10
75.0468386071
 20
81.3048346625
 11
77.0215375433
 21
81.3048346625
  0
LINE
  5
22B
100
AcDbEntity
  8
0
100
AcDbLine
 62
7
  6
BYLAYER
 10
93.959314139
 20
81.3048346625
 11
95.9340130752
 21
81.3048346625
  0
LINE
  5
22C
100
AcDbEntity
  8
0
100
AcDbLine
 62
7
  6
BYLAYER
 10
95.9340130752
 20
83.2943772102
 11
75.0467340327
 21
83.2943772102
  0
LINE
  5
22D
100
AcDbEntity
  8
0
100
AcDbLine
 62
7
  6
BYLAYER
 10
77.7404258411
 20
86.276618705
 11
93.2404258411
 21
86.276618705
  0
LINE
  5
22E
100
AcDbEntity
  8
0
100
AcDbLine
 62
7
  6
BYLAYER
 10
78.2404258411
 20
86.776618705
 11
92.7404258411
 21
86.776618705
  0
LINE
  5
22F
100
AcDbEntity
  8
0
100
AcDbLine
 62
7
  6
BYLAYER
 10
79.2499139141
 20
87.5509039352
 11
91.7309377682
 21
87.5509039352
  0
LINE
  5
230
100
AcDbEntity
  8
0
100
AcDbLine
 62
7
  6
BYLAYER
 10
91.7309377682
 20
88.5576898092
 11
79.2499139141
 21
88.5576898092
  0
LINE
  5
231
100
AcDbEntity
  8
0
100
AcDbLine
 62
7
  6
BYLAYER
 10
79.2499139141
 20
90.8026798474
 11
91.7309377682
 21
90.8026798474
  0
LINE
  5
232
100
AcDbEntity
  8
0
100
AcDbLine
 62
7
  6
BYLAYER
 10
84.3944103303
 20
74.6948167566
 11
84.7126083818
 21
74.376618705
  0
LINE
  5
233
100
AcDbEntity
  8
0
100
AcDbLine
 62
7
  6
BYLAYER
 10
85.4904258411
 20
73.5988012457
 11
86.0914666052
 21
72.9977604817
  0
LINE
  5
234
100
AcDbEntity
  8
0
100
AcDbLine
 62
7
  6
BYLAYER
 10
86.8692840645
 20
73.775577941
 11
86.2682433005
 21
74.376618705
  0
LINE
  5
235
100
AcDbEntity
  8
0
100
AcDbLine
 62
7
  6
BYLAYER
 10
85.4904258411
 20
75.1544361643
 11
85.1722277896
 21
75.4726342159
  0
LINE
  5
236
100
AcDbEntity
  8
0
100
AcDbLine
 62
7
  6
BYLAYER
 10
79.1091238831
 20
97.3218048252
 11
91.8717277992
 21
97.3218048252
  0
LINE
  5
237
100
AcDbEntity
  8
0
100
AcDbLine
 62
7
  6
BYLAYER
 10
69.9904258411
 20
21.376618705
 11
69.9904258411
 21
82.676618705
  0
LINE
  5
238
100
AcDbEntity
  8
0
100
AcDbLine
 62
7
  6
BYLAYER
 10
72.3404258411
 20
77.376618705
 11
72.3404258411
 21
75.376618705
  0
LINE
  5
239
100
AcDbEntity
  8
0
100
AcDbLine
 62
7
  6
BYLAYER
 10
91.9750569887
 20
99.6110388767
 11
79.0057946936
 21
99.6110388767
  0
LINE
  5
23A
100
AcDbEntity
  8
0
100
AcDbLine
 62
7
  6
BYLAYER
 10
89.0163654823
 20
104.3094078254
 11
81.9644861999
 21
104.3094078254
  0
LINE
  5
23B
100
AcDbEntity
  8
0
100
AcDbLine
 62
7
  6
BYLAYER
 10
93.2404258411
 20
86.276618705
 11
92.7404258411
 21
86.776618705
  0
LINE
  5
23C
100
AcDbEntity
  8
0
100
AcDbLine
 62
7
  6
BYLAYER
 10
92.0472855943
 20
72.224625516
 11
90.5521256723
 21
75.3959191253
  0
LINE
  5
23D
100
AcDbEntity
  8
0
100
AcDbLine
 62
7
  6
BYLAYER
 10
79.1091238831
 20
97.3218048252
 11
81.4861201471
 21
90.802679346
  0
LINE
  5
23E
100
AcDbEntity
  8
0
100
AcDbLine
 62
7
  6
BYLAYER
 10
79.1091238831
 20
97.3218048252
 11
79.0057946936
 21
99.6110388767
  0
LINE
  5
23F
100
AcDbEntity
  8
0
100
AcDbLine
 62
7
  6
BYLAYER
 10
72.9904258411
 20
25.4289375108
 11
72.9904258411
 21
21.376618705
  0
LINE
  5
240
100
AcDbEntity
  8
0
100
AcDbLine
 62
7
  6
BYLAYER
 10
73.0904258411
 20
20.376618705
 11
73.0904258411
 21
25.4289375108
  0
LINE
  5
241
100
AcDbEntity
  8
0
100
AcDbLine
 62
7
  6
BYLAYER
 10
74.6404258411
 20
16.876618705
 11
74.6404258411
 21
20.376618705
  0
LINE
  5
242
100
AcDbEntity
  8
0
100
AcDbLine
 62
7
  6
BYLAYER
 10
75.0467340327
 20
83.2943772102
 11
75.0468386071
 21
81.3048346625
  0
LINE
  5
243
100
AcDbEntity
  8
0
100
AcDbLine
 62
7
  6
BYLAYER
 10
76.6404258411
 20
77.1932089175
 11
76.6404258411
 21
77.376618705
  0
LINE
  5
244
100
AcDbEntity
  8
0
100
AcDbLine
 62
7
  6
BYLAYER
 10
77.7404258411
 20
86.276618705
 11
77.7404258411
 21
84.8227220467
  0
LINE
  5
245
100
AcDbEntity
  8
0
100
AcDbLine
 62
7
  6
BYLAYER
 10
79.2499139141
 20
90.8026791217
 11
79.2499139141
 21
88.5576898092
  0
LINE
  5
246
100
AcDbEntity
  8
0
100
AcDbLine
 62
7
  6
BYLAYER
 10
79.2499139141
 20
87.5509039352
 11
79.2499139141
 21
86.776618705
  0
LINE
  5
247
100
AcDbEntity
  8
0
100
AcDbLine
 62
7
  6
BYLAYER
 10
84.7164589554
 20
128.8615990822
 11
84.724434539
 21
128.8654036916
  0
LINE
  5
248
100
AcDbEntity
  8
0
100
AcDbLine
 62
7
  6
BYLAYER
 10
88.6239548439
 20
108.7325005232
 11
88.5919298665
 21
108.7282682242
  0
LINE
  5
249
100
AcDbEntity
  8
0
100
AcDbLine
 62
7
  6
BYLAYER
 10
87.9796265298
 20
109.871911827
 11
88.5634609088
 21
109.9339531603
  0
LINE
  5
24A
100
AcDbEntity
  8
0
100
AcDbLine
 62
7
  6
BYLAYER
 10
82.4173907735
 20
109.2952842498
 11
82.9404785247
 21
109.3508606083
  0
LINE
  5
24B
100
AcDbEntity
  8
0
100
AcDbLine
 62
7
  6
BYLAYER
 10
87.9796265298
 20
111.079911827
 11
88.5634609088
 21
111.1419531603
  0
LINE
  5
24C
100
AcDbEntity
  8
0
100
AcDbLine
 62
7
  6
BYLAYER
 10
82.4173907735
 20
110.5032842498
 11
83.0011124532
 21
110.5652801202
  0
LINE
  5
24D
100
AcDbEntity
  8
0
100
AcDbLine
 62
7
  6
BYLAYER
 10
82.3889217305
 20
109.2929699965
 11
82.4173907735
 21
109.2952842498
  0
LINE
  5
24E
100
AcDbEntity
  8
0
100
AcDbLine
 62
7
  6
BYLAYER
 10
88.5634609088
 20
109.9339531603
 11
88.5919299518
 21
109.9362674136
  0
LINE
  5
24F
100
AcDbEntity
  8
0
100
AcDbLine
 62
7
  6
BYLAYER
 10
82.3889217305
 20
110.5009699965
 11
82.4173907735
 21
110.5032842498
  0
LINE
  5
250
100
AcDbEntity
  8
0
100
AcDbLine
 62
7
  6
BYLAYER
 10
88.5634609088
 20
111.1419531603
 11
88.5919299518
 21
111.1442674136
  0
LINE
  5
251
100
AcDbEntity
  8
0
100
AcDbLine
 62
7
  6
BYLAYER
 10
82.4885871259
 20
107.4838227387
 11
88.4922645564
 21
107.4838227387
  0
LINE
  5
252
100
AcDbEntity
  8
0
100
AcDbLine
 62
7
  6
BYLAYER
 10
88.4564567256
 20
108.7292807699
 11
88.5919299518
 21
108.7282674136
  0
LINE
  5
253
100
AcDbEntity
  8
0
100
AcDbLine
 62
7
  6
BYLAYER
 10
83.0587690882
 20
108.75452397
 11
83.0587690882
 21
107.4838227387
  0
LINE
  5
254
100
AcDbEntity
  8
0
100
AcDbLine
 62
7
  6
BYLAYER
 10
82.4885871259
 20
107.4838227387
 11
81.9644861999
 21
104.3094078254
  0
LINE
  5
255
100
AcDbEntity
  8
0
100
AcDbLine
 62
7
  6
BYLAYER
 10
87.9796265298
 20
112.287911827
 11
88.5634609088
 21
112.3499531603
  0
LINE
  5
256
100
AcDbEntity
  8
0
100
AcDbLine
 62
7
  6
BYLAYER
 10
82.4173907735
 20
111.7112842498
 11
83.0011124532
 21
111.7732801202
  0
LINE
  5
257
100
AcDbEntity
  8
0
100
AcDbLine
 62
7
  6
BYLAYER
 10
87.9796265298
 20
113.495911827
 11
88.5634609088
 21
113.5579531603
  0
LINE
  5
258
100
AcDbEntity
  8
0
100
AcDbLine
 62
7
  6
BYLAYER
 10
82.4173907735
 20
112.9192842498
 11
83.0011124532
 21
112.9812801202
  0
LINE
  5
259
100
AcDbEntity
  8
0
100
AcDbLine
 62
7
  6
BYLAYER
 10
87.9796265298
 20
114.703911827
 11
88.5634609088
 21
114.7659531603
  0
LINE
  5
25A
100
AcDbEntity
  8
0
100
AcDbLine
 62
7
  6
BYLAYER
 10
82.4173907735
 20
114.1272842498
 11
83.0011124532
 21
114.1892801202
  0
LINE
  5
25B
100
AcDbEntity
  8
0
100
AcDbLine
 62
7
  6
BYLAYER
 10
87.9796265298
 20
115.911911827
 11
88.5634609088
 21
115.9739531603
  0
LINE
  5
25C
100
AcDbEntity
  8
0
100
AcDbLine
 62
7
  6
BYLAYER
 10
82.4173907735
 20
115.3352842498
 11
83.0011124532
 21
115.3972801202
  0
LINE
  5
25D
100
AcDbEntity
  8
0
100
AcDbLine
 62
7
  6
BYLAYER
 10
87.9796265298
 20
117.119911827
 11
88.5634609088
 21
117.1819531603
  0
LINE
  5
25E
100
AcDbEntity
  8
0
100
AcDbLine
 62
7
  6
BYLAYER
 10
82.4173907735
 20
116.5432842498
 11
83.0011124532
 21
116.6052801202
  0
LINE
  5
25F
100
AcDbEntity
  8
0
100
AcDbLine
 62
7
  6
BYLAYER
 10
82.3889217305
 20
111.7089699965
 11
82.4173907735
 21
111.7112842498
  0
LINE
  5
260
100
AcDbEntity
  8
0
100
AcDbLine
 62
7
  6
BYLAYER
 10
88.5634609088
 20
112.3499531603
 11
88.5919299518
 21
112.3522674136
  0
LINE
  5
261
100
AcDbEntity
  8
0
100
AcDbLine
 62
7
  6
BYLAYER
 10
82.3889217305
 20
112.9169699965
 11
82.4173907735
 21
112.9192842498
  0
LINE
  5
262
100
AcDbEntity
  8
0
100
AcDbLine
 62
7
  6
BYLAYER
 10
88.5634609088
 20
113.5579531603
 11
88.5919299518
 21
113.5602674136
  0
LINE
  5
263
100
AcDbEntity
  8
0
100
AcDbLine
 62
7
  6
BYLAYER
 10
82.3889217305
 20
114.1249699965
 11
82.4173907735
 21
114.1272842498
  0
LINE
  5
264
100
AcDbEntity
  8
0
100
AcDbLine
 62
7
  6
BYLAYER
 10
88.5634609088
 20
114.7659531603
 11
88.5919299518
 21
114.7682674136
  0
LINE
  5
265
100
AcDbEntity
  8
0
100
AcDbLine
 62
7
  6
BYLAYER
 10
82.3889217305
 20
115.3329699965
 11
82.4173907735
 21
115.3352842498
  0
LINE
  5
266
100
AcDbEntity
  8
0
100
AcDbLine
 62
7
  6
BYLAYER
 10
88.5634609088
 20
115.9739531603
 11
88.5919299518
 21
115.9762674136
  0
LINE
  5
267
100
AcDbEntity
  8
0
100
AcDbLine
 62
7
  6
BYLAYER
 10
82.3889217305
 20
116.5409699965
 11
82.4173907735
 21
116.5432842498
  0
LINE
  5
268
100
AcDbEntity
  8
0
100
AcDbLine
 62
7
  6
BYLAYER
 10
88.5634609088
 20
117.1819531603
 11
88.5919299518
 21
117.1842674136
  0
LINE
  5
269
100
AcDbEntity
  8
0
100
AcDbLine
 62
7
  6
BYLAYER
 10
82.3889217305
 20
117.7489699965
 11
82.4173907735
 21
117.7512842498
  0
LINE
  5
26A
100
AcDbEntity
  8
0
100
AcDbLine
 62
7
  6
BYLAYER
 10
87.9220825941
 20
107.4838227387
 11
87.9220825941
 21
108.132618705
  0
LINE
  5
26B
100
AcDbEntity
  8
0
100
AcDbLine
 62
7
  6
BYLAYER
 10
91.7309377682
 20
86.776618705
 11
91.7309377682
 21
87.5509039352
  0
LINE
  5
26C
100
AcDbEntity
  8
0
100
AcDbLine
 62
7
  6
BYLAYER
 10
91.7309377682
 20
88.5576898092
 11
91.7309377682
 21
90.8026791217
  0
LINE
  5
26D
100
AcDbEntity
  8
0
100
AcDbLine
 62
7
  6
BYLAYER
 10
91.8717277992
 20
97.3218048252
 11
91.9750569887
 21
99.6110388767
  0
LINE
  5
26E
100
AcDbEntity
  8
0
100
AcDbLine
 62
7
  6
BYLAYER
 10
87.9796265298
 20
118.327911827
 11
88.5634609088
 21
118.3899531603
  0
LINE
  5
26F
100
AcDbEntity
  8
0
100
AcDbLine
 62
7
  6
BYLAYER
 10
82.4173907735
 20
117.7512842498
 11
83.0011124532
 21
117.8132801202
  0
LINE
  5
270
100
AcDbEntity
  8
0
100
AcDbLine
 62
7
  6
BYLAYER
 10
87.9796265298
 20
119.535911827
 11
88.5634609088
 21
119.5979531603
  0
LINE
  5
271
100
AcDbEntity
  8
0
100
AcDbLine
 62
7
  6
BYLAYER
 10
82.4173907735
 20
118.9592842498
 11
83.0011124532
 21
119.0212801202
  0
LINE
  5
272
100
AcDbEntity
  8
0
100
AcDbLine
 62
7
  6
BYLAYER
 10
87.9796265298
 20
120.743911827
 11
88.5634609088
 21
120.8059531603
  0
LINE
  5
273
100
AcDbEntity
  8
0
100
AcDbLine
 62
7
  6
BYLAYER
 10
82.4173907735
 20
120.1672842498
 11
83.0011124532
 21
120.2292801202
  0
LINE
  5
274
100
AcDbEntity
  8
0
100
AcDbLine
 62
7
  6
BYLAYER
 10
87.9796265298
 20
121.951911827
 11
88.5634609088
 21
122.0139531603
  0
LINE
  5
275
100
AcDbEntity
  8
0
100
AcDbLine
 62
7
  6
BYLAYER
 10
82.4173907735
 20
121.3752842498
 11
83.0011124532
 21
121.4372801202
  0
LINE
  5
276
100
AcDbEntity
  8
0
100
AcDbLine
 62
7
  6
BYLAYER
 10
87.9796265298
 20
123.159911827
 11
88.5634609088
 21
123.2219531603
  0
LINE
  5
277
100
AcDbEntity
  8
0
100
AcDbLine
 62
7
  6
BYLAYER
 10
82.4173907735
 20
122.5832842498
 11
83.0011124532
 21
122.6452801202
  0
LINE
  5
278
100
AcDbEntity
  8
0
100
AcDbLine
 62
7
  6
BYLAYER
 10
87.9796265298
 20
124.367911827
 11
88.5634609088
 21
124.4299531603
  0
LINE
  5
279
100
AcDbEntity
  8
0
100
AcDbLine
 62
7
  6
BYLAYER
 10
82.4173907735
 20
123.7912842498
 11
83.0011124532
 21
123.8532801202
  0
LINE
  5
27A
100
AcDbEntity
  8
0
100
AcDbLine
 62
7
  6
BYLAYER
 10
88.5634609088
 20
118.3899531603
 11
88.5919299518
 21
118.3922674136
  0
LINE
  5
27B
100
AcDbEntity
  8
0
100
AcDbLine
 62
7
  6
BYLAYER
 10
82.3889217305
 20
118.9569699965
 11
82.4173907735
 21
118.9592842498
  0
LINE
  5
27C
100
AcDbEntity
  8
0
100
AcDbLine
 62
7
  6
BYLAYER
 10
88.5634609088
 20
119.5979531603
 11
88.5919299518
 21
119.6002674136
  0
LINE
  5
27D
100
AcDbEntity
  8
0
100
AcDbLine
 62
7
  6
BYLAYER
 10
82.3889217305
 20
120.1649699965
 11
82.4173907735
 21
120.1672842498
  0
LINE
  5
27E
100
AcDbEntity
  8
0
100
AcDbLine
 62
7
  6
BYLAYER
 10
88.5634609088
 20
120.8059531603
 11
88.5919299518
 21
120.8082674136
  0
LINE
  5
27F
100
AcDbEntity
  8
0
100
AcDbLine
 62
7
  6
BYLAYER
 10
82.3889217305
 20
121.3729699965
 11
82.4173907735
 21
121.3752842498
  0
LINE
  5
280
100
AcDbEntity
  8
0
100
AcDbLine
 62
7
  6
BYLAYER
 10
88.5634609088
 20
122.0139531603
 11
88.5919299518
 21
122.0162674136
  0
LINE
  5
281
100
AcDbEntity
  8
0
100
AcDbLine
 62
7
  6
BYLAYER
 10
82.3889217305
 20
122.5809699965
 11
82.4173907735
 21
122.5832842498
  0
LINE
  5
282
100
AcDbEntity
  8
0
100
AcDbLine
 62
7
  6
BYLAYER
 10
88.5634609088
 20
123.2219531603
 11
88.5919299518
 21
123.2242674136
  0
LINE
  5
283
100
AcDbEntity
  8
0
100
AcDbLine
 62
7
  6
BYLAYER
 10
82.3889217305
 20
123.7889699965
 11
82.4173907735
 21
123.7912842498
  0
LINE
  5
284
100
AcDbEntity
  8
0
100
AcDbLine
 62
7
  6
BYLAYER
 10
88.5634609088
 20
124.4299531603
 11
88.5919299518
 21
124.4322674136
  0
LINE
  5
285
100
AcDbEntity
  8
0
100
AcDbLine
 62
7
  6
BYLAYER
 10
89.0163654823
 20
104.3094078254
 11
88.4922645564
 21
107.4838227387
  0
LINE
  5
286
100
AcDbEntity
  8
0
100
AcDbLine
 62
7
  6
BYLAYER
 10
93.2404258411
 20
84.8227220467
 11
93.2404258411
 21
86.276618705
  0
LINE
  5
287
100
AcDbEntity
  8
0
100
AcDbLine
 62
7
  6
BYLAYER
 10
94.3404258411
 20
77.376618705
 11
94.3404258411
 21
77.1932089175
  0
LINE
  5
288
100
AcDbEntity
  8
0
100
AcDbLine
 62
7
  6
BYLAYER
 10
95.9340130752
 20
81.3048346625
 11
95.9340130752
 21
83.2943772102
  0
LINE
  5
289
100
AcDbEntity
  8
0
100
AcDbLine
 62
7
  6
BYLAYER
 10
96.3404258411
 20
20.376618705
 11
96.3404258411
 21
16.876618705
  0
LINE
  5
28A
100
AcDbEntity
  8
0
100
AcDbLine
 62
7
  6
BYLAYER
 10
97.8904258411
 20
25.4289375108
 11
97.8904258411
 21
20.376618705
  0
LINE
  5
28B
100
AcDbEntity
  8
0
100
AcDbLine
 62
7
  6
BYLAYER
 10
97.9904258411
 20
21.376618705
 11
97.9904258411
 21
25.4289375108
  0
LINE
  5
28C
100
AcDbEntity
  8
0
100
AcDbLine
 62
7
  6
BYLAYER
 10
98.6404258411
 20
75.376618705
 11
98.6404258411
 21
77.376618705
  0
LINE
  5
28D
100
AcDbEntity
  8
0
100
AcDbLine
 62
7
  6
BYLAYER
 10
89.4947315351
 20
90.802679346
 11
91.8717277992
 21
97.3218048252
  0
LINE
  5
28E
100
AcDbEntity
  8
0
100
AcDbLine
 62
7
  6
BYLAYER
 10
80.4277504593
 20
75.3964727039
 11
78.9319170285
 21
72.224625516
  0
LINE
  5
28F
100
AcDbEntity
  8
0
100
AcDbLine
 62
7
  6
BYLAYER
 10
84.724434539
 20
128.8654036916
 11
84.7312029223
 21
128.8667493959
  0
LINE
  5
290
100
AcDbEntity
  8
0
100
AcDbLine
 62
7
  6
BYLAYER
 10
87.9796565976
 20
127.9919149674
 11
88.5634609088
 21
128.0539531603
  0
LINE
  5
291
100
AcDbEntity
  8
0
100
AcDbLine
 62
7
  6
BYLAYER
 10
82.4173907735
 20
127.4152842498
 11
83.001115726
 21
127.4772812749
  0
LINE
  5
292
100
AcDbEntity
  8
0
100
AcDbLine
 62
7
  6
BYLAYER
 10
87.9796265298
 20
125.575911827
 11
88.5634609088
 21
125.6379531603
  0
LINE
  5
293
100
AcDbEntity
  8
0
100
AcDbLine
 62
7
  6
BYLAYER
 10
82.4173907735
 20
124.9992842498
 11
83.0011124532
 21
125.0612801202
  0
LINE
  5
294
100
AcDbEntity
  8
0
100
AcDbLine
 62
7
  6
BYLAYER
 10
87.9796265298
 20
126.783911827
 11
88.5634609088
 21
126.8459531603
  0
LINE
  5
295
100
AcDbEntity
  8
0
100
AcDbLine
 62
7
  6
BYLAYER
 10
82.4173907735
 20
126.2072842498
 11
83.0011124532
 21
126.2692801202
  0
LINE
  5
296
100
AcDbEntity
  8
0
100
AcDbLine
 62
7
  6
BYLAYER
 10
82.3889217305
 20
124.9969699965
 11
82.4173907735
 21
124.9992842498
  0
LINE
  5
297
100
AcDbEntity
  8
0
100
AcDbLine
 62
7
  6
BYLAYER
 10
88.5634609088
 20
125.6379531603
 11
88.5919299518
 21
125.6402674136
  0
LINE
  5
298
100
AcDbEntity
  8
0
100
AcDbLine
 62
7
  6
BYLAYER
 10
82.3889217305
 20
126.2049699965
 11
82.4173907735
 21
126.2072842498
  0
LINE
  5
299
100
AcDbEntity
  8
0
100
AcDbLine
 62
7
  6
BYLAYER
 10
88.5634609088
 20
126.8459531603
 11
88.5919299518
 21
126.8482674136
  0
LINE
  5
29A
100
AcDbEntity
  8
0
100
AcDbLine
 62
7
  6
BYLAYER
 10
82.3889217305
 20
127.4129699965
 11
82.4173907735
 21
127.4152842498
  0
LINE
  5
29B
100
AcDbEntity
  8
0
100
AcDbLine
 62
7
  6
BYLAYER
 10
88.5634609088
 20
128.0539531603
 11
88.5919299518
 21
128.0562674136
  0
LINE
  5
29C
100
AcDbEntity
  8
0
100
AcDbLine
 62
7
  6
BYLAYER
 10
100.9904258411
 20
21.376618705
 11
100.9904258411
 21
82.676618705
  0
LINE
  5
29D
100
AcDbEntity
  8
0
100
AcDbLine
 62
7
  6
BYLAYER
 10
78.2404258411
 20
86.776618705
 11
77.7404258411
 21
86.276618705
  0
LINE
  5
29E
100
AcDbEntity
  8
0
100
AcDbLine
 62
7
  6
BYLAYER
 10
85.1722277896
 20
75.4726342159
 11
84.3944103303
 21
74.6948167566
  0
LINE
  5
29F
100
AcDbEntity
  8
0
100
AcDbLine
 62
7
  6
BYLAYER
 10
86.9243751433
 20
76.5883854665
 11
85.4904258411
 21
75.1544361643
  0
LINE
  5
2A0
100
AcDbEntity
  8
0
100
AcDbLine
 62
7
  6
BYLAYER
 10
84.7126083818
 20
74.376618705
 11
83.2786590796
 21
72.9426694028
  0
LINE
  5
2A1
100
AcDbEntity
  8
0
100
AcDbLine
 62
7
  6
BYLAYER
 10
84.0564758407
 20
72.1648512453
 11
85.4904258411
 21
73.5988012457
  0
LINE
  5
2A2
100
AcDbEntity
  8
0
100
AcDbLine
 62
7
  6
BYLAYER
 10
86.2682433005
 20
74.376618705
 11
87.702193301
 21
75.8105687056
  0
LINE
  5
2A3
100
AcDbEntity
  8
0
100
AcDbLine
 62
7
  6
BYLAYER
 10
86.0914666052
 20
72.9977604817
 11
86.8692840645
 21
73.775577941
  0
ARC
  5
2A4
100
AcDbEntity
  8
0
100
AcDbCircle
 62
7
  6
BYLAYER
 10
85.4901510607
 20
20.9141274041
 40
50.8026847766
100
AcDbArc
 50
72.9629080299
 51
80.7326652957
  0
ARC
  5
2A5
100
AcDbEntity
  8
0
100
AcDbCircle
 62
7
  6
BYLAYER
 10
85.4901510607
 20
20.9141274041
 40
50.8026847766
100
AcDbArc
 50
99.2662877666
 51
107.0322162909
  0
ARC
  5
2A6
100
AcDbEntity
  8
0
100
AcDbCircle
 62
7
  6
BYLAYER
 10
72.5419586147
 20
68.8486623861
 40
19.1633162123
100
AcDbArc
 50
19.9777820712
 51
39.7807857709
  0
ARC
  5
2A7
100
AcDbEntity
  8
0
100
AcDbCircle
 62
7
  6
BYLAYER
 10
85.4730172611
 20
74.3851439101
 40
2.7102766157
100
AcDbArc
 50
333.2159731717
 51
32.5953139309
  0
ARC
  5
2A8
100
AcDbEntity
  8
0
100
AcDbCircle
 62
7
  6
BYLAYER
 10
85.4812517453
 20
74.3798000504
 40
2.7005223367
100
AcDbArc
 50
325.5716122021
 51
333.2384314473
  0
ARC
  5
2A9
100
AcDbEntity
  8
0
100
AcDbCircle
 62
7
  6
BYLAYER
 10
85.4855999509
 20
74.3936079241
 40
2.6951014721
100
AcDbArc
 50
32.5824429364
 51
70.3116797119
  0
ARC
  5
2AA
100
AcDbEntity
  8
0
100
AcDbCircle
 62
7
  6
BYLAYER
 10
85.3841873652
 20
74.3019656166
 40
2.5613206983
100
AcDbArc
 50
212.8509562924
 51
214.4518987652
  0
ARC
  5
2AB
100
AcDbEntity
  8
0
100
AcDbCircle
 62
7
  6
BYLAYER
 10
71.1045167006
 20
68.4727277795
 40
1.1300960954
100
AcDbArc
 50
115.9748311045
 51
170.3456089678
  0
ARC
  5
2AC
100
AcDbEntity
  8
0
100
AcDbCircle
 62
7
  6
BYLAYER
 10
75.7120076536
 20
74.9768578961
 40
4.2358705666
100
AcDbArc
 50
292.15984527
 51
319.4776807292
  0
ARC
  5
2AD
100
AcDbEntity
  8
0
100
AcDbCircle
 62
7
  6
BYLAYER
 10
74.4904258411
 20
77.376618705
 40
2.15
100
AcDbArc
 50
0.0
 51
180.0
  0
ARC
  5
2AE
100
AcDbEntity
  8
0
100
AcDbCircle
 62
7
  6
BYLAYER
 10
74.4904258411
 20
75.376618705
 40
2.15
100
AcDbArc
 50
180.0
 51
270.0
  0
ARC
  5
2AF
100
AcDbEntity
  8
0
100
AcDbCircle
 62
7
  6
BYLAYER
 10
75.4904258411
 20
75.376618705
 40
2.15
100
AcDbArc
 50
270.0
 51
57.6639740024
  0
ARC
  5
2B0
100
AcDbEntity
  8
0
100
AcDbCircle
 62
7
  6
BYLAYER
 10
70.5904258411
 20
82.676618705
 40
0.6
100
AcDbArc
 50
103.5547077982
 51
180.0
  0
ARC
  5
2B1
100
AcDbEntity
  8
0
100
AcDbCircle
 62
7
  6
BYLAYER
 10
82.2567074014
 20
87.1950977077
 40
7.880495047
100
AcDbArc
 50
228.3698271723
 51
270.7576944324
  0
ARC
  5
2B2
100
AcDbEntity
  8
0
100
AcDbCircle
 62
7
  6
BYLAYER
 10
85.2038849126
 20
98.6278154951
 40
6.8421852871
100
AcDbArc
 50
8.2620177867
 51
56.137470058
  0
ARC
  5
2B3
100
AcDbEntity
  8
0
100
AcDbCircle
 62
7
  6
BYLAYER
 10
85.4901722682
 20
79.6795126443
 40
2.2828221567
100
AcDbArc
 50
38.8132451201
 51
141.1804892648
  0
ARC
  5
2B4
100
AcDbEntity
  8
0
100
AcDbCircle
 62
7
  6
BYLAYER
 10
79.2526994363
 20
88.0542968722
 40
0.5034006438
100
AcDbArc
 50
90.3170426644
 51
269.6829573356
  0
ARC
  5
2B5
100
AcDbEntity
  8
0
100
AcDbCircle
 62
7
  6
BYLAYER
 10
82.4521614508
 20
109.8992842498
 40
0.605
100
AcDbArc
 50
186.0
 51
266.7052703728
  0
ARC
  5
2B6
100
AcDbEntity
  8
0
100
AcDbCircle
 62
7
  6
BYLAYER
 10
82.4521614508
 20
111.1072842498
 40
0.605
100
AcDbArc
 50
186.0
 51
266.7052703728
  0
ARC
  5
2B7
100
AcDbEntity
  8
0
100
AcDbCircle
 62
7
  6
BYLAYER
 10
82.4521614508
 20
112.3152842498
 40
0.605
100
AcDbArc
 50
186.0
 51
266.7052703728
  0
ARC
  5
2B8
100
AcDbEntity
  8
0
100
AcDbCircle
 62
7
  6
BYLAYER
 10
82.4521614508
 20
113.5232842498
 40
0.605
100
AcDbArc
 50
186.0
 51
266.7052703728
  0
ARC
  5
2B9
100
AcDbEntity
  8
0
100
AcDbCircle
 62
7
  6
BYLAYER
 10
82.4521614508
 20
114.7312842498
 40
0.605
100
AcDbArc
 50
186.0
 51
266.7052703728
  0
ARC
  5
2BA
100
AcDbEntity
  8
0
100
AcDbCircle
 62
7
  6
BYLAYER
 10
82.4521614508
 20
115.9392842498
 40
0.605
100
AcDbArc
 50
186.0
 51
266.7052703728
  0
ARC
  5
2BB
100
AcDbEntity
  8
0
100
AcDbCircle
 62
7
  6
BYLAYER
 10
82.4521614508
 20
117.1472842498
 40
0.605
100
AcDbArc
 50
186.0
 51
266.7052703728
  0
ARC
  5
2BC
100
AcDbEntity
  8
0
100
AcDbCircle
 62
7
  6
BYLAYER
 10
82.4521614508
 20
118.3552842498
 40
0.605
100
AcDbArc
 50
186.0
 51
266.7052703728
  0
ARC
  5
2BD
100
AcDbEntity
  8
0
100
AcDbCircle
 62
7
  6
BYLAYER
 10
82.4521614508
 20
119.5632842498
 40
0.605
100
AcDbArc
 50
186.0
 51
266.7052703728
  0
ARC
  5
2BE
100
AcDbEntity
  8
0
100
AcDbCircle
 62
7
  6
BYLAYER
 10
82.4521614508
 20
120.7712842498
 40
0.605
100
AcDbArc
 50
186.0
 51
266.7052703728
  0
ARC
  5
2BF
100
AcDbEntity
  8
0
100
AcDbCircle
 62
7
  6
BYLAYER
 10
82.4521614508
 20
121.9792842498
 40
0.605
100
AcDbArc
 50
186.0
 51
266.7052703728
  0
ARC
  5
2C0
100
AcDbEntity
  8
0
100
AcDbCircle
 62
7
  6
BYLAYER
 10
82.4521614508
 20
123.1872842498
 40
0.605
100
AcDbArc
 50
186.0
 51
266.7052703728
  0
ARC
  5
2C1
100
AcDbEntity
  8
0
100
AcDbCircle
 62
7
  6
BYLAYER
 10
82.4521614508
 20
124.3952842498
 40
0.605
100
AcDbArc
 50
186.0
 51
266.7052703728
  0
ARC
  5
2C2
100
AcDbEntity
  8
0
100
AcDbCircle
 62
7
  6
BYLAYER
 10
82.4521614508
 20
125.6032842498
 40
0.605
100
AcDbArc
 50
186.0
 51
266.7052703728
  0
ARC
  5
2C3
100
AcDbEntity
  8
0
100
AcDbCircle
 62
7
  6
BYLAYER
 10
82.4521614508
 20
126.8112842498
 40
0.605
100
AcDbArc
 50
186.0
 51
266.7052703728
  0
ARC
  5
2C4
100
AcDbEntity
  8
0
100
AcDbCircle
 62
7
  6
BYLAYER
 10
82.4521614508
 20
128.0192842498
 40
0.605
100
AcDbArc
 50
186.0
 51
266.7052703728
  0
ARC
  5
2C5
100
AcDbEntity
  8
0
100
AcDbCircle
 62
7
  6
BYLAYER
 10
85.4904258411
 20
30.8815241783
 40
54.4950945268
100
AcDbArc
 50
73.9854167141
 51
106.0145834663
  0
ARC
  5
2C6
100
AcDbEntity
  8
0
100
AcDbCircle
 62
7
  6
BYLAYER
 10
98.4372014299
 20
68.847246491
 40
19.1633162123
100
AcDbArc
 50
140.212948614
 51
160.0159523138
  0
ARC
  5
2C7
100
AcDbEntity
  8
0
100
AcDbCircle
 62
7
  6
BYLAYER
 10
85.5656960897
 20
74.4195103304
 40
2.7775661625
100
AcDbArc
 50
211.7974574491
 51
212.8568781048
  0
ARC
  5
2C8
100
AcDbEntity
  8
0
100
AcDbCircle
 62
7
  6
BYLAYER
 10
85.5209888427
 20
74.3925353814
 40
2.7253552393
100
AcDbArc
 50
206.7981543525
 51
211.8107149942
  0
ARC
  5
2C9
100
AcDbEntity
  8
0
100
AcDbCircle
 62
7
  6
BYLAYER
 10
85.5073901027
 20
74.3851430659
 40
2.7098752742
100
AcDbArc
 50
135.3606478253
 51
206.7882413255
  0
ARC
  5
2CA
100
AcDbEntity
  8
0
100
AcDbCircle
 62
7
  6
BYLAYER
 10
85.4949461659
 20
74.3931884217
 40
2.6953225316
100
AcDbArc
 50
109.6683220426
 51
135.2964712481
  0
ARC
  5
2CB
100
AcDbEntity
  8
0
100
AcDbCircle
 62
7
  6
BYLAYER
 10
85.4904258411
 20
74.376618705
 40
2.6910628453
100
AcDbArc
 50
214.4843379294
 51
325.5156620706
  0
ARC
  5
2CC
100
AcDbEntity
  8
0
100
AcDbCircle
 62
7
  6
BYLAYER
 10
85.4904279814
 20
74.4044007355
 40
2.6832437169
100
AcDbArc
 50
70.3442783316
 51
109.6580554754
  0
CIRCLE
  5
2CD
100
AcDbEntity
  8
0
100
AcDbCircle
 62
7
  6
BYLAYER
 10
85.4904258411
 20
74.376618705
 40
2.6576604467
  0
ARC
  5
2CE
100
AcDbEntity
  8
0
100
AcDbCircle
 62
7
  6
BYLAYER
 10
85.4904258411
 20
74.376618705
 40
2.635967123
100
AcDbArc
 50
212.9566281287
 51
237.0433718713
  0
ARC
  5
2CF
100
AcDbEntity
  8
0
100
AcDbCircle
 62
7
  6
BYLAYER
 10
85.4904258411
 20
74.376618705
 40
2.635967123
100
AcDbArc
 50
32.9566281287
 51
57.0433718713
  0
ARC
  5
2D0
100
AcDbEntity
  8
0
100
AcDbCircle
 62
7
  6
BYLAYER
 10
85.4904258411
 20
74.376618705
 40
2.3995145529
100
AcDbArc
 50
238.2507439423
 51
31.7492560577
  0
ARC
  5
2D1
100
AcDbEntity
  8
0
100
AcDbCircle
 62
7
  6
BYLAYER
 10
85.4904258411
 20
74.376618705
 40
2.3995145529
100
AcDbArc
 50
58.2507439423
 51
211.7492560577
  0
ARC
  5
2D2
100
AcDbEntity
  8
0
100
AcDbCircle
 62
7
  6
BYLAYER
 10
99.8734421442
 20
68.4702300518
 40
1.1333685677
100
AcDbArc
 50
9.7543460614
 51
63.957176914
  0
ARC
  5
2D3
100
AcDbEntity
  8
0
100
AcDbCircle
 62
7
  6
BYLAYER
 10
88.7241442809
 20
87.1950977077
 40
7.880495047
100
AcDbArc
 50
269.2423055676
 51
311.6301728277
  0
ARC
  5
2D4
100
AcDbEntity
  8
0
100
AcDbCircle
 62
7
  6
BYLAYER
 10
85.7769667697
 20
98.6278154951
 40
6.8421852871
100
AcDbArc
 50
123.862529942
 51
171.7379822133
  0
ARC
  5
2D5
100
AcDbEntity
  8
0
100
AcDbCircle
 62
7
  6
BYLAYER
 10
91.728152246
 20
88.0542968722
 40
0.5034006438
100
AcDbArc
 50
270.3170426644
 51
89.6829573356
  0
ARC
  5
2D6
100
AcDbEntity
  8
0
100
AcDbCircle
 62
7
  6
BYLAYER
 10
88.5300128662
 20
109.3963041017
 40
0.6713625666
100
AcDbArc
 50
263.1024233607
 51
268.4888917952
  0
ARC
  5
2D7
100
AcDbEntity
  8
0
100
AcDbCircle
 62
7
  6
BYLAYER
 10
88.5284317715
 20
109.3371226783
 40
0.6121600304
100
AcDbArc
 50
268.4907530419
 51
275.9539156771
  0
ARC
  5
2D8
100
AcDbEntity
  8
0
100
AcDbCircle
 62
7
  6
BYLAYER
 10
88.5286902315
 20
109.3299531603
 40
0.605
100
AcDbArc
 50
279.0596220202
 51
86.7052703728
  0
ARC
  5
2D9
100
AcDbEntity
  8
0
100
AcDbCircle
 62
7
  6
BYLAYER
 10
88.5286902315
 20
110.5379531603
 40
0.605
100
AcDbArc
 50
6.0
 51
86.7052703728
  0
ARC
  5
2DA
100
AcDbEntity
  8
0
100
AcDbCircle
 62
7
  6
BYLAYER
 10
88.5286902315
 20
111.7459531603
 40
0.605
100
AcDbArc
 50
6.0
 51
86.7052703728
  0
ARC
  5
2DB
100
AcDbEntity
  8
0
100
AcDbCircle
 62
7
  6
BYLAYER
 10
88.5286902315
 20
112.9539531603
 40
0.605
100
AcDbArc
 50
6.0
 51
86.7052703728
  0
ARC
  5
2DC
100
AcDbEntity
  8
0
100
AcDbCircle
 62
7
  6
BYLAYER
 10
88.5286902315
 20
114.1619531603
 40
0.605
100
AcDbArc
 50
6.0
 51
86.7052703728
  0
ARC
  5
2DD
100
AcDbEntity
  8
0
100
AcDbCircle
 62
7
  6
BYLAYER
 10
88.5286902315
 20
115.3699531603
 40
0.605
100
AcDbArc
 50
6.0
 51
86.7052703728
  0
ARC
  5
2DE
100
AcDbEntity
  8
0
100
AcDbCircle
 62
7
  6
BYLAYER
 10
88.5286902315
 20
116.5779531603
 40
0.605
100
AcDbArc
 50
6.0
 51
86.7052703728
  0
ARC
  5
2DF
100
AcDbEntity
  8
0
100
AcDbCircle
 62
7
  6
BYLAYER
 10
88.5286902315
 20
117.7859531603
 40
0.605
100
AcDbArc
 50
6.0
 51
86.7052703728
  0
ARC
  5
2E0
100
AcDbEntity
  8
0
100
AcDbCircle
 62
7
  6
BYLAYER
 10
88.5286902315
 20
118.9939531603
 40
0.605
100
AcDbArc
 50
6.0
 51
86.7052703728
  0
ARC
  5
2E1
100
AcDbEntity
  8
0
100
AcDbCircle
 62
7
  6
BYLAYER
 10
88.5286902315
 20
120.2019531603
 40
0.605
100
AcDbArc
 50
6.0
 51
86.7052703728
  0
ARC
  5
2E2
100
AcDbEntity
  8
0
100
AcDbCircle
 62
7
  6
BYLAYER
 10
88.5286902315
 20
121.4099531603
 40
0.605
100
AcDbArc
 50
6.0
 51
86.7052703728
  0
ARC
  5
2E3
100
AcDbEntity
  8
0
100
AcDbCircle
 62
7
  6
BYLAYER
 10
88.5286902315
 20
122.6179531603
 40
0.605
100
AcDbArc
 50
6.0
 51
86.7052703728
  0
ARC
  5
2E4
100
AcDbEntity
  8
0
100
AcDbCircle
 62
7
  6
BYLAYER
 10
88.5286902315
 20
123.8259531603
 40
0.605
100
AcDbArc
 50
6.0
 51
86.7052703728
  0
ARC
  5
2E5
100
AcDbEntity
  8
0
100
AcDbCircle
 62
7
  6
BYLAYER
 10
88.5286902315
 20
125.0339531603
 40
0.605
100
AcDbArc
 50
6.0
 51
86.7052703728
  0
ARC
  5
2E6
100
AcDbEntity
  8
0
100
AcDbCircle
 62
7
  6
BYLAYER
 10
88.5286902315
 20
126.2419531603
 40
0.605
100
AcDbArc
 50
6.0
 51
86.7052703728
  0
ARC
  5
2E7
100
AcDbEntity
  8
0
100
AcDbCircle
 62
7
  6
BYLAYER
 10
88.5286902315
 20
127.4499531603
 40
0.605
100
AcDbArc
 50
6.0
 51
86.7052703728
  0
ARC
  5
2E8
100
AcDbEntity
  8
0
100
AcDbCircle
 62
7
  6
BYLAYER
 10
88.5454258411
 20
108.132618705
 40
0.605
100
AcDbArc
 50
99.1362092837
 51
82.5419645022
  0
ARC
  5
2E9
100
AcDbEntity
  8
0
100
AcDbCircle
 62
7
  6
BYLAYER
 10
95.2797101484
 20
74.9964658514
 40
4.2581295592
100
AcDbArc
 50
220.6134593361
 51
247.8095887481
  0
ARC
  5
2EA
100
AcDbEntity
  8
0
100
AcDbCircle
 62
7
  6
BYLAYER
 10
95.4904258411
 20
75.376618705
 40
2.15
100
AcDbArc
 50
122.3360259976
 51
270.0
  0
ARC
  5
2EB
100
AcDbEntity
  8
0
100
AcDbCircle
 62
7
  6
BYLAYER
 10
96.4904258411
 20
75.376618705
 40
2.15
100
AcDbArc
 50
270.0
 51
360.0
  0
ARC
  5
2EC
100
AcDbEntity
  8
0
100
AcDbCircle
 62
7
  6
BYLAYER
 10
96.4904258411
 20
77.376618705
 40
2.15
100
AcDbArc
 50
0.0
 51
180.0
  0
ARC
  5
2ED
100
AcDbEntity
  8
0
100
AcDbCircle
 62
7
  6
BYLAYER
 10
100.3904258411
 20
82.676618705
 40
0.6
100
AcDbArc
 50
0.0
 51
76.4452922023
  0
LINE
  5
2EE
100
AcDbEntity
  8
0
100
AcDbLine
 62
7
  6
BYLAYER
 10
82.9232848874
 20
109.3490994479
 11
83.0010936346
 21
109.3572877489
  0
SPLINE
  5
2EF
100
AcDbEntity
  8
0
100
AcDbSpline
 62
7
  6
BYLAYER
 70
0
 71
3
 72
8
 73
4
 74
0
 42
0.0000001
 43
0.0000001
 44
0.0000000001
 40
0.0
 40
0.0
 40
0.0
 40
0.0
 40
1.0
 40
1.0
 40
1.0
 40
1.0
 10
84.2460268907
 20
127.6066556287
 30
0.0
 10
84.2404608801
 20
127.6042169384
 30
0.0
 10
84.2355446581
 20
127.6002694316
 30
0.0
 10
84.2312725128
 20
127.5959478048
 30
0.0
  0
SPLINE
  5
2F0
100
AcDbEntity
  8
0
100
AcDbSpline
 62
7
  6
BYLAYER
 70
0
 71
3
 72
12
 73
8
 74
0
 42
0.0000001
 43
0.0000001
 44
0.0000000001
 40
0.0
 40
0.0
 40
0.0
 40
0.0
 40
0.3507403378
 40
0.6510006226
 40
0.8711569609
 40
0.9467230927
 40
1.0
 40
1.0
 40
1.0
 40
1.0
 10
84.1329891831
 20
128.1486089265
 30
0.0
 10
84.1346403064
 20
128.0828399161
 30
0.0
 10
84.1417640849
 20
127.9607135583
 30
0.0
 10
84.1644600607
 20
127.7990034188
 30
0.0
 10
84.1923516424
 20
127.6896606426
 30
0.0
 10
84.2214031517
 20
127.6309980165
 30
0.0
 10
84.2375416025
 20
127.611934556
 30
0.0
 10
84.2460268907
 20
127.6066556287
 30
0.0
  0
LINE
  5
2F1
100
AcDbEntity
  8
0
100
AcDbLine
 62
7
  6
BYLAYER
 10
84.274677785
 20
127.6039309329
 11
84.2429981488
 21
127.6005375534
  0
SPLINE
  5
2F2
100
AcDbEntity
  8
0
100
AcDbSpline
 62
7
  6
BYLAYER
 70
0
 71
3
 72
9
 73
5
 74
0
 42
0.0000001
 43
0.0000001
 44
0.0000000001
 40
0.0
 40
0.0
 40
0.0
 40
0.0
 40
0.2313170433
 40
1.0
 40
1.0
 40
1.0
 40
1.0
 10
84.3338747217
 20
127.7021856679
 30
0.0
 10
84.3414159191
 20
127.7124589945
 30
0.0
 10
84.3718864542
 20
127.7584373119
 30
0.0
 10
84.3947168416
 20
127.8091276864
 30
0.0
 10
84.4093381847
 20
127.8488729695
 30
0.0
  0
SPLINE
  5
2F3
100
AcDbEntity
  8
0
100
AcDbSpline
 62
7
  6
BYLAYER
 70
0
 71
3
 72
13
 73
9
 74
0
 42
0.0000001
 43
0.0000001
 44
0.0000000001
 40
0.0
 40
0.0
 40
0.0
 40
0.0
 40
0.3507444986
 40
0.6388180886
 40
0.759227313
 40
0.8621371124
 40
0.9432472229
 40
1.0
 40
1.0
 40
1.0
 40
1.0
 10
84.488970356
 20
128.2333616886
 30
0.0
 10
84.4980749518
 20
128.3129700727
 30
0.0
 10
84.5079578757
 20
128.4583755338
 30
0.0
 10
84.5520504465
 20
128.6290113537
 30
0.0
 10
84.6106223599
 20
128.7305534521
 30
0.0
 10
84.650833833
 20
128.7874399713
 30
0.0
 10
84.6832353074
 20
128.831520241
 30
0.0
 10
84.70527545
 20
128.8550246573
 30
0.0
 10
84.7164514282
 20
128.8615967291
 30
0.0
  0
SPLINE
  5
2F4
100
AcDbEntity
  8
0
100
AcDbSpline
 62
7
  6
BYLAYER
 70
0
 71
3
 72
9
 73
5
 74
0
 42
0.0000001
 43
0.0000001
 44
0.0000000001
 40
0.0
 40
0.0
 40
0.0
 40
0.0
 40
0.1885926838
 40
1.0
 40
1.0
 40
1.0
 40
1.0
 10
84.2742384456
 20
127.6041960503
 30
0.0
 10
84.2779638911
 20
127.6057943835
 30
0.0
 10
84.29650652
 20
127.6172385509
 30
0.0
 10
84.3074186739
 20
127.6373785791
 30
0.0
 10
84.3149251458
 20
127.6531219679
 30
0.0
  0
SPLINE
  5
2F5
100
AcDbEntity
  8
0
100
AcDbSpline
 62
7
  6
BYLAYER
 70
0
 71
3
 72
9
 73
5
 74
0
 42
0.0000001
 43
0.0000001
 44
0.0000000001
 40
0.0
 40
0.0
 40
0.0
 40
0.0
 40
0.2258705964
 40
1.0
 40
1.0
 40
1.0
 40
1.0
 10
84.3149251458
 20
127.6531219679
 30
0.0
 10
84.3166426066
 20
127.6567240134
 30
0.0
 10
84.3238837609
 20
127.6728442866
 30
0.0
 10
84.3298369924
 20
127.6895205315
 30
0.0
 10
84.3339755687
 20
127.70255617
 30
0.0
  0
SPLINE
  5
2F6
100
AcDbEntity
  8
0
100
AcDbSpline
 62
7
  6
BYLAYER
 70
0
 71
3
 72
9
 73
5
 74
0
 42
0.0000001
 43
0.0000001
 44
0.0000000001
 40
0.0
 40
0.0
 40
0.0
 40
0.0
 40
0.5927071857
 40
1.0
 40
1.0
 40
1.0
 40
1.0
 10
84.3339755687
 20
127.70255617
 30
0.0
 10
84.3277010121
 20
127.6799782043
 30
0.0
 10
84.3154515959
 20
127.6425096579
 30
0.0
 10
84.2962558234
 20
127.6068734429
 30
0.0
 10
84.2850932273
 20
127.5952673212
 30
0.0
  0
ENDSEC
  0
SECTION
  2
OBJECTS
  0
DICTIONARY
  5
C
100
AcDbDictionary
280
0
281
1
  3
ACAD_GROUP
350
D
  3
ACAD_MLINESTYLE
350
17
  3
ACAD_LAYOUT
350
1A
  3
ACAD_PLOTSETTINGS
350
19
  3
ACAD_PLOTSTYLENAME
350
E
  0
DICTIONARY
  5
D
102
{ACAD_REACTORS
330
C
102
}
100
AcDbDictionary
280
0
281
1
  0
ACDBDICTIONARYWDFLT
  5
E
102
{ACAD_REACTORS
330
C
102
}
100
AcDbDictionary
281
1
  3
Normal
350
F
100
AcDbDictionaryWithDefault
340
F
  0
DICTIONARY
  5
17
102
{ACAD_REACTORS
330
C
102
}
100
AcDbDictionary
280
0
281
1
  3
Standard
350
18
  0
DICTIONARY
  5
19
102
{ACAD_REACTORS
330
C
102
}
100
AcDbDictionary
281
1
  0
DICTIONARY
  5
1A
102
{ACAD_REACTORS
330
C
102
}
100
AcDbDictionary
281
1
  3
Model
350
2F7
  3
Layout1
350
2F8
  0
ACDBPLACEHOLDER
  5
F
102
{ACAD_REACTORS
330
E
102
}
  0
MLINESTYLE
  5
18
102
{ACAD_REACTORS
330
17
102
}
100
AcDbMlineStyle
  2
STANDARD
 70
0
  3

 62
256
 51
90.0
 52
90.0
 71
2
 49
0.5
 62
256
  6
BYLAYER
 49
-0.5
 62
256
  6
BYLAYER
  0
LAYOUT
  5
2F7
102
{ACAD_REACTORS
330
1A
102
}
100
AcDbPlotSettings
  1

  2
none_device
  4

  6

 40
0.0
 41
0.0
 42
0.0
 43
0.0
 44
210.0
 45
297.0
 46
0.0
 47
0.0
 48
0.0
 49
0.0
140
0.0
141
0.0
142
1.0
143
1.0
 70
1024
 72
1
 73
0
 74
0
  7

 75
0
147
1.0
148
0.0
149
0.0
100
AcDbLayout
  1
Model
 70
0
 71
0
 10
0.0
 20
0.0
 11
210.0
 21
297.0
 12
0.0
 22
0.0
 32
0.0
 14
0.0
 24
0.0
 34
0.0
 15
0.0
 25
0.0
 35
0.0
146
0.0
 13
0.0
 23
0.0
 33
0.0
 16
1.0
 26
0.0
 36
0.0
 17
0.0
 27
1.0
 37
0.0
 76
0
330
210
345
0
346
0
  0
LAYOUT
  5
2F8
102
{ACAD_REACTORS
330
1A
102
}
100
AcDbPlotSettings
  1

  2
none_device
  4

  6

 40
0.0
 41
0.0
 42
0.0
 43
0.0
 44
210.0
 45
297.0
 46
0.0
 47
0.0
 48
0.0
 49
0.0
140
0.0
141
0.0
142
1.0
143
1.0
 70
0
 72
1
 73
0
 74
0
  7

 75
0
147
1.0
148
0.0
149
0.0
100
AcDbLayout
  1
Layout1
 70
0
 71
1
 10
0.0
 20
0.0
 11
210.0
 21
297.0
 12
0.0
 22
0.0
 32
0.0
 14
0.0
 24
0.0
 34
0.0
 15
0.0
 25
0.0
 35
0.0
146
0.0
 13
0.0
 23
0.0
 33
0.0
 16
1.0
 26
0.0
 36
0.0
 17
0.0
 27
1.0
 37
0.0
 76
0
330
211
345
0
346
0
  0
ENDSEC
  0
EOF
