999
DXF file: C:\Users\sesa63760\Dev\_Creo\CAD\MCADID0004140_3D-CAD\drw0001_3.dxf
999
Pro/ENGINEER 2019471 by Parametric Technology Corporation
  0
SECTION
  2
HEADER
  9
$ACADVER
  1
AC1024
  9
$DWGCODEPAGE
  3
ANSI_1252
  9
$EXTMAX
 10
63.289790942
 20
89.5098471893
 30
0.0
  9
$EXTMIN
 10
0.0
 20
0.0
 30
0.0
  9
$LIMMIN
 10
0.0
 20
0.0
  9
$LIMMAX
 10
63.289790942
 20
89.5098471893
  9
$VIEWCTR
 10
31.644895471
 20
44.7549235947
  9
$VIEWSIZE
 40
89.5098471893
  9
$CLAYER
  8
0
  9
$LTSCALE
 40
5.8347159649
  9
$CELTYPE
  6
BYLAYER
  9
$DIMSCALE
 40
1.0
  9
$DIMASZ
 40
0.7534498922
  9
$DIMEXO
 40
1.0
  9
$DIMDLI
 40
4.031258303
  9
$DIMEXE
 40
1.0
  9
$DIMCEN
 40
0.9547717034
  9
$DIMLFAC
 40
1.0
  9
$DIMBLK
  1
_FILLED
  9
$DIMALT
 70
0
  9
$DIMALTF
 40
0.0393700787
  9
$DIMTXT
 40
1.054829849
  9
$DIMTOL
 70
1
  9
$DIMLIM
 70
0
  9
$DIMTFAC
 40
1.0
  9
$DIMTP
 40
0.01
  9
$DIMTM
 40
0.01
  9
$DIMGAP
 40
0.625
  9
$DIMDSEP
 70
46
  9
$AUNITS
 70
0
  9
$PDMODE
 70
3
  9
$PDSIZE
 40
0.3125
  9
$HANDSEED
  5
363
  9
$TILEMODE
 70
1
  9
$MEASUREMENT
 70
1
  9
$INSUNITS
 70
4
  0
ENDSEC
  0
SECTION
  2
CLASSES
  0
CLASS
  1
ACDBDICTIONARYWDFLT
  2
AcDbDictionaryWithDefault
  3
AutoCAD 2000
 90
0
 91
1
280
0
281
0
  0
CLASS
  1
ACDBPLACEHOLDER
  2
AcDbPlaceHolder
  3
AutoCAD 2000
 90
0
 91
1
280
0
281
0
  0
CLASS
  1
LAYOUT
  2
AcDbLayout
  3
AutoCAD 2000
 90
0
 91
0
280
0
281
0
  0
ENDSEC
  0
SECTION
  2
TABLES
  0
TABLE
  2
VPORT
  5
8
100
AcDbSymbolTable
 70
2
  0
VPORT
  5
1F4
100
AcDbSymbolTableRecord
100
AcDbViewportTableRecord
  2
*ACTIVE
 70
0
 10
0.0
 20
0.0
 11
1.0
 21
1.0
 12
31.644895471
 22
44.7549235947
 13
0.0
 23
0.0
 14
1.0
 24
1.0
 15
0.0
 25
0.0
 16
0.0
 26
0.0
 36
1.0
 17
0.0
 27
0.0
 37
0.0
 40
89.5098471893
 41
0.7070707071
 42
50.0
 43
0.0
 44
0.0
 50
0.0
 51
0.0
 71
0
 72
100
 73
1
 74
1
 75
0
 76
0
 77
0
 78
0
  0
ENDTAB
  0
TABLE
  2
LTYPE
  5
5
100
AcDbSymbolTable
 70
6
  0
LTYPE
  5
14
100
AcDbSymbolTableRecord
100
AcDbLinetypeTableRecord
  2
BYBLOCK
 70
0
  3

 72
65
 73
0
 40
0.0
  0
LTYPE
  5
15
100
AcDbSymbolTableRecord
100
AcDbLinetypeTableRecord
  2
BYLAYER
 70
0
  3

 72
65
 73
0
 40
0.0
  0
LTYPE
  5
16
100
AcDbSymbolTableRecord
100
AcDbLinetypeTableRecord
  2
CONTINUOUS
 70
64
  3
Solid line
 72
65
 73
0
 40
0.0
  0
LTYPE
  5
1F5
100
AcDbSymbolTableRecord
100
AcDbLinetypeTableRecord
  2
CENTER
 70
64
  3
____ _ ____ _ ____ _ ____ _ ____ _ ____ _ ____
 72
65
 73
4
 40
0.6
 49
0.375
 74
0
 49
-0.075
 74
0
 49
0.075
 74
0
 49
-0.075
 74
0
  0
LTYPE
  5
1F6
100
AcDbSymbolTableRecord
100
AcDbLinetypeTableRecord
  2
HIDDEN
 70
64
  3
- - - - - - - - - - - - - - - - - - - -
 72
65
 73
2
 40
0.2
 49
0.1
 74
0
 49
-0.1
 74
0
  0
LTYPE
  5
1F7
100
AcDbSymbolTableRecord
100
AcDbLinetypeTableRecord
  2
PHANTOM
 70
64
  3
_____ _ _ _____ _ _ _____ _ _ _____
 72
65
 73
6
 40
0.8
 49
0.45
 74
0
 49
-0.05
 74
0
 49
0.1
 74
0
 49
-0.05
 74
0
 49
0.1
 74
0
 49
-0.05
 74
0
  0
LTYPE
  5
1F8
100
AcDbSymbolTableRecord
100
AcDbLinetypeTableRecord
  2
DOT
 70
64
  3
. . . . . . . . . . . . . . . . . . . .
 72
65
 73
2
 40
0.2
 49
0.1
 74
0
 49
-0.1
 74
0
  0
LTYPE
  5
1F9
100
AcDbSymbolTableRecord
100
AcDbLinetypeTableRecord
  2
DASHED
 70
64
  3
- - - - - - - - - - - - - - - - - - - -
 72
65
 73
2
 40
0.2
 49
0.1
 74
0
 49
-0.1
 74
0
  0
ENDTAB
  0
TABLE
  2
LAYER
  5
2
100
AcDbSymbolTable
 70
36
  0
LAYER
  5
10
100
AcDbSymbolTableRecord
100
AcDbLayerTableRecord
  2
0
 70
0
 62
7
  6
CONTINUOUS
370
-3
390
F
  0
LAYER
  5
1FA
100
AcDbSymbolTableRecord
100
AcDbLayerTableRecord
  2
DEFAULT_1
 70
0
 62
7
  6
CENTER
370
-3
390
F
  0
LAYER
  5
1FB
100
AcDbSymbolTableRecord
100
AcDbLayerTableRecord
  2
DEFAULT_2
 70
0
 62
7
  6
HIDDEN
370
-3
390
F
  0
LAYER
  5
1FC
100
AcDbSymbolTableRecord
100
AcDbLayerTableRecord
  2
DEFAULT_3
 70
0
 62
7
  6
PHANTOM
370
-3
390
F
  0
LAYER
  5
1FD
100
AcDbSymbolTableRecord
100
AcDbLayerTableRecord
  2
00_COMPONENTS
 70
0
 62
7
  6
CONTINUOUS
370
-3
390
F
  0
LAYER
  5
1FE
100
AcDbSymbolTableRecord
100
AcDbLayerTableRecord
  2
01_1_DEFAULT_DATUMS
 70
0
 62
7
  6
CONTINUOUS
370
-3
390
F
  0
LAYER
  5
1FF
100
AcDbSymbolTableRecord
100
AcDbLayerTableRecord
  2
01_PLANES
 70
0
 62
7
  6
CONTINUOUS
370
-3
390
F
  0
LAYER
  5
200
100
AcDbSymbolTableRecord
100
AcDbLayerTableRecord
  2
02_COORD_SYS
 70
0
 62
7
  6
CONTINUOUS
370
-3
390
F
  0
LAYER
  5
201
100
AcDbSymbolTableRecord
100
AcDbLayerTableRecord
  2
03_AXES
 70
0
 62
7
  6
CONTINUOUS
370
-3
390
F
  0
LAYER
  5
202
100
AcDbSymbolTableRecord
100
AcDbLayerTableRecord
  2
04_POINTS
 70
0
 62
7
  6
CONTINUOUS
370
-3
390
F
  0
LAYER
  5
203
100
AcDbSymbolTableRecord
100
AcDbLayerTableRecord
  2
05_CURVES
 70
0
 62
7
  6
CONTINUOUS
370
-3
390
F
  0
LAYER
  5
204
100
AcDbSymbolTableRecord
100
AcDbLayerTableRecord
  2
06_SURFS
 70
0
 62
7
  6
CONTINUOUS
370
-3
390
F
  0
LAYER
  5
205
100
AcDbSymbolTableRecord
100
AcDbLayerTableRecord
  2
07_COSMETICS
 70
0
 62
7
  6
CONTINUOUS
370
-3
390
F
  0
LAYER
  5
206
100
AcDbSymbolTableRecord
100
AcDbLayerTableRecord
  2
10_NOTES
 70
0
 62
7
  6
CONTINUOUS
370
-3
390
F
  0
LAYER
  5
207
100
AcDbSymbolTableRecord
100
AcDbLayerTableRecord
  2
11_NOTES_PUB
 70
0
 62
7
  6
CONTINUOUS
370
-3
390
F
  0
LAYER
  5
208
100
AcDbSymbolTableRecord
100
AcDbLayerTableRecord
  2
13_REF_GTOL
 70
0
 62
7
  6
CONTINUOUS
370
-3
390
F
  0
LAYER
  5
209
100
AcDbSymbolTableRecord
100
AcDbLayerTableRecord
  2
16_MISC
 70
0
 62
7
  6
CONTINUOUS
370
-3
390
F
  0
LAYER
  5
20A
100
AcDbSymbolTableRecord
100
AcDbLayerTableRecord
  2
17_NO_PRINT
 70
0
 62
7
  6
CONTINUOUS
370
-3
390
F
  0
LAYER
  5
20B
100
AcDbSymbolTableRecord
100
AcDbLayerTableRecord
  2
18_DATUM_CAMS_JOINTS
 70
0
 62
7
  6
CONTINUOUS
370
-3
390
F
  0
LAYER
  5
20C
100
AcDbSymbolTableRecord
100
AcDbLayerTableRecord
  2
19_DATUM_FUNCTIONAL
 70
0
 62
7
  6
CONTINUOUS
370
-3
390
F
  0
LAYER
  5
20D
100
AcDbSymbolTableRecord
100
AcDbLayerTableRecord
  2
20_DATUM_KINEMATIC_SCHEME
 70
0
 62
7
  6
CONTINUOUS
370
-3
390
F
  0
ENDTAB
  0
TABLE
  2
STYLE
  5
3
100
AcDbSymbolTable
 70
1
  0
STYLE
  5
11
100
AcDbSymbolTableRecord
100
AcDbTextStyleTableRecord
  2
STANDARD
 70
0
 40
0.0
 41
1.0
 50
0.0
 71
0
 42
0.2
  3
ARIAL.TTF
  4

  0
STYLE
  5
20E
100
AcDbSymbolTableRecord
100
AcDbTextStyleTableRecord
  2
TEXTSTYLE_1
 70
0
 40
0.0
 41
0.8
 50
0.0
 71
0
 42
0.2
  3
gdt
  4

  0
ENDTAB
  0
TABLE
  2
VIEW
  5
6
100
AcDbSymbolTable
 70
0
  0
ENDTAB
  0
TABLE
  2
UCS
  5
7
100
AcDbSymbolTable
 70
0
  0
ENDTAB
  0
TABLE
  2
APPID
  5
9
100
AcDbSymbolTable
 70
1
  0
APPID
  5
20F
100
AcDbSymbolTableRecord
100
AcDbRegAppTableRecord
  2
ACAD
 70
0
  0
ENDTAB
  0
TABLE
  2
BLOCK_RECORD
  5
1
100
AcDbSymbolTable
 70
0
  0
BLOCK_RECORD
  5
210
100
AcDbSymbolTableRecord
100
AcDbBlockTableRecord
  2
*Model_Space
  0
BLOCK_RECORD
  5
211
100
AcDbSymbolTableRecord
100
AcDbBlockTableRecord
  2
*Paper_Space
  0
BLOCK_RECORD
  5
212
100
AcDbSymbolTableRecord
100
AcDbBlockTableRecord
  2
_FILLED
  0
ENDTAB
  0
TABLE
  2
DIMSTYLE
  5
A
100
AcDbSymbolTable
 70
1
100
AcDbDimStyleTable
 71
0
  0
DIMSTYLE
105
213
100
AcDbSymbolTableRecord
100
AcDbDimStyleTableRecord
  2
STANDARD
 70
0
  3

  4

 40
1.0
 41
0.7534498922
 42
1.0
 43
0.38
 44
1.0
 45
0.0
 46
0.0
 47
0.01
 48
0.01
140
1.054829849
141
0.09
142
0.0
143
25.4
144
1.0
145
0.0
146
1.0
147
0.625
 71
1
 72
0
 73
0
 74
0
 75
0
 76
0
 77
1
 78
8
 79
2
170
0
171
1
172
0
173
0
174
0
175
0
176
0
177
0
178
0
270
2
179
2
271
2
272
2
273
2
274
2
275
0
280
0
281
0
282
0
283
1
284
8
285
0
286
0
287
3
288
0
340
11
278
46
341
212
342
212
343
212
344
212
  0
ENDTAB
  0
ENDSEC
  0
SECTION
  2
BLOCKS
  0
BLOCK
  5
20
100
AcDbEntity
  8
0
100
AcDbBlockBegin
  2
*Model_Space
 70
0
 10
0.0
 20
0.0
 30
0.0
  3
*Model_Space
  1

  0
ENDBLK
  5
21
100
AcDbEntity
  8
0
100
AcDbBlockEnd
  0
BLOCK
  5
1C
100
AcDbEntity
  8
0
100
AcDbBlockBegin
  2
*Paper_Space
 70
0
 10
0.0
 20
0.0
 30
0.0
  3
*Paper_Space
  1

  0
ENDBLK
  5
1D
100
AcDbEntity
  8
0
100
AcDbBlockEnd
  0
BLOCK
  5
214
100
AcDbEntity
  8
0
100
AcDbBlockBegin
  2
_FILLED
 70
64
 10
0.0
 20
0.0
  3
_FILLED
  1

  0
SOLID
  5
215
100
AcDbEntity
  8
0
  6
BYBLOCK
 62
0
100
AcDbTrace
 10
0.0
 20
0.0
 11
-1.0
 21
0.25
 12
-1.0
 22
-0.25
 13
-1.0
 23
-0.25
  0
ENDBLK
  5
216
100
AcDbEntity
  8
0
  6
BYBLOCK
 62
0
100
AcDbBlockEnd
  0
ENDSEC
  0
SECTION
  2
ENTITIES
  0
LINE
  5
217
100
AcDbEntity
  8
0
100
AcDbLine
 62
7
  6
BYLAYER
 10
7.4870970557
 20
48.8513923408
 11
7.4870970557
 21
41.0966918029
  0
LINE
  5
218
100
AcDbEntity
  8
0
100
AcDbLine
 62
7
  6
BYLAYER
 10
9.2870167961
 20
56.2740420721
 11
9.2870167961
 21
33.6740420706
  0
LINE
  5
219
100
AcDbEntity
  8
0
100
AcDbLine
 62
7
  6
BYLAYER
 10
9.3455954399
 20
33.6740420706
 11
9.3455954399
 21
56.2740420721
  0
LINE
  5
21A
100
AcDbEntity
  8
0
100
AcDbLine
 62
7
  6
BYLAYER
 10
9.4870167968
 20
56.4740420714
 11
9.4870167961
 21
33.4740420714
  0
LINE
  5
21B
100
AcDbEntity
  8
0
100
AcDbLine
 62
7
  6
BYLAYER
 10
11.1370970555
 20
56.2740420714
 11
11.1370970555
 21
33.6740420714
  0
LINE
  5
21C
100
AcDbEntity
  8
0
100
AcDbLine
 62
7
  6
BYLAYER
 10
8.2870970564
 20
49.6513923396
 11
7.4870970557
 21
48.8513923408
  0
LINE
  5
21D
100
AcDbEntity
  8
0
100
AcDbLine
 62
7
  6
BYLAYER
 10
7.4870970557
 20
41.0966918029
 11
8.2870970564
 21
40.2966918022
  0
LWPOLYLINE
  5
21E
100
AcDbEntity
  8
0
100
AcDbPolyline
 62
7
  6
BYLAYER
 90
4
 70
0
 10
12.3620597338
 20
51.0087890103
 10
11.9070514913
 20
50.4727243572
 10
11.4178122893
 20
49.9282429561
 10
11.024348865
 20
49.5080640661
  0
LINE
  5
21F
100
AcDbEntity
  8
0
100
AcDbLine
 62
7
  6
BYLAYER
 10
15.4370970555
 20
56.2740420714
 11
15.4370970555
 21
33.6740420714
  0
LWPOLYLINE
  5
220
100
AcDbEntity
  8
0
100
AcDbPolyline
 62
7
  6
BYLAYER
 90
6
 70
0
 10
12.1855660642
 20
39.4943270103
 10
11.7280563181
 20
39.8326809996
 10
11.5872474064
 20
39.9641736765
 10
11.6396300598
 20
39.9033077787
 10
11.8074997069
 20
39.6900435089
 10
12.0379576129
 20
39.3705087765
  0
LINE
  5
221
100
AcDbEntity
  8
0
100
AcDbLine
 62
7
  6
BYLAYER
 10
17.2870970556
 20
56.2740420721
 11
17.2870970556
 21
56.4740420714
  0
LINE
  5
222
100
AcDbEntity
  8
0
100
AcDbLine
 62
7
  6
BYLAYER
 10
22.2153264805
 20
52.8954566615
 11
22.0268168233
 21
52.7069470043
  0
LINE
  5
223
100
AcDbEntity
  8
0
100
AcDbLine
 62
7
  6
BYLAYER
 10
22.2200019886
 20
52.5137618388
 11
22.4085116458
 21
52.7022714961
  0
LINE
  5
224
100
AcDbEntity
  8
0
100
AcDbLine
 62
7
  6
BYLAYER
 10
23.8042543425
 20
33.7022714962
 11
24.487097056
 21
33.5193043426
  0
LINE
  5
225
100
AcDbEntity
  8
0
100
AcDbLine
 62
7
  6
BYLAYER
 10
24.6285184122
 20
33.7124895078
 11
23.9456756988
 21
33.8954566614
  0
LINE
  5
226
100
AcDbEntity
  8
0
100
AcDbLine
 62
7
  6
BYLAYER
 10
22.0268168257
 20
37.2411371361
 11
22.2153264802
 21
37.0526274816
  0
LINE
  5
227
100
AcDbEntity
  8
0
100
AcDbLine
 62
7
  6
BYLAYER
 10
22.4085116457
 20
37.2458126469
 11
22.2200019888
 21
37.4343223038
  0
LINE
  5
228
100
AcDbEntity
  8
0
100
AcDbLine
 62
7
  6
BYLAYER
 10
27.7939118904
 20
56.4740420715
 11
27.5656824655
 21
56.2458126466
  0
LINE
  5
229
100
AcDbEntity
  8
0
100
AcDbLine
 62
7
  6
BYLAYER
 10
27.7588676307
 20
56.0526274813
 11
27.9473772878
 21
56.2411371385
  0
LINE
  5
22A
100
AcDbEntity
  8
0
100
AcDbLine
 62
7
  6
BYLAYER
 10
52.2709777108
 20
33.6049899515
 11
57.4290435244
 21
33.6169690137
  0
LINE
  5
22B
100
AcDbEntity
  8
0
100
AcDbLine
 62
7
  6
BYLAYER
 10
57.292231076
 20
33.4764340479
 11
9.4870167966
 21
33.4740420714
  0
LINE
  5
22C
100
AcDbEntity
  8
0
100
AcDbLine
 62
7
  6
BYLAYER
 10
25.2042543433
 20
33.4879121421
 11
24.7699398364
 21
33.4879121421
  0
LINE
  5
22D
100
AcDbEntity
  8
0
100
AcDbLine
 62
7
  6
BYLAYER
 10
57.4908517447
 20
33.6740420714
 11
9.2870167961
 21
33.6740420714
  0
LINE
  5
22E
100
AcDbEntity
  8
0
100
AcDbLine
 62
7
  6
BYLAYER
 10
24.7699398364
 20
33.6810973057
 11
25.2042543433
 21
33.6810973057
  0
LINE
  5
22F
100
AcDbEntity
  8
0
100
AcDbLine
 62
7
  6
BYLAYER
 10
27.5656824655
 20
33.702271496
 11
26.1699397686
 21
33.702271496
  0
LINE
  5
230
100
AcDbEntity
  8
0
100
AcDbLine
 62
7
  6
BYLAYER
 10
23.8042543429
 20
33.702271496
 11
22.4085116457
 21
33.702271496
  0
LINE
  5
231
100
AcDbEntity
  8
0
100
AcDbLine
 62
7
  6
BYLAYER
 10
21.8336316573
 20
33.7069470047
 11
22.0268168234
 21
33.7069470047
  0
LINE
  5
232
100
AcDbEntity
  8
0
100
AcDbLine
 62
7
  6
BYLAYER
 10
27.9473772878
 20
33.7069470042
 11
28.1405624526
 21
33.7069470042
  0
LINE
  5
233
100
AcDbEntity
  8
0
100
AcDbLine
 62
7
  6
BYLAYER
 10
22.2153264806
 20
33.89545666
 11
23.9456756988
 21
33.8954566614
  0
LINE
  5
234
100
AcDbEntity
  8
0
100
AcDbLine
 62
7
  6
BYLAYER
 10
26.0285184125
 20
33.8954566613
 11
27.7588676307
 21
33.8954566613
  0
LINE
  5
235
100
AcDbEntity
  8
0
100
AcDbLine
 62
7
  6
BYLAYER
 10
28.139240051
 20
33.6740420714
 11
27.9477074909
 21
33.6895030914
  0
LINE
  5
236
100
AcDbEntity
  8
0
100
AcDbLine
 62
7
  6
BYLAYER
 10
27.5656824655
 20
33.7022714962
 11
27.7939118903
 21
33.4740420713
  0
LINE
  5
237
100
AcDbEntity
  8
0
100
AcDbLine
 62
7
  6
BYLAYER
 10
27.9473772878
 20
33.7069470042
 11
27.7588676306
 21
33.8954566614
  0
LINE
  5
238
100
AcDbEntity
  8
0
100
AcDbLine
 62
7
  6
BYLAYER
 10
21.8336316581
 20
33.7069470047
 11
21.8336316581
 21
37.2411371325
  0
LINE
  5
239
100
AcDbEntity
  8
0
100
AcDbLine
 62
7
  6
BYLAYER
 10
21.8336316573
 20
52.7069470047
 11
21.8336316573
 21
56.2411371385
  0
LINE
  5
23A
100
AcDbEntity
  8
0
100
AcDbLine
 62
7
  6
BYLAYER
 10
22.0268168234
 20
56.2411371385
 11
22.0268168234
 21
52.7069470047
  0
LINE
  5
23B
100
AcDbEntity
  8
0
100
AcDbLine
 62
7
  6
BYLAYER
 10
22.0268168234
 20
37.2411371325
 11
22.0268168234
 21
33.7069470047
  0
LINE
  5
23C
100
AcDbEntity
  8
0
100
AcDbLine
 62
7
  6
BYLAYER
 10
22.2153264804
 20
33.8954566607
 11
22.2153264804
 21
37.0526274817
  0
LINE
  5
23D
100
AcDbEntity
  8
0
100
AcDbLine
 62
7
  6
BYLAYER
 10
22.2153264805
 20
52.8954566608
 11
22.2153264805
 21
56.0526274817
  0
LINE
  5
23E
100
AcDbEntity
  8
0
100
AcDbLine
 62
7
  6
BYLAYER
 10
22.2200019884
 20
52.5137618389
 11
22.2200019884
 21
52.3205766737
  0
LINE
  5
23F
100
AcDbEntity
  8
0
100
AcDbLine
 62
7
  6
BYLAYER
 10
22.2200019882
 20
37.627507469
 11
22.2200019882
 21
37.4343223039
  0
LINE
  5
240
100
AcDbEntity
  8
0
100
AcDbLine
 62
7
  6
BYLAYER
 10
22.2284381519
 20
56.2740420714
 11
22.2284381519
 21
33.6740420714
  0
LINE
  5
241
100
AcDbEntity
  8
0
100
AcDbLine
 62
7
  6
BYLAYER
 10
22.3698595078
 20
33.4740420714
 11
22.3698595093
 21
56.4740420714
  0
LINE
  5
242
100
AcDbEntity
  8
0
100
AcDbLine
 62
7
  6
BYLAYER
 10
22.4085116454
 20
37.2458126469
 11
22.4085116452
 21
33.7034795274
  0
LINE
  5
243
100
AcDbEntity
  8
0
100
AcDbLine
 62
7
  6
BYLAYER
 10
22.4085116457
 20
52.7022714961
 11
22.4085193433
 21
56.2458126467
  0
LINE
  5
244
100
AcDbEntity
  8
0
100
AcDbLine
 62
7
  6
BYLAYER
 10
25.4870970745
 20
33.5193043477
 11
26.1699397688
 21
33.7022714962
  0
LINE
  5
245
100
AcDbEntity
  8
0
100
AcDbLine
 62
7
  6
BYLAYER
 10
26.0285184113
 20
33.8954566709
 11
25.3456757169
 21
33.7124895224
  0
LINE
  5
246
100
AcDbEntity
  8
0
100
AcDbLine
 62
7
  6
BYLAYER
 10
21.8349540354
 20
33.6740421308
 11
22.0264866115
 21
33.6895031973
  0
LINE
  5
247
100
AcDbEntity
  8
0
100
AcDbLine
 62
7
  6
BYLAYER
 10
56.4741838262
 20
34.6740420721
 11
57.4798575778
 21
34.6740420721
  0
LINE
  5
248
100
AcDbEntity
  8
0
100
AcDbLine
 62
7
  6
BYLAYER
 10
25.3456756994
 20
37.2355946348
 11
26.0285184125
 21
37.0526274813
  0
LINE
  5
249
100
AcDbEntity
  8
0
100
AcDbLine
 62
7
  6
BYLAYER
 10
26.1699397688
 20
37.2458126465
 11
25.4870970557
 21
37.4287798001
  0
LINE
  5
24A
100
AcDbEntity
  8
0
100
AcDbLine
 62
7
  6
BYLAYER
 10
23.8042543429
 20
33.7022714963
 11
23.8042543429
 21
37.2458126464
  0
LINE
  5
24B
100
AcDbEntity
  8
0
100
AcDbLine
 62
7
  6
BYLAYER
 10
23.8042543427
 20
52.702271496
 11
23.8042543428
 21
56.2458126466
  0
LINE
  5
24C
100
AcDbEntity
  8
0
100
AcDbLine
 62
7
  6
BYLAYER
 10
23.9456756999
 20
56.0526274814
 11
23.9456756999
 21
52.8954566612
  0
LINE
  5
24D
100
AcDbEntity
  8
0
100
AcDbLine
 62
7
  6
BYLAYER
 10
23.9456756994
 20
37.0526274814
 11
23.9456756994
 21
33.8954566613
  0
LINE
  5
24E
100
AcDbEntity
  8
0
100
AcDbLine
 62
7
  6
BYLAYER
 10
24.5094191221
 20
37.4343223063
 11
24.5094191221
 21
37.627507469
  0
LINE
  5
24F
100
AcDbEntity
  8
0
100
AcDbLine
 62
7
  6
BYLAYER
 10
24.5094192029
 20
52.3205766738
 11
24.5094192029
 21
52.5137618351
  0
LINE
  5
250
100
AcDbEntity
  8
0
100
AcDbLine
 62
7
  6
BYLAYER
 10
24.6285184119
 20
33.7124895084
 11
24.6285184119
 21
37.2355946102
  0
LINE
  5
251
100
AcDbEntity
  8
0
100
AcDbLine
 62
7
  6
BYLAYER
 10
24.6285184118
 20
52.7124895714
 11
24.6285184118
 21
56.2355946343
  0
LINE
  5
252
100
AcDbEntity
  8
0
100
AcDbLine
 62
7
  6
BYLAYER
 10
24.7699397681
 20
56.4601720066
 11
24.7699397678
 21
52.3346871346
  0
LINE
  5
253
100
AcDbEntity
  8
0
100
AcDbLine
 62
7
  6
BYLAYER
 10
24.7699397673
 20
37.613396997
 11
24.7699398364
 21
33.4879121388
  0
LINE
  5
254
100
AcDbEntity
  8
0
100
AcDbLine
 62
7
  6
BYLAYER
 10
25.2042543433
 20
33.4879121422
 11
25.2042542229
 21
37.6133970416
  0
LINE
  5
255
100
AcDbEntity
  8
0
100
AcDbLine
 62
7
  6
BYLAYER
 10
25.2042542064
 20
52.33468709
 11
25.2042543022
 21
56.4601720105
  0
LINE
  5
256
100
AcDbEntity
  8
0
100
AcDbLine
 62
7
  6
BYLAYER
 10
25.3456756994
 20
56.2355945715
 11
25.3456756994
 21
52.7124895079
  0
LINE
  5
257
100
AcDbEntity
  8
0
100
AcDbLine
 62
7
  6
BYLAYER
 10
25.3456756994
 20
37.2355946348
 11
25.3456756994
 21
33.7124895326
  0
LWPOLYLINE
  5
258
100
AcDbEntity
  8
0
100
AcDbPolyline
 62
7
  6
BYLAYER
 90
6
 70
0
 10
20.69983567
 20
40.3676902621
 10
20.8988307873
 20
40.7721111986
 10
21.0949375395
 20
41.1803686793
 10
21.2827676989
 20
41.5823280042
 10
21.461528535
 20
41.9763764575
 10
21.6037423459
 20
42.294502164
  0
LINE
  5
259
100
AcDbEntity
  8
0
100
AcDbLine
 62
7
  6
BYLAYER
 10
8.2870970564
 20
40.2966918022
 11
9.2870167961
 21
40.8740420718
  0
LINE
  5
25A
100
AcDbEntity
  8
0
100
AcDbLine
 62
7
  6
BYLAYER
 10
16.0753205328
 20
36.9740420713
 11
16.2167033818
 21
36.9740420713
  0
LINE
  5
25B
100
AcDbEntity
  8
0
100
AcDbLine
 62
7
  6
BYLAYER
 10
27.7588676306
 20
37.0526274814
 11
26.0285184125
 21
37.0526274814
  0
LINE
  5
25C
100
AcDbEntity
  8
0
100
AcDbLine
 62
7
  6
BYLAYER
 10
23.9456756994
 20
37.0526274814
 11
22.2153264803
 21
37.0526274816
  0
LINE
  5
25D
100
AcDbEntity
  8
0
100
AcDbLine
 62
7
  6
BYLAYER
 10
28.1405624526
 20
37.2411371398
 11
27.947377288
 21
37.2411371398
  0
LINE
  5
25E
100
AcDbEntity
  8
0
100
AcDbLine
 62
7
  6
BYLAYER
 10
22.0268168251
 20
37.2411371325
 11
21.8336316256
 21
37.2411371325
  0
LINE
  5
25F
100
AcDbEntity
  8
0
100
AcDbLine
 62
7
  6
BYLAYER
 10
22.4085116452
 20
37.2458126468
 11
23.8042543429
 21
37.2458126468
  0
LINE
  5
260
100
AcDbEntity
  8
0
100
AcDbLine
 62
7
  6
BYLAYER
 10
26.1699397686
 20
37.2458126468
 11
27.5656824655
 21
37.2458126468
  0
LINE
  5
261
100
AcDbEntity
  8
0
100
AcDbLine
 62
7
  6
BYLAYER
 10
25.204254289
 20
37.2669868354
 11
24.7699397682
 21
37.2669868354
  0
LINE
  5
262
100
AcDbEntity
  8
0
100
AcDbLine
 62
7
  6
BYLAYER
 10
27.7541921226
 20
37.4343223038
 11
25.4647749123
 21
37.4343223038
  0
LINE
  5
263
100
AcDbEntity
  8
0
100
AcDbLine
 62
7
  6
BYLAYER
 10
24.5094191221
 20
37.4343223038
 11
22.2200019882
 21
37.4343223038
  0
LINE
  5
264
100
AcDbEntity
  8
0
100
AcDbLine
 62
7
  6
BYLAYER
 10
24.7699397682
 20
37.4401919161
 11
25.204254289
 21
37.4401919161
  0
LINE
  5
265
100
AcDbEntity
  8
0
100
AcDbLine
 62
7
  6
BYLAYER
 10
24.7699397673
 20
37.6133969969
 11
25.2042542229
 21
37.6133969969
  0
LINE
  5
266
100
AcDbEntity
  8
0
100
AcDbLine
 62
7
  6
BYLAYER
 10
22.2200019882
 20
37.6275074691
 11
24.5094191221
 21
37.6275074691
  0
LINE
  5
267
100
AcDbEntity
  8
0
100
AcDbLine
 62
7
  6
BYLAYER
 10
25.4647749123
 20
37.6275074691
 11
27.7541921226
 21
37.6275074691
  0
LINE
  5
268
100
AcDbEntity
  8
0
100
AcDbLine
 62
7
  6
BYLAYER
 10
8.2870970564
 20
49.6513923396
 11
9.2870167961
 21
49.0740420719
  0
LWPOLYLINE
  5
269
100
AcDbEntity
  8
0
100
AcDbPolyline
 62
7
  6
BYLAYER
 90
6
 70
0
 10
21.606378285
 20
47.6477551143
 10
21.4625678342
 20
47.9699490456
 10
21.2821895076
 20
48.3677639854
 10
21.0941531718
 20
48.7699949451
 10
20.8974439855
 20
49.1791867484
 10
20.6979171357
 20
49.584243958
  0
LINE
  5
26A
100
AcDbEntity
  8
0
100
AcDbLine
 62
7
  6
BYLAYER
 10
25.4647748753
 20
52.5137618387
 11
25.4647748753
 21
52.3205766737
  0
LINE
  5
26B
100
AcDbEntity
  8
0
100
AcDbLine
 62
7
  6
BYLAYER
 10
25.4647749123
 20
37.627507469
 11
25.4647749123
 21
37.4343223034
  0
LINE
  5
26C
100
AcDbEntity
  8
0
100
AcDbLine
 62
7
  6
BYLAYER
 10
25.6008055547
 20
56.2740420721
 11
25.6008055547
 21
56.4740420714
  0
LINE
  5
26D
100
AcDbEntity
  8
0
100
AcDbLine
 62
7
  6
BYLAYER
 10
26.0285184113
 20
33.8954566613
 11
26.0285184113
 21
37.0526274814
  0
LINE
  5
26E
100
AcDbEntity
  8
0
100
AcDbLine
 62
7
  6
BYLAYER
 10
26.0285184119
 20
52.8954566612
 11
26.0285184119
 21
56.0526274814
  0
LINE
  5
26F
100
AcDbEntity
  8
0
100
AcDbLine
 62
7
  6
BYLAYER
 10
26.1699397684
 20
56.2458126466
 11
26.1699397684
 21
52.7022714961
  0
LINE
  5
270
100
AcDbEntity
  8
0
100
AcDbLine
 62
7
  6
BYLAYER
 10
26.1699397692
 20
37.2458126466
 11
26.1699397681
 21
33.7022714961
  0
LINE
  5
271
100
AcDbEntity
  8
0
100
AcDbLine
 62
7
  6
BYLAYER
 10
23.9456756988
 20
37.0526274813
 11
24.628518393
 21
37.2355946298
  0
LINE
  5
272
100
AcDbEntity
  8
0
100
AcDbLine
 62
7
  6
BYLAYER
 10
27.5656824655
 20
33.7022714961
 11
27.5656824655
 21
37.2458126466
  0
LINE
  5
273
100
AcDbEntity
  8
0
100
AcDbLine
 62
7
  6
BYLAYER
 10
27.5656824658
 20
52.702271496
 11
27.5656824661
 21
56.244604615
  0
LINE
  5
274
100
AcDbEntity
  8
0
100
AcDbLine
 62
7
  6
BYLAYER
 10
27.5870167962
 20
40.2966918022
 11
27.5870167962
 21
49.6514924997
  0
LINE
  5
275
100
AcDbEntity
  8
0
100
AcDbLine
 62
7
  6
BYLAYER
 10
27.7541921226
 20
37.4343223038
 11
27.7541921226
 21
37.627507469
  0
LINE
  5
276
100
AcDbEntity
  8
0
100
AcDbLine
 62
7
  6
BYLAYER
 10
27.7541921233
 20
52.3205766737
 11
27.7541921233
 21
52.5137618388
  0
LINE
  5
277
100
AcDbEntity
  8
0
100
AcDbLine
 62
7
  6
BYLAYER
 10
27.7588676308
 20
56.0526274818
 11
27.7588676308
 21
52.8954566608
  0
LINE
  5
278
100
AcDbEntity
  8
0
100
AcDbLine
 62
7
  6
BYLAYER
 10
27.7588676307
 20
37.0526274818
 11
27.7588676307
 21
33.8954566613
  0
LINE
  5
279
100
AcDbEntity
  8
0
100
AcDbLine
 62
7
  6
BYLAYER
 10
27.9473772878
 20
33.7069470042
 11
27.9473772878
 21
37.2411371398
  0
LINE
  5
27A
100
AcDbEntity
  8
0
100
AcDbLine
 62
7
  6
BYLAYER
 10
27.9473772878
 20
52.7069470039
 11
27.9473772878
 21
56.2411371379
  0
LINE
  5
27B
100
AcDbEntity
  8
0
100
AcDbLine
 62
7
  6
BYLAYER
 10
28.1405624531
 20
56.2411371379
 11
28.1405624531
 21
52.7069470039
  0
LINE
  5
27C
100
AcDbEntity
  8
0
100
AcDbLine
 62
7
  6
BYLAYER
 10
28.1405624526
 20
37.2411371398
 11
28.1405624526
 21
33.7069470042
  0
LINE
  5
27D
100
AcDbEntity
  8
0
100
AcDbLine
 62
7
  6
BYLAYER
 10
28.9223266533
 20
45.7560354927
 11
28.896486179
 21
45.4736360189
  0
LINE
  5
27E
100
AcDbEntity
  8
0
100
AcDbLine
 62
7
  6
BYLAYER
 10
27.8776331789
 20
44.3329636403
 11
27.8481012078
 21
44.0561014114
  0
LINE
  5
27F
100
AcDbEntity
  8
0
100
AcDbLine
 62
7
  6
BYLAYER
 10
24.4870970232
 20
37.4287797984
 11
23.804254329
 21
37.2458126499
  0
LINE
  5
280
100
AcDbEntity
  8
0
100
AcDbLine
 62
7
  6
BYLAYER
 10
27.5870167962
 20
40.2966918018
 11
48.5870167961
 21
40.2966918018
  0
LINE
  5
281
100
AcDbEntity
  8
0
100
AcDbLine
 62
7
  6
BYLAYER
 10
27.5870167962
 20
40.8740420716
 11
48.5870167961
 21
40.8740420716
  0
LINE
  5
282
100
AcDbEntity
  8
0
100
AcDbLine
 62
7
  6
BYLAYER
 10
27.5870167962
 20
41.0966918033
 11
48.5870167961
 21
41.0966918033
  0
LINE
  5
283
100
AcDbEntity
  8
0
100
AcDbLine
 62
7
  6
BYLAYER
 10
52.1370070826
 20
56.2740420716
 11
52.2717942594
 21
56.3426535475
  0
LINE
  5
284
100
AcDbEntity
  8
0
100
AcDbLine
 62
7
  6
BYLAYER
 10
10.4184277762
 20
44.9740420713
 11
9.1816146328
 21
44.9740420713
  0
LINE
  5
285
100
AcDbEntity
  8
0
100
AcDbLine
 62
7
  6
BYLAYER
 10
21.7321362751
 20
44.9740420713
 11
22.1816143405
 21
44.9740420713
  0
LINE
  5
286
100
AcDbEntity
  8
0
100
AcDbLine
 62
7
  6
BYLAYER
 10
52.271794259
 20
33.605430595
 11
52.1370070822
 21
33.674042071
  0
LINE
  5
287
100
AcDbEntity
  8
0
100
AcDbLine
 62
7
  6
BYLAYER
 10
22.2153264802
 20
33.8954566612
 11
22.0268168233
 21
33.7069470043
  0
LINE
  5
288
100
AcDbEntity
  8
0
100
AcDbLine
 62
7
  6
BYLAYER
 10
22.1802822209
 20
33.4740420713
 11
22.4085116455
 21
33.7022714959
  0
LINE
  5
289
100
AcDbEntity
  8
0
100
AcDbLine
 62
7
  6
BYLAYER
 10
27.7541921225
 20
37.4343223038
 11
27.5656824654
 21
37.2458126466
  0
LINE
  5
28A
100
AcDbEntity
  8
0
100
AcDbLine
 62
7
  6
BYLAYER
 10
22.0268168233
 20
56.2411371385
 11
22.2153264802
 21
56.0526274817
  0
LINE
  5
28B
100
AcDbEntity
  8
0
100
AcDbLine
 62
7
  6
BYLAYER
 10
22.4085116457
 20
56.2458126469
 11
22.180282221
 21
56.4740420716
  0
LINE
  5
28C
100
AcDbEntity
  8
0
100
AcDbLine
 62
7
  6
BYLAYER
 10
27.5656824659
 20
52.702271496
 11
27.7541921231
 21
52.5137618389
  0
LINE
  5
28D
100
AcDbEntity
  8
0
100
AcDbLine
 62
7
  6
BYLAYER
 10
27.7588676306
 20
37.0526274813
 11
27.9473772878
 21
37.2411371385
  0
LINE
  5
28E
100
AcDbEntity
  8
0
100
AcDbLine
 62
7
  6
BYLAYER
 10
27.5870167962
 20
48.8516659798
 11
48.5870167961
 21
48.8516659798
  0
LINE
  5
28F
100
AcDbEntity
  8
0
100
AcDbLine
 62
7
  6
BYLAYER
 10
27.9473772879
 20
52.7069470041
 11
27.7588676307
 21
52.8954566613
  0
LINE
  5
290
100
AcDbEntity
  8
0
100
AcDbLine
 62
7
  6
BYLAYER
 10
27.5870167969
 20
49.074042071
 11
48.5870167969
 21
49.074042071
  0
LINE
  5
291
100
AcDbEntity
  8
0
100
AcDbLine
 62
7
  6
BYLAYER
 10
27.5870167962
 20
49.6514924994
 11
48.5870167961
 21
49.6514924994
  0
LINE
  5
292
100
AcDbEntity
  8
0
100
AcDbLine
 62
7
  6
BYLAYER
 10
23.8042543429
 20
52.702271496
 11
24.4870973747
 21
52.5193042571
  0
LINE
  5
293
100
AcDbEntity
  8
0
100
AcDbLine
 62
7
  6
BYLAYER
 10
24.6285187309
 20
52.7124894223
 11
23.9456756991
 21
52.8954566613
  0
LINE
  5
294
100
AcDbEntity
  8
0
100
AcDbLine
 62
7
  6
BYLAYER
 10
27.7541921233
 20
52.3205766737
 11
25.4647748753
 21
52.3205766737
  0
LINE
  5
295
100
AcDbEntity
  8
0
100
AcDbLine
 62
7
  6
BYLAYER
 10
24.5094192029
 20
52.3205766737
 11
22.2200019884
 21
52.3205766737
  0
LINE
  5
296
100
AcDbEntity
  8
0
100
AcDbLine
 62
7
  6
BYLAYER
 10
24.7699397678
 20
52.3346871402
 11
25.2042542064
 21
52.3346871402
  0
LINE
  5
297
100
AcDbEntity
  8
0
100
AcDbLine
 62
7
  6
BYLAYER
 10
24.7699397678
 20
52.5078922265
 11
25.2042542064
 21
52.5078922265
  0
LINE
  5
298
100
AcDbEntity
  8
0
100
AcDbLine
 62
7
  6
BYLAYER
 10
22.2200019884
 20
52.5137618389
 11
24.5094192029
 21
52.5137618389
  0
LINE
  5
299
100
AcDbEntity
  8
0
100
AcDbLine
 62
7
  6
BYLAYER
 10
25.4647748753
 20
52.5137618389
 11
27.7541921233
 21
52.5137618389
  0
LINE
  5
29A
100
AcDbEntity
  8
0
100
AcDbLine
 62
7
  6
BYLAYER
 10
40.1870970541
 20
56.2740420721
 11
40.1870970541
 21
56.4740420714
  0
LINE
  5
29B
100
AcDbEntity
  8
0
100
AcDbLine
 62
7
  6
BYLAYER
 10
25.4870970557
 20
52.5193043426
 11
26.1699397684
 21
52.702271496
  0
LINE
  5
29C
100
AcDbEntity
  8
0
100
AcDbLine
 62
7
  6
BYLAYER
 10
26.0285184121
 20
52.8954566613
 11
25.3456756994
 21
52.7124895079
  0
LINE
  5
29D
100
AcDbEntity
  8
0
100
AcDbLine
 62
7
  6
BYLAYER
 10
24.7699398165
 20
52.6810973073
 11
25.2042542053
 21
52.6810973073
  0
LINE
  5
29E
100
AcDbEntity
  8
0
100
AcDbLine
 62
7
  6
BYLAYER
 10
27.565682466
 20
52.702271496
 11
26.1699397684
 21
52.702271496
  0
LINE
  5
29F
100
AcDbEntity
  8
0
100
AcDbLine
 62
7
  6
BYLAYER
 10
23.8042543427
 20
52.702271496
 11
22.4085116457
 21
52.702271496
  0
LINE
  5
2A0
100
AcDbEntity
  8
0
100
AcDbLine
 62
7
  6
BYLAYER
 10
21.8336316573
 20
52.7069470047
 11
22.0268168234
 21
52.7069470047
  0
LINE
  5
2A1
100
AcDbEntity
  8
0
100
AcDbLine
 62
7
  6
BYLAYER
 10
27.9473772879
 20
52.7069470039
 11
28.1405624526
 21
52.7069470039
  0
LINE
  5
2A2
100
AcDbEntity
  8
0
100
AcDbLine
 62
7
  6
BYLAYER
 10
22.2153264806
 20
52.8954566602
 11
23.9456756994
 21
52.8954566612
  0
LINE
  5
2A3
100
AcDbEntity
  8
0
100
AcDbLine
 62
7
  6
BYLAYER
 10
26.0285184119
 20
52.8954566612
 11
27.7588676308
 21
52.895456661
  0
LINE
  5
2A4
100
AcDbEntity
  8
0
100
AcDbLine
 62
7
  6
BYLAYER
 10
16.0753384563
 20
52.9740420713
 11
16.2167033818
 21
52.9740420713
  0
LINE
  5
2A5
100
AcDbEntity
  8
0
100
AcDbLine
 62
7
  6
BYLAYER
 10
25.3456756896
 20
56.2355946375
 11
26.0285184121
 21
56.0526274814
  0
LINE
  5
2A6
100
AcDbEntity
  8
0
100
AcDbLine
 62
7
  6
BYLAYER
 10
26.1699397369
 20
56.2458126388
 11
25.4870970143
 21
56.4287797948
  0
LINE
  5
2A7
100
AcDbEntity
  8
0
100
AcDbLine
 62
7
  6
BYLAYER
 10
43.2870970556
 20
56.2740420721
 11
43.2870970556
 21
56.4740420714
  0
LINE
  5
2A8
100
AcDbEntity
  8
0
100
AcDbLine
 62
7
  6
BYLAYER
 10
56.474183826
 20
55.2740420717
 11
57.4798575777
 21
55.2740420717
  0
LINE
  5
2A9
100
AcDbEntity
  8
0
100
AcDbLine
 62
7
  6
BYLAYER
 10
27.7588676307
 20
56.0526274814
 11
26.0285184118
 21
56.0526274818
  0
LINE
  5
2AA
100
AcDbEntity
  8
0
100
AcDbLine
 62
7
  6
BYLAYER
 10
23.9456756994
 20
56.0526274814
 11
22.2153264815
 21
56.0526274815
  0
LINE
  5
2AB
100
AcDbEntity
  8
0
100
AcDbLine
 62
7
  6
BYLAYER
 10
22.0264866116
 20
56.2585809521
 11
21.8349540354
 21
56.2740420183
  0
LINE
  5
2AC
100
AcDbEntity
  8
0
100
AcDbLine
 62
7
  6
BYLAYER
 10
23.9456756991
 20
56.0526274814
 11
24.6285184118
 21
56.2355946348
  0
LINE
  5
2AD
100
AcDbEntity
  8
0
100
AcDbLine
 62
7
  6
BYLAYER
 10
27.947707479
 20
56.2585810506
 11
28.1392400286
 21
56.2740420714
  0
LINE
  5
2AE
100
AcDbEntity
  8
0
100
AcDbLine
 62
7
  6
BYLAYER
 10
28.1405624526
 20
56.2411371379
 11
27.9473772879
 21
56.2411371379
  0
LINE
  5
2AF
100
AcDbEntity
  8
0
100
AcDbLine
 62
7
  6
BYLAYER
 10
22.0268168234
 20
56.2411371385
 11
21.8336316573
 21
56.2411371385
  0
LINE
  5
2B0
100
AcDbEntity
  8
0
100
AcDbLine
 62
7
  6
BYLAYER
 10
22.4085116457
 20
56.2458126467
 11
23.8042543427
 21
56.2458126467
  0
LINE
  5
2B1
100
AcDbEntity
  8
0
100
AcDbLine
 62
7
  6
BYLAYER
 10
26.1699397684
 20
56.2458126467
 11
27.5656824655
 21
56.2458126467
  0
LINE
  5
2B2
100
AcDbEntity
  8
0
100
AcDbLine
 62
7
  6
BYLAYER
 10
25.2042543022
 20
56.2669868354
 11
24.7699397681
 21
56.2669868354
  0
LINE
  5
2B3
100
AcDbEntity
  8
0
100
AcDbLine
 62
7
  6
BYLAYER
 10
9.2870167961
 20
56.2740420714
 11
57.4908516753
 21
56.2740420714
  0
LINE
  5
2B4
100
AcDbEntity
  8
0
100
AcDbLine
 62
7
  6
BYLAYER
 10
25.2042543022
 20
56.4601720038
 11
24.7699397681
 21
56.4601720038
  0
LINE
  5
2B5
100
AcDbEntity
  8
0
100
AcDbLine
 62
7
  6
BYLAYER
 10
57.2909220499
 20
56.4740420714
 11
9.4870167968
 21
56.4740420714
  0
LINE
  5
2B6
100
AcDbEntity
  8
0
100
AcDbLine
 62
7
  6
BYLAYER
 10
57.4290465163
 20
56.3311159396
 11
52.2709779954
 21
56.3430943402
  0
LINE
  5
2B7
100
AcDbEntity
  8
0
100
AcDbLine
 62
7
  6
BYLAYER
 10
24.4870970554
 20
56.4287798001
 11
23.8042543427
 21
56.2458126467
  0
LINE
  5
2B8
100
AcDbEntity
  8
0
100
AcDbLine
 62
7
  6
BYLAYER
 10
48.5870167961
 20
49.6514924996
 11
48.5870167961
 21
40.2966918022
  0
LINE
  5
2B9
100
AcDbEntity
  8
0
100
AcDbLine
 62
7
  6
BYLAYER
 10
52.1370070804
 20
33.4740420714
 11
52.1370070814
 21
33.6740420714
  0
LINE
  5
2BA
100
AcDbEntity
  8
0
100
AcDbLine
 62
7
  6
BYLAYER
 10
52.1370070814
 20
56.2740420714
 11
52.1370070818
 21
56.4740420714
  0
LINE
  5
2BB
100
AcDbEntity
  8
0
100
AcDbLine
 62
7
  6
BYLAYER
 10
56.1633356164
 20
56.4740420714
 11
56.1633356164
 21
33.4740420714
  0
LINE
  5
2BC
100
AcDbEntity
  8
0
100
AcDbLine
 62
7
  6
BYLAYER
 10
56.3632652418
 20
33.6740420714
 11
56.3632652418
 21
56.2740420714
  0
LWPOLYLINE
  5
2BD
100
AcDbEntity
  8
0
100
AcDbPolyline
 62
7
  6
BYLAYER
 90
4
 70
0
 10
57.490907182
 20
33.6719502222
 10
57.5489954415
 20
41.4093122735
 10
57.5492759814
 20
48.4624789908
 10
57.4909071074
 20
56.2761340445
  0
ARC
  5
2BE
100
AcDbEntity
  8
0
100
AcDbCircle
 62
7
  6
BYLAYER
 10
-927.9220201838
 20
44.9740095188
 40
985.4774049297
100
AcDbArc
 50
359.3430017091
 51
0.657002081
  0
ARC
  5
2BF
100
AcDbEntity
  8
0
100
AcDbCircle
 62
7
  6
BYLAYER
 10
-843.1215419674
 20
44.9740420701
 40
900.6605685219
100
AcDbArc
 50
359.3447480754
 51
0.6552519249
  0
ARC
  5
2C0
100
AcDbEntity
  8
0
100
AcDbCircle
 62
7
  6
BYLAYER
 10
-843.1415346497
 20
44.9740420709
 40
900.6605682417
100
AcDbArc
 50
359.3447480751
 51
0.655251925
  0
ARC
  5
2C1
100
AcDbEntity
  8
0
100
AcDbCircle
 62
7
  6
BYLAYER
 10
-779.4380420567
 20
44.9740020731
 40
836.9430074427
100
AcDbArc
 50
359.2225061894
 51
0.7774992738
  0
ARC
  5
2C2
100
AcDbEntity
  8
0
100
AcDbCircle
 62
7
  6
BYLAYER
 10
9.4870167961
 20
33.6740420714
 40
0.2
100
AcDbArc
 50
180.0
 51
269.9999999771
  0
ARC
  5
2C3
100
AcDbEntity
  8
0
100
AcDbCircle
 62
7
  6
BYLAYER
 10
10.9370970555
 20
33.6740420714
 40
0.2
100
AcDbArc
 50
270.000000106
 51
360.0
  0
ARC
  5
2C4
100
AcDbEntity
  8
0
100
AcDbCircle
 62
7
  6
BYLAYER
 10
9.4870167961
 20
56.2740420714
 40
0.2
100
AcDbArc
 50
90.0
 51
180.0000000157
  0
ARC
  5
2C5
100
AcDbEntity
  8
0
100
AcDbCircle
 62
7
  6
BYLAYER
 10
10.9370970555
 20
56.2740420714
 40
0.2
100
AcDbArc
 50
0.0
 51
90.0000001021
  0
ARC
  5
2C6
100
AcDbEntity
  8
0
100
AcDbCircle
 62
7
  6
BYLAYER
 10
24.6557987872
 20
36.7969911636
 40
0.653924688
100
AcDbArc
 50
102.9350175631
 51
104.950492411
  0
ARC
  5
2C7
100
AcDbEntity
  8
0
100
AcDbCircle
 62
7
  6
BYLAYER
 10
25.3233242816
 20
36.8168382285
 40
0.6334779828
100
AcDbArc
 50
75.0171204593
 51
77.0976055887
  0
ARC
  5
2C8
100
AcDbEntity
  8
0
100
AcDbCircle
 62
7
  6
BYLAYER
 10
27.7315611723
 20
33.706905148
 40
0.4090012834
100
AcDbArc
 50
355.3913407862
 51
0.0058635212
  0
ARC
  5
2C9
100
AcDbEntity
  8
0
100
AcDbCircle
 62
7
  6
BYLAYER
 10
22.2426159194
 20
33.7069049986
 40
0.4089842673
100
AcDbArc
 50
179.9941154409
 51
184.6088304138
  0
ARC
  5
2CA
100
AcDbEntity
  8
0
100
AcDbCircle
 62
7
  6
BYLAYER
 10
23.6658043385
 20
33.9329656352
 40
0.2823737097
100
AcDbArc
 50
350.4413154882
 51
352.36658074
  0
ARC
  5
2CB
100
AcDbEntity
  8
0
100
AcDbCircle
 62
7
  6
BYLAYER
 10
27.7315619331
 20
33.6941366644
 40
0.2161952184
100
AcDbArc
 50
358.7719223774
 51
3.3969695915
  0
ARC
  5
2CC
100
AcDbEntity
  8
0
100
AcDbCircle
 62
7
  6
BYLAYER
 10
22.242623138
 20
33.6941371787
 40
0.216186164
100
AcDbArc
 50
176.6030246302
 51
181.2282443128
  0
ARC
  5
2CD
100
AcDbEntity
  8
0
100
AcDbCircle
 62
7
  6
BYLAYER
 10
15.6370970555
 20
33.6740420714
 40
0.2
100
AcDbArc
 50
180.0
 51
269.999999894
  0
ARC
  5
2CE
100
AcDbEntity
  8
0
100
AcDbCircle
 62
7
  6
BYLAYER
 10
56.1632979769
 20
33.674004448
 40
0.1999648243
100
AcDbArc
 50
270.0108668714
 51
0.0107800755
  0
ARC
  5
2CF
100
AcDbEntity
  8
0
100
AcDbCircle
 62
7
  6
BYLAYER
 10
57.2908844825
 20
33.6740044462
 40
0.1999648221
100
AcDbArc
 50
270.0108661407
 51
0.0107805968
  0
ARC
  5
2D0
100
AcDbEntity
  8
0
100
AcDbCircle
 62
7
  6
BYLAYER
 10
29.9381682163
 20
44.9740420717
 40
25.060650014
100
AcDbArc
 50
333.0222845347
 51
26.9777154632
  0
ARC
  5
2D1
100
AcDbEntity
  8
0
100
AcDbCircle
 62
7
  6
BYLAYER
 10
29.9381682163
 20
44.9740420717
 40
24.9094047904
100
AcDbArc
 50
333.0222845339
 51
26.9777154646
  0
CIRCLE
  5
2D2
100
AcDbEntity
  8
0
100
AcDbCircle
 62
7
  6
BYLAYER
 10
15.6816143405
 20
44.9740420713
 40
6.5
  0
CIRCLE
  5
2D3
100
AcDbEntity
  8
0
100
AcDbCircle
 62
7
  6
BYLAYER
 10
15.6816143405
 20
44.9740420713
 40
6.4742788094
  0
CIRCLE
  5
2D4
100
AcDbEntity
  8
0
100
AcDbCircle
 62
7
  6
BYLAYER
 10
15.6816143405
 20
44.9740420713
 40
6.0
  0
CIRCLE
  5
2D5
100
AcDbEntity
  8
0
100
AcDbCircle
 62
7
  6
BYLAYER
 10
15.6816143405
 20
44.9740420713
 40
5.4
  0
CIRCLE
  5
2D6
100
AcDbEntity
  8
0
100
AcDbCircle
 62
7
  6
BYLAYER
 10
15.6816143405
 20
44.9740420713
 40
5.2990480155
  0
CIRCLE
  5
2D7
100
AcDbEntity
  8
0
100
AcDbCircle
 62
7
  6
BYLAYER
 10
15.6816143405
 20
44.9740420713
 40
5.2441510942
  0
CIRCLE
  5
2D8
100
AcDbEntity
  8
0
100
AcDbCircle
 62
7
  6
BYLAYER
 10
15.6816143405
 20
44.9740420713
 40
5.15
  0
CIRCLE
  5
2D9
100
AcDbEntity
  8
0
100
AcDbCircle
 62
7
  6
BYLAYER
 10
15.6816143405
 20
44.9740420713
 40
4.9893427711
  0
CIRCLE
  5
2DA
100
AcDbEntity
  8
0
100
AcDbCircle
 62
7
  6
BYLAYER
 10
15.6816143405
 20
44.9740420713
 40
4.81281343
  0
CIRCLE
  5
2DB
100
AcDbEntity
  8
0
100
AcDbCircle
 62
7
  6
BYLAYER
 10
28.2870167962
 20
44.973605697
 40
2.7
  0
CIRCLE
  5
2DC
100
AcDbEntity
  8
0
100
AcDbCircle
 62
7
  6
BYLAYER
 10
28.2870167962
 20
44.973605697
 40
2.6
  0
CIRCLE
  5
2DD
100
AcDbEntity
  8
0
100
AcDbCircle
 62
7
  6
BYLAYER
 10
28.2870167962
 20
44.973605697
 40
2.5
  0
CIRCLE
  5
2DE
100
AcDbEntity
  8
0
100
AcDbCircle
 62
7
  6
BYLAYER
 10
28.2870167962
 20
44.973605697
 40
2.4173648178
  0
CIRCLE
  5
2DF
100
AcDbEntity
  8
0
100
AcDbCircle
 62
7
  6
BYLAYER
 10
28.2870167962
 20
44.973605697
 40
2.0
  0
ARC
  5
2E0
100
AcDbEntity
  8
0
100
AcDbCircle
 62
7
  6
BYLAYER
 10
28.9149718524
 20
44.830274402
 40
0.9257903054
100
AcDbArc
 50
61.8048304875
 51
89.5448175122
  0
ARC
  5
2E1
100
AcDbEntity
  8
0
100
AcDbCircle
 62
7
  6
BYLAYER
 10
28.8135645649
 20
44.9456187069
 40
0.917421543
100
AcDbArc
 50
358.7402266588
 51
26.7309815589
  0
ARC
  5
2E2
100
AcDbEntity
  8
0
100
AcDbCircle
 62
7
  6
BYLAYER
 10
28.9736052919
 20
44.8539000317
 40
0.7129865794
100
AcDbArc
 50
243.6785123645
 51
270.9223183334
  0
ARC
  5
2E3
100
AcDbEntity
  8
0
100
AcDbCircle
 62
7
  6
BYLAYER
 10
28.9519313516
 20
44.7968640668
 40
0.6522800605
100
AcDbArc
 50
215.125776969
 51
243.1634709306
  0
ARC
  5
2E4
100
AcDbEntity
  8
0
100
AcDbCircle
 62
7
  6
BYLAYER
 10
27.8372666852
 20
44.9097539633
 40
0.5668817859
100
AcDbArc
 50
206.3868050029
 51
237.143164718
  0
ARC
  5
2E5
100
AcDbEntity
  8
0
100
AcDbCircle
 62
7
  6
BYLAYER
 10
29.023607318
 20
44.7874967588
 40
0.3642010904
100
AcDbArc
 50
268.5941224587
 51
320.2174676644
  0
ARC
  5
2E6
100
AcDbEntity
  8
0
100
AcDbCircle
 62
7
  6
BYLAYER
 10
957.0954138918
 20
44.9740420701
 40
900.6604060917
100
AcDbArc
 50
179.3447479569
 51
180.6552520428
  0
ARC
  5
2E7
100
AcDbEntity
  8
0
100
AcDbCircle
 62
7
  6
BYLAYER
 10
912.0727893812
 20
44.7064240174
 40
855.6573765514
100
AcDbArc
 50
179.9820799976
 51
180.6717949268
  0
ARC
  5
2E8
100
AcDbEntity
  8
0
100
AcDbCircle
 62
7
  6
BYLAYER
 10
938.8968302622
 20
45.0889167623
 40
882.4815901052
100
AcDbArc
 50
179.3387082894
 51
180.0074583259
  0
ARC
  5
2E9
100
AcDbEntity
  8
0
100
AcDbCircle
 62
7
  6
BYLAYER
 10
27.7346032736
 20
44.9819277007
 40
0.8406055333
100
AcDbArc
 50
89.3700512165
 51
119.4958791254
  0
ARC
  5
2EA
100
AcDbEntity
  8
0
100
AcDbCircle
 62
7
  6
BYLAYER
 10
27.7436285537
 20
45.0861165064
 40
0.7502702843
100
AcDbArc
 50
25.7764883872
 51
57.5023003149
  0
ARC
  5
2EB
100
AcDbEntity
  8
0
100
AcDbCircle
 62
7
  6
BYLAYER
 10
27.6780435262
 20
45.072877284
 40
0.7336095041
100
AcDbArc
 50
119.1483987504
 51
151.9951691085
  0
ARC
  5
2EC
100
AcDbEntity
  8
0
100
AcDbCircle
 62
7
  6
BYLAYER
 10
27.9579030841
 20
44.9755593431
 40
0.7042155984
100
AcDbArc
 50
179.1213340639
 51
206.820878018
  0
ARC
  5
2ED
100
AcDbEntity
  8
0
100
AcDbCircle
 62
7
  6
BYLAYER
 10
29.0144788664
 20
45.0363222663
 40
0.6972435039
100
AcDbArc
 50
27.5003029256
 51
61.0115787118
  0
ARC
  5
2EE
100
AcDbEntity
  8
0
100
AcDbCircle
 62
7
  6
BYLAYER
 10
25.3184211193
 20
53.1509972696
 40
0.6538255606
100
AcDbArc
 50
282.9346548627
 51
284.9504662012
  0
ARC
  5
2EF
100
AcDbEntity
  8
0
100
AcDbCircle
 62
7
  6
BYLAYER
 10
24.6508630093
 20
53.1312173987
 40
0.6334486481
100
AcDbArc
 50
255.0170857185
 51
257.0976363703
  0
ARC
  5
2F0
100
AcDbEntity
  8
0
100
AcDbCircle
 62
7
  6
BYLAYER
 10
27.7018196008
 20
45.1128575807
 40
0.4255605285
100
AcDbArc
 50
88.3293091372
 51
138.7684709779
  0
ARC
  5
2F1
100
AcDbEntity
  8
0
100
AcDbCircle
 62
7
  6
BYLAYER
 10
27.731569649
 20
56.2411790592
 40
0.4089928067
100
AcDbArc
 50
359.9941274399
 51
4.6087458887
  0
ARC
  5
2F2
100
AcDbEntity
  8
0
100
AcDbCircle
 62
7
  6
BYLAYER
 10
22.242624131
 20
56.2411791415
 40
0.4089924775
100
AcDbArc
 50
175.3912619411
 51
180.005884214
  0
ARC
  5
2F3
100
AcDbEntity
  8
0
100
AcDbCircle
 62
7
  6
BYLAYER
 10
27.723320213
 20
45.1327033424
 40
0.4056358028
100
AcDbArc
 50
60.4663440923
 51
91.2845479689
  0
ARC
  5
2F4
100
AcDbEntity
  8
0
100
AcDbCircle
 62
7
  6
BYLAYER
 10
27.7157260002
 20
45.1472590355
 40
0.396954176
100
AcDbArc
 50
26.9071468458
 51
58.4766020648
  0
ARC
  5
2F5
100
AcDbEntity
  8
0
100
AcDbCircle
 62
7
  6
BYLAYER
 10
22.5103769389
 20
56.2740564827
 40
0.2819388281
100
AcDbArc
 50
174.5978664875
 51
180.0029286759
  0
ARC
  5
2F6
100
AcDbEntity
  8
0
100
AcDbCircle
 62
7
  6
BYLAYER
 10
27.7315662295
 20
56.2539472497
 40
0.2161909166
100
AcDbArc
 50
356.6030235247
 51
1.2281624704
  0
ARC
  5
2F7
100
AcDbEntity
  8
0
100
AcDbCircle
 62
7
  6
BYLAYER
 10
22.2426270881
 20
56.2539472129
 40
0.2161901223
100
AcDbArc
 50
178.7718438928
 51
183.3969793024
  0
ARC
  5
2F8
100
AcDbEntity
  8
0
100
AcDbCircle
 62
7
  6
BYLAYER
 10
15.6370970555
 20
56.2740420714
 40
0.2
100
AcDbArc
 50
89.9999998979
 51
180.0
  0
ARC
  5
2F9
100
AcDbEntity
  8
0
100
AcDbCircle
 62
7
  6
BYLAYER
 10
57.2908844132
 20
56.2740796968
 40
0.1999648219
100
AcDbArc
 50
359.9892193445
 51
89.9892158481
  0
ARC
  5
2FA
100
AcDbEntity
  8
0
100
AcDbCircle
 62
7
  6
BYLAYER
 10
56.1632994394
 20
56.274082212
 40
0.1999620657
100
AcDbArc
 50
359.98849859
 51
89.9896339769
  0
SPLINE
  5
2FB
100
AcDbEntity
  8
0
100
AcDbSpline
 62
7
  6
BYLAYER
 70
0
 71
3
 72
11
 73
7
 74
0
 42
0.0000001
 43
0.0000001
 44
0.0000000001
 40
0.0
 40
0.0
 40
0.0
 40
0.0
 40
0.2584492286
 40
0.5044792614
 40
0.7482431357
 40
1.0
 40
1.0
 40
1.0
 40
1.0
 10
27.7541921234
 20
52.3205766737
 30
0.0
 10
27.8062811234
 20
52.320576674
 30
0.0
 10
27.9091277696
 20
52.3407263225
 30
0.0
 10
28.037825156
 20
52.4266849113
 30
0.0
 10
28.1212914748
 20
52.5552665792
 30
0.0
 10
28.1405624517
 20
52.6562068116
 30
0.0
 10
28.1405624526
 20
52.7069470029
 30
0.0
  0
SPLINE
  5
2FC
100
AcDbEntity
  8
0
100
AcDbSpline
 62
7
  6
BYLAYER
 70
0
 71
3
 72
11
 73
7
 74
0
 42
0.0000001
 43
0.0000001
 44
0.0000000001
 40
0.0
 40
0.0
 40
0.0
 40
0.0
 40
0.2499999903
 40
0.4999999934
 40
0.7499999966
 40
1.0
 40
1.0
 40
1.0
 40
1.0
 10
25.2042541948
 20
52.334419824
 30
0.0
 10
25.2232941856
 20
52.3344198239
 30
0.0
 10
25.2613743314
 20
52.3332242855
 30
0.0
 10
25.3219331511
 20
52.328405141
 30
0.0
 10
25.3888061549
 20
52.3225751214
 30
0.0
 10
25.4386351897
 20
52.3202508697
 30
0.0
 10
25.4647748752
 20
52.3202425914
 30
0.0
  0
SPLINE
  5
2FD
100
AcDbEntity
  8
0
100
AcDbSpline
 62
7
  6
BYLAYER
 70
0
 71
3
 72
11
 73
7
 74
0
 42
0.0000001
 43
0.0000001
 44
0.0000000001
 40
0.0
 40
0.0
 40
0.0
 40
0.0
 40
0.2500000899
 40
0.50000006
 40
0.75000003
 40
1.0
 40
1.0
 40
1.0
 40
1.0
 10
24.5094192126
 20
52.3202437851
 30
0.0
 10
24.5355597823
 20
52.3202520358
 30
0.0
 10
24.5853907226
 20
52.3225763964
 30
0.0
 10
24.6522767941
 20
52.3284064984
 30
0.0
 10
24.7128362882
 20
52.3332254823
 30
0.0
 10
24.7509022949
 20
52.3344208565
 30
0.0
 10
24.7699397483
 20
52.3344208241
 30
0.0
  0
SPLINE
  5
2FE
100
AcDbEntity
  8
0
100
AcDbSpline
 62
7
  6
BYLAYER
 70
0
 71
3
 72
11
 73
7
 74
0
 42
0.0000001
 43
0.0000001
 44
0.0000000001
 40
0.0
 40
0.0
 40
0.0
 40
0.0
 40
0.258453145
 40
0.5044843261
 40
0.748248895
 40
1.0
 40
1.0
 40
1.0
 40
1.0
 10
21.8336316573
 20
52.7069470047
 30
0.0
 10
21.8336316574
 20
52.6548572307
 30
0.0
 10
21.8537821468
 20
52.5520097163
 30
0.0
 10
21.93974165
 20
52.4233113433
 30
0.0
 10
22.0683241771
 20
52.3398479105
 30
0.0
 10
22.1692629727
 20
52.3205766746
 30
0.0
 10
22.2200019883
 20
52.3205766737
 30
0.0
  0
SPLINE
  5
2FF
100
AcDbEntity
  8
0
100
AcDbSpline
 62
7
  6
BYLAYER
 70
0
 71
3
 72
11
 73
7
 74
0
 42
0.0000001
 43
0.0000001
 44
0.0000000001
 40
0.0
 40
0.0
 40
0.0
 40
0.0
 40
0.2499999976
 40
0.4999999983
 40
0.749999999
 40
1.0
 40
1.0
 40
1.0
 40
1.0
 10
24.7699397674
 20
37.6136647014
 30
0.0
 10
24.7509049534
 20
37.6136647014
 30
0.0
 10
24.7128327219
 20
37.6148598983
 30
0.0
 10
24.6522710538
 20
37.6196781023
 30
0.0
 10
24.585390171
 20
37.6255084626
 30
0.0
 10
24.5355595305
 20
37.6278338066
 30
0.0
 10
24.5094191271
 20
37.6278420998
 30
0.0
  0
SPLINE
  5
300
100
AcDbEntity
  8
0
100
AcDbSpline
 62
7
  6
BYLAYER
 70
0
 71
3
 72
11
 73
7
 74
0
 42
0.0000001
 43
0.0000001
 44
0.0000000001
 40
0.0
 40
0.0
 40
0.0
 40
0.0
 40
0.25
 40
0.5
 40
0.75
 40
1.0
 40
1.0
 40
1.0
 40
1.0
 10
25.4647749117
 20
37.6278421332
 30
0.0
 10
25.4386378966
 20
37.6278338416
 30
0.0
 10
25.3888146805
 20
37.6255099545
 30
0.0
 10
25.3219459563
 20
37.619679933
 30
0.0
 10
25.2613794617
 20
37.6148604273
 30
0.0
 10
25.2232917251
 20
37.6136648273
 30
0.0
 10
25.2042542133
 20
37.6136647732
 30
0.0
  0
SPLINE
  5
301
100
AcDbEntity
  8
0
100
AcDbSpline
 62
7
  6
BYLAYER
 70
0
 71
3
 72
15
 73
11
 74
0
 42
0.0000001
 43
0.0000001
 44
0.0000000001
 40
0.0
 40
0.0
 40
0.0
 40
0.0
 40
0.2215419286
 40
0.4025817013
 40
0.5584669826
 40
0.6802613049
 40
0.7662077515
 40
0.8125743814
 40
0.8888069
 40
1.0
 40
1.0
 40
1.0
 40
1.0
 10
28.1392400672
 20
56.2740420714
 30
0.0
 10
28.1338354892
 20
56.2945893209
 30
0.0
 10
28.121940417
 20
56.3319396806
 30
0.0
 10
28.0901441064
 20
56.3756277912
 30
0.0
 10
28.0585743488
 20
56.4068566415
 30
0.0
 10
28.0348657054
 20
56.4309079212
 30
0.0
 10
28.0141305437
 20
56.4480341732
 30
0.0
 10
28.0185262153
 20
56.4715481319
 30
0.0
 10
28.0455553001
 20
56.4721664058
 30
0.0
 10
28.061914955
 20
56.4740420714
 30
0.0
 10
28.0725785138
 20
56.4740420714
 30
0.0
  0
SPLINE
  5
302
100
AcDbEntity
  8
0
100
AcDbSpline
 62
7
  6
BYLAYER
 70
0
 71
3
 72
39
 73
35
 74
0
 42
0.0000001
 43
0.0000001
 44
0.0000000001
 40
0.0
 40
0.0
 40
0.0
 40
0.0
 40
0.0096051797
 40
0.0173477228
 40
0.0251697319
 40
0.0336378151
 40
0.041072904
 40
0.045466148
 40
0.0504876219
 40
0.055171715
 40
0.0633168728
 40
0.0681127767
 40
0.0732045968
 40
0.0777771227
 40
0.0861808402
 40
0.0956131158
 40
0.1063151818
 40
0.1165868251
 40
0.1368165853
 40
0.1576095245
 40
0.1789703686
 40
0.2009018995
 40
0.2440319685
 40
0.2892249627
 40
0.3859112351
 40
0.4823517108
 40
0.5865676032
 40
0.6879631602
 40
0.7409998454
 40
0.7954797757
 40
0.8404149829
 40
0.8880401575
 40
0.943473007
 40
1.0
 40
1.0
 40
1.0
 40
1.0
 10
27.9197665075
 20
56.4740397854
 30
0.0
 10
27.9195966827
 20
56.4733623258
 30
0.0
 10
27.9193155299
 20
56.4721321791
 30
0.0
 10
27.9189732267
 20
56.4703341116
 30
0.0
 10
27.9186948007
 20
56.4686085497
 30
0.0
 10
27.9184871126
 20
56.4668957674
 30
0.0
 10
27.918326434
 20
56.4654285611
 30
0.0
 10
27.9182325139
 20
56.4642068589
 30
0.0
 10
27.9181678897
 20
56.4631837297
 30
0.0
 10
27.9180952772
 20
56.4618877573
 30
0.0
 10
27.9180526693
 20
56.4606066826
 30
0.0
 10
27.9180359476
 20
56.4592955564
 30
0.0
 10
27.918026838
 20
56.4582441416
 30
0.0
 10
27.9180321689
 20
56.4569303012
 30
0.0
 10
27.9180824406
 20
56.4553014743
 30
0.0
 10
27.9181790862
 20
56.4532286618
 30
0.0
 10
27.9182979
 20
56.4510208242
 30
0.0
 10
27.9185295474
 20
56.448033522
 30
0.0
 10
27.9189183034
 20
56.4443234685
 30
0.0
 10
27.9195038178
 20
56.4398249563
 30
0.0
 10
27.9202062119
 20
56.4352180435
 30
0.0
 10
27.9212622698
 20
56.4290231366
 30
0.0
 10
27.9227717711
 20
56.4211488621
 30
0.0
 10
27.9255206752
 20
56.4079798793
 30
0.0
 10
27.9292723938
 20
56.3910617334
 30
0.0
 10
27.9338194612
 20
56.3699243627
 30
0.0
 10
27.938054127
 20
56.3483709557
 30
0.0
 10
27.9411199059
 20
56.3298120734
 30
0.0
 10
27.9432527828
 20
56.3147715392
 30
0.0
 10
27.9446252619
 20
56.3037706419
 30
0.0
 10
27.9457126169
 20
56.2931338868
 30
0.0
 10
27.9466444852
 20
56.28241239
 30
0.0
 10
27.9473198624
 20
56.2708268452
 30
0.0
 10
27.9476225034
 20
56.2626906142
 30
0.0
 10
27.9477118354
 20
56.25858134
 30
0.0
  0
SPLINE
  5
303
100
AcDbEntity
  8
0
100
AcDbSpline
 62
7
  6
BYLAYER
 70
0
 71
3
 72
11
 73
7
 74
0
 42
0.0000001
 43
0.0000001
 44
0.0000000001
 40
0.0
 40
0.0
 40
0.0
 40
0.0
 40
0.2691127668
 40
0.5127633222
 40
0.7487644145
 40
1.0
 40
1.0
 40
1.0
 40
1.0
 10
27.7541921231
 20
52.5137618389
 30
0.0
 10
27.7818967441
 20
52.5121583075
 30
0.0
 10
27.8361676914
 20
52.5193574954
 30
0.0
 10
27.9031625304
 20
52.562817633
 30
0.0
 10
27.9428522993
 20
52.6296746049
 30
0.0
 10
27.9489685702
 20
52.6810884321
 30
0.0
 10
27.9473772879
 20
52.7069470041
 30
0.0
  0
SPLINE
  5
304
100
AcDbEntity
  8
0
100
AcDbSpline
 62
7
  6
BYLAYER
 70
0
 71
3
 72
10
 73
6
 74
0
 42
0.0000001
 43
0.0000001
 44
0.0000000001
 40
0.0
 40
0.0
 40
0.0
 40
0.0
 40
0.3231819528
 40
0.658434193
 40
1.0
 40
1.0
 40
1.0
 40
1.0
 10
25.2042542093
 20
52.5078922499
 30
0.0
 10
25.2323315752
 20
52.5079400114
 30
0.0
 10
25.2895366634
 20
52.5081419358
 30
0.0
 10
25.376402944
 20
52.509051666
 30
0.0
 10
25.4351989016
 20
52.5113449744
 30
0.0
 10
25.4647748757
 20
52.5137618387
 30
0.0
  0
SPLINE
  5
305
100
AcDbEntity
  8
0
100
AcDbSpline
 62
7
  6
BYLAYER
 70
0
 71
3
 72
12
 73
8
 74
0
 42
0.0000001
 43
0.0000001
 44
0.0000000001
 40
0.0
 40
0.0
 40
0.0
 40
0.0
 40
0.2737609909
 40
0.5397180733
 40
0.6654250731
 40
0.7844072626
 40
1.0
 40
1.0
 40
1.0
 40
1.0
 10
25.3456756995
 20
52.7124895079
 30
0.0
 10
25.3487290692
 20
52.6896988457
 30
0.0
 10
25.3602644895
 20
52.6453519789
 30
0.0
 10
25.3869937292
 20
52.5955517616
 30
0.0
 10
25.4146971023
 20
52.5625952557
 30
0.0
 10
25.443720193
 20
52.5369709196
 30
0.0
 10
25.469529227
 20
52.5236962998
 30
0.0
 10
25.4870970557
 20
52.5193043426
 30
0.0
  0
SPLINE
  5
306
100
AcDbEntity
  8
0
100
AcDbSpline
 62
7
  6
BYLAYER
 70
0
 71
3
 72
10
 73
6
 74
0
 42
0.0000001
 43
0.0000001
 44
0.0000000001
 40
0.0
 40
0.0
 40
0.0
 40
0.0
 40
0.3462776546
 40
0.6862991922
 40
1.0
 40
1.0
 40
1.0
 40
1.0
 10
25.2042543439
 20
52.6810973015
 30
0.0
 10
25.2211132866
 20
52.681115704
 30
0.0
 10
25.2545766963
 20
52.6834591268
 30
0.0
 10
25.3023277344
 20
52.6936223933
 30
0.0
 10
25.3322302573
 20
52.705245073
 30
0.0
 10
25.3456756994
 20
52.7124895079
 30
0.0
  0
SPLINE
  5
307
100
AcDbEntity
  8
0
100
AcDbSpline
 62
7
  6
BYLAYER
 70
0
 71
3
 72
13
 73
9
 74
0
 42
0.0000001
 43
0.0000001
 44
0.0000000001
 40
0.0
 40
0.0
 40
0.0
 40
0.0
 40
0.2314789513
 40
0.4336401161
 40
0.6067826908
 40
0.7501717874
 40
0.8782560154
 40
1.0
 40
1.0
 40
1.0
 40
1.0
 10
26.0285184121
 20
52.8954566613
 30
0.0
 10
26.031103831
 20
52.8761588325
 30
0.0
 10
26.0397105011
 20
52.8404019633
 30
0.0
 10
26.0609401941
 20
52.7936950513
 30
0.0
 10
26.085984271
 20
52.7576748557
 30
0.0
 10
26.1126531056
 20
52.7311642487
 30
0.0
 10
26.1402385092
 20
52.71255659
 30
0.0
 10
26.1600053364
 20
52.704755104
 30
0.0
 10
26.1699397684
 20
52.702271496
 30
0.0
  0
SPLINE
  5
308
100
AcDbEntity
  8
0
100
AcDbSpline
 62
7
  6
BYLAYER
 70
0
 71
3
 72
10
 73
6
 74
0
 42
0.0000001
 43
0.0000001
 44
0.0000000001
 40
0.0
 40
0.0
 40
0.0
 40
0.0
 40
0.3617285715
 40
0.7027311913
 40
1.0
 40
1.0
 40
1.0
 40
1.0
 10
24.7699399537
 20
56.4601720067
 30
0.0
 10
24.7355478952
 20
56.4601720113
 30
0.0
 10
24.6687055341
 20
56.4578639605
 30
0.0
 10
24.5740919863
 20
56.4477858505
 30
0.0
 10
24.5143974212
 20
56.4360949114
 30
0.0
 10
24.4870970547
 20
56.4287798002
 30
0.0
  0
SPLINE
  5
309
100
AcDbEntity
  8
0
100
AcDbSpline
 62
7
  6
BYLAYER
 70
0
 71
3
 72
11
 73
7
 74
0
 42
0.0000001
 43
0.0000001
 44
0.0000000001
 40
0.0
 40
0.0
 40
0.0
 40
0.0
 40
0.214726421
 40
0.4587147584
 40
0.7237952414
 40
1.0
 40
1.0
 40
1.0
 40
1.0
 10
25.4870809197
 20
56.4287757699
 30
0.0
 10
25.4673593871
 20
56.4340602419
 30
0.0
 10
25.4246519875
 20
56.4432153686
 30
0.0
 10
25.3564630978
 20
56.4528293749
 30
0.0
 10
25.2819959302
 20
56.4588192404
 30
0.0
 10
25.23051727
 20
56.4601665627
 30
0.0
 10
25.2042543432
 20
56.4601665529
 30
0.0
  0
SPLINE
  5
30A
100
AcDbEntity
  8
0
100
AcDbSpline
 62
7
  6
BYLAYER
 70
0
 71
3
 72
10
 73
6
 74
0
 42
0.0000001
 43
0.0000001
 44
0.0000000001
 40
0.0
 40
0.0
 40
0.0
 40
0.0
 40
0.3139756735
 40
0.654912061
 40
1.0
 40
1.0
 40
1.0
 40
1.0
 10
25.3456756994
 20
56.2355945715
 30
0.0
 10
25.3322141345
 20
56.2428353702
 30
0.0
 10
25.3022497417
 20
56.2544541692
 30
0.0
 10
25.2544999554
 20
56.2645974956
 30
0.0
 10
25.2210543655
 20
56.2669696203
 30
0.0
 10
25.2042543439
 20
56.2669868447
 30
0.0
  0
SPLINE
  5
30B
100
AcDbEntity
  8
0
100
AcDbSpline
 62
7
  6
BYLAYER
 70
0
 71
3
 72
12
 73
8
 74
0
 42
0.0000001
 43
0.0000001
 44
0.0000000001
 40
0.0
 40
0.0
 40
0.0
 40
0.0
 40
0.2155928342
 40
0.3345750484
 40
0.4602820548
 40
0.7262390993
 40
1.0
 40
1.0
 40
1.0
 40
1.0
 10
25.4870970994
 20
56.4287797558
 30
0.0
 10
25.4695292552
 20
56.4243877988
 30
0.0
 10
25.4437201972
 20
56.4111131815
 30
0.0
 10
25.4146970741
 20
56.3854888436
 30
0.0
 10
25.386993674
 20
56.3525323401
 30
0.0
 10
25.3602644057
 20
56.3027321249
 30
0.0
 10
25.3487289714
 20
56.2583852543
 30
0.0
 10
25.345675598
 20
56.2355945915
 30
0.0
  0
SPLINE
  5
30C
100
AcDbEntity
  8
0
100
AcDbSpline
 62
7
  6
BYLAYER
 70
0
 71
3
 72
12
 73
8
 74
0
 42
0.0000001
 43
0.0000001
 44
0.0000000001
 40
0.0
 40
0.0
 40
0.0
 40
0.0
 40
0.2737609913
 40
0.5397180725
 40
0.6654250718
 40
0.7844072607
 40
1.0
 40
1.0
 40
1.0
 40
1.0
 10
24.6285184119
 20
56.2355946343
 30
0.0
 10
24.6254650422
 20
56.2583852966
 30
0.0
 10
24.6139296218
 20
56.3027321636
 30
0.0
 10
24.587200382
 20
56.3525323811
 30
0.0
 10
24.5594970089
 20
56.3854888869
 30
0.0
 10
24.530473918
 20
56.4111132232
 30
0.0
 10
24.5046648838
 20
56.4243878431
 30
0.0
 10
24.4870970548
 20
56.4287798002
 30
0.0
  0
SPLINE
  5
30D
100
AcDbEntity
  8
0
100
AcDbSpline
 62
7
  6
BYLAYER
 70
0
 71
3
 72
10
 73
6
 74
0
 42
0.0000001
 43
0.0000001
 44
0.0000000001
 40
0.0
 40
0.0
 40
0.0
 40
0.0
 40
0.3452127777
 40
0.6861423435
 40
1.0
 40
1.0
 40
1.0
 40
1.0
 10
24.7699397681
 20
56.2669868416
 30
0.0
 10
24.7531336757
 20
56.2669686449
 30
0.0
 10
24.7196822764
 20
56.2645965396
 30
0.0
 10
24.6719331918
 20
56.2544498717
 30
0.0
 10
24.6419746351
 20
56.242833224
 30
0.0
 10
24.6285184118
 20
56.2355946343
 30
0.0
  0
SPLINE
  5
30E
100
AcDbEntity
  8
0
100
AcDbSpline
 62
7
  6
BYLAYER
 70
0
 71
3
 72
10
 73
6
 74
0
 42
0.0000001
 43
0.0000001
 44
0.0000000001
 40
0.0
 40
0.0
 40
0.0
 40
0.0
 40
0.2944744677
 40
0.6382111014
 40
1.0
 40
1.0
 40
1.0
 40
1.0
 10
23.8042543427
 20
56.2458126467
 30
0.0
 10
23.8281658299
 20
56.2398347749
 30
0.0
 10
23.8758105929
 20
56.2102768755
 30
0.0
 10
23.924293504
 20
56.140299177
 30
0.0
 10
23.9416546623
 20
56.0826409092
 30
0.0
 10
23.9456756991
 20
56.0526274814
 30
0.0
  0
SPLINE
  5
30F
100
AcDbEntity
  8
0
100
AcDbSpline
 62
7
  6
BYLAYER
 70
0
 71
3
 72
10
 73
6
 74
0
 42
0.0000001
 43
0.0000001
 44
0.0000000001
 40
0.0
 40
0.0
 40
0.0
 40
0.0
 40
0.3416450688
 40
0.6769067583
 40
1.0
 40
1.0
 40
1.0
 40
1.0
 10
24.5094191998
 20
52.5137618351
 30
0.0
 10
24.5390020113
 20
52.5113441893
 30
0.0
 10
24.5978056977
 20
52.5090510842
 30
0.0
 10
24.684671942
 20
52.5081411158
 30
0.0
 10
24.7418701341
 20
52.507939553
 30
0.0
 10
24.7699397865
 20
52.5078922327
 30
0.0
  0
SPLINE
  5
310
100
AcDbEntity
  8
0
100
AcDbSpline
 62
7
  6
BYLAYER
 70
0
 71
3
 72
10
 73
6
 74
0
 42
0.0000001
 43
0.0000001
 44
0.0000000001
 40
0.0
 40
0.0
 40
0.0
 40
0.0
 40
0.3138773464
 40
0.6539076376
 40
1.0
 40
1.0
 40
1.0
 40
1.0
 10
24.6285184118
 20
52.7124895714
 30
0.0
 10
24.6419718317
 20
52.7052418023
 30
0.0
 10
24.6718830045
 20
52.6936158724
 30
0.0
 10
24.719635108
 20
52.6834576129
 30
0.0
 10
24.7530898342
 20
52.6811142317
 30
0.0
 10
24.7699397681
 20
52.6810972976
 30
0.0
  0
SPLINE
  5
311
100
AcDbEntity
  8
0
100
AcDbSpline
 62
7
  6
BYLAYER
 70
0
 71
3
 72
12
 73
8
 74
0
 42
0.0000001
 43
0.0000001
 44
0.0000000001
 40
0.0
 40
0.0
 40
0.0
 40
0.0
 40
0.2155926931
 40
0.334574875
 40
0.4602818755
 40
0.7262389777
 40
1.0
 40
1.0
 40
1.0
 40
1.0
 10
24.4870974594
 20
52.5193042668
 30
0.0
 10
24.5046652776
 20
52.5236962311
 30
0.0
 10
24.5304742933
 20
52.536970859
 30
0.0
 10
24.5594973627
 20
52.5625951971
 30
0.0
 10
24.5872007188
 20
52.5955517038
 30
0.0
 10
24.6139299447
 20
52.6453519156
 30
0.0
 10
24.6254653646
 20
52.6896987737
 30
0.0
 10
24.6285187373
 20
52.712489432
 30
0.0
  0
SPLINE
  5
312
100
AcDbEntity
  8
0
100
AcDbSpline
 62
7
  6
BYLAYER
 70
0
 71
3
 72
11
 73
7
 74
0
 42
0.0000001
 43
0.0000001
 44
0.0000000001
 40
0.0
 40
0.0
 40
0.0
 40
0.0
 40
0.2546154671
 40
0.5196514221
 40
0.7708612017
 40
1.0
 40
1.0
 40
1.0
 40
1.0
 10
23.8042543429
 20
52.702271496
 30
0.0
 10
23.8249794791
 20
52.7074527801
 30
0.0
 10
23.8644310911
 20
52.7297932581
 30
0.0
 10
23.9064959371
 20
52.7799825437
 30
0.0
 10
23.9336773781
 20
52.836902856
 30
0.0
 10
23.9431227914
 20
52.8764014986
 30
0.0
 10
23.9456756991
 20
52.8954566613
 30
0.0
  0
SPLINE
  5
313
100
AcDbEntity
  8
0
100
AcDbSpline
 62
7
  6
BYLAYER
 70
0
 71
3
 72
11
 73
7
 74
0
 42
0.0000001
 43
0.0000001
 44
0.0000000001
 40
0.0
 40
0.0
 40
0.0
 40
0.0
 40
0.2546153716
 40
0.5196513606
 40
0.7708611724
 40
1.0
 40
1.0
 40
1.0
 40
1.0
 10
26.1699397369
 20
56.2458126388
 30
0.0
 10
26.1492146125
 20
56.2406313516
 30
0.0
 10
26.109763014
 20
56.2182908768
 30
0.0
 10
26.0676981742
 20
56.1681015992
 30
0.0
 10
26.0405167333
 20
56.1111812868
 30
0.0
 10
26.0310713198
 20
56.0716826441
 30
0.0
 10
26.0285184121
 20
56.0526274814
 30
0.0
  0
SPLINE
  5
314
100
AcDbEntity
  8
0
100
AcDbSpline
 62
7
  6
BYLAYER
 70
0
 71
3
 72
11
 73
7
 74
0
 42
0.0000001
 43
0.0000001
 44
0.0000000001
 40
0.0
 40
0.0
 40
0.0
 40
0.0
 40
0.2691127685
 40
0.5127633233
 40
0.748764415
 40
1.0
 40
1.0
 40
1.0
 40
1.0
 10
22.0268168233
 20
52.7069470043
 30
0.0
 10
22.0252132919
 20
52.6792423831
 30
0.0
 10
22.0324124797
 20
52.6249714355
 30
0.0
 10
22.0758726175
 20
52.5579765963
 30
0.0
 10
22.1427295893
 20
52.5182868274
 30
0.0
 10
22.1941434166
 20
52.5121705565
 30
0.0
 10
22.2200019886
 20
52.5137618388
 30
0.0
  0
SPLINE
  5
315
100
AcDbEntity
  8
0
100
AcDbSpline
 62
7
  6
BYLAYER
 70
0
 71
3
 72
12
 73
8
 74
0
 42
0.0000001
 43
0.0000001
 44
0.0000000001
 40
0.0
 40
0.0
 40
0.0
 40
0.0
 40
0.1726331944
 40
0.3499721671
 40
0.5454379882
 40
0.7553184685
 40
1.0
 40
1.0
 40
1.0
 40
1.0
 10
22.054830992
 20
56.4740506484
 30
0.0
 10
22.0559147373
 20
56.4615601698
 30
0.0
 10
22.0555109411
 20
56.4358813871
 30
0.0
 10
22.0463365884
 20
56.3972527371
 30
0.0
 10
22.0371088697
 20
56.3559628582
 30
0.0
 10
22.0298575816
 20
56.3092956218
 30
0.0
 10
22.0266977676
 20
56.2763496819
 30
0.0
 10
22.0264866119
 20
56.2585810527
 30
0.0
  0
SPLINE
  5
316
100
AcDbEntity
  8
0
100
AcDbSpline
 62
7
  6
BYLAYER
 70
0
 71
3
 72
17
 73
13
 74
0
 42
0.0000001
 43
0.0000001
 44
0.0000000001
 40
0.0
 40
0.0
 40
0.0
 40
0.0
 40
0.1927690319
 40
0.3510794574
 40
0.4852870699
 40
0.6003605203
 40
0.6926177006
 40
0.7599324239
 40
0.7981854561
 40
0.8456740896
 40
0.9131882704
 40
1.0
 40
1.0
 40
1.0
 40
1.0
 10
21.8349540436
 20
56.2740420714
 30
0.0
 10
21.8393291638
 20
56.2921766265
 30
0.0
 10
21.8490583207
 20
56.3251914033
 30
0.0
 10
21.8754607072
 20
56.3645922678
 30
0.0
 10
21.9019531082
 20
56.3938410757
 30
0.0
 10
21.9263071749
 20
56.4163191411
 30
0.0
 10
21.944221995
 20
56.4357427013
 30
0.0
 10
21.9592160307
 20
56.4483946714
 30
0.0
 10
21.9605407272
 20
56.4660977616
 30
0.0
 10
21.9434949017
 20
56.4707866123
 30
0.0
 10
21.925337147
 20
56.4736588503
 30
0.0
 10
21.9100166309
 20
56.4740420714
 30
0.0
 10
21.9016155898
 20
56.4740420714
 30
0.0
  0
SPLINE
  5
317
100
AcDbEntity
  8
0
100
AcDbSpline
 62
7
  6
BYLAYER
 70
0
 71
3
 72
10
 73
6
 74
0
 42
0.0000001
 43
0.0000001
 44
0.0000000001
 40
0.0
 40
0.0
 40
0.0
 40
0.0
 40
0.2868466892
 40
0.6220395712
 40
1.0
 40
1.0
 40
1.0
 40
1.0
 10
9.4870167966
 20
33.4740420714
 30
0.0
 10
9.4639662449
 20
33.4740420714
 30
0.0
 10
9.4135126434
 20
33.4934157627
 30
0.0
 10
9.3644466913
 20
33.560558535
 30
0.0
 10
9.3497122815
 20
33.6172475057
 30
0.0
 10
9.3468478057
 20
33.6474844361
 30
0.0
  0
SPLINE
  5
318
100
AcDbEntity
  8
0
100
AcDbSpline
 62
7
  6
BYLAYER
 70
0
 71
3
 72
10
 73
6
 74
0
 42
0.0000001
 43
0.0000001
 44
0.0000000001
 40
0.0
 40
0.0
 40
0.0
 40
0.0
 40
0.3327867429
 40
0.66622907
 40
1.0
 40
1.0
 40
1.0
 40
1.0
 10
9.3468478057
 20
33.6474844361
 30
0.0
 10
9.346582652
 20
33.6504227538
 30
0.0
 10
9.3460995831
 20
33.6563102428
 30
0.0
 10
9.3456900078
 20
33.6651677617
 30
0.0
 10
9.3455954404
 20
33.6710830891
 30
0.0
 10
9.3455954404
 20
33.6740420714
 30
0.0
  0
SPLINE
  5
319
100
AcDbEntity
  8
0
100
AcDbSpline
 62
7
  6
BYLAYER
 70
0
 71
3
 72
10
 73
6
 74
0
 42
0.0000001
 43
0.0000001
 44
0.0000000001
 40
0.0
 40
0.0
 40
0.0
 40
0.0
 40
0.3598597385
 40
0.6978588111
 40
1.0
 40
1.0
 40
1.0
 40
1.0
 10
9.3455954399
 20
56.2740420714
 30
0.0
 10
9.3455954399
 20
56.2976959752
 30
0.0
 10
9.3513417396
 20
56.3438126046
 30
0.0
 10
9.3763896992
 20
56.4054097508
 30
0.0
 10
9.4043887923
 20
56.4383289272
 30
0.0
 10
9.4202167734
 20
56.4503245547
 30
0.0
  0
SPLINE
  5
31A
100
AcDbEntity
  8
0
100
AcDbSpline
 62
7
  6
BYLAYER
 70
0
 71
3
 72
10
 73
6
 74
0
 42
0.0000001
 43
0.0000001
 44
0.0000000001
 40
0.0
 40
0.0
 40
0.0
 40
0.0
 40
0.346149729
 40
0.677190911
 40
1.0
 40
1.0
 40
1.0
 40
1.0
 10
9.4202167734
 20
56.4503245547
 30
0.0
 10
9.4268396925
 20
56.455343898
 30
0.0
 10
9.4407546292
 20
56.4639978522
 30
0.0
 10
9.4635111733
 20
56.4721871494
 30
0.0
 10
9.479267091
 20
56.4740420714
 30
0.0
 10
9.4870167962
 20
56.4740420714
 30
0.0
  0
SPLINE
  5
31B
100
AcDbEntity
  8
0
100
AcDbSpline
 62
7
  6
BYLAYER
 70
0
 71
3
 72
24
 73
20
 74
0
 42
0.0000001
 43
0.0000001
 44
0.0000000001
 40
0.0
 40
0.0
 40
0.0
 40
0.0
 40
0.0681915551
 40
0.1353344356
 40
0.2002481355
 40
0.261799765
 40
0.3202871799
 40
0.375177057
 40
0.4267433152
 40
0.4759477834
 40
0.5242643094
 40
0.5733483448
 40
0.6246717055
 40
0.6792648414
 40
0.7375235015
 40
0.7990102615
 40
0.8640298661
 40
0.9314371013
 40
1.0
 40
1.0
 40
1.0
 40
1.0
 10
10.5598491318
 20
44.9740420717
 30
0.0
 10
10.5598491318
 20
45.4645548571
 30
0.0
 10
10.6230726707
 20
46.4392625866
 30
0.0
 10
10.9054409258
 20
47.8559835588
 30
0.0
 10
11.3654950284
 20
49.1756199082
 30
0.0
 10
11.9889675961
 20
50.3570721564
 30
0.0
 10
12.7575420167
 20
51.3618312411
 30
0.0
 10
13.6506600681
 20
52.1554244149
 30
0.0
 10
14.6380257719
 20
52.7045858849
 30
0.0
 10
15.6851385529
 20
52.9854546155
 30
0.0
 10
16.752040984
 20
52.9848255869
 30
0.0
 10
17.7963156151
 20
52.7038389381
 30
0.0
 10
18.7795060277
 20
52.1572280018
 30
0.0
 10
19.6693344337
 20
51.3684216142
 30
0.0
 10
20.4370532818
 20
50.3684174571
 30
0.0
 10
21.0620467448
 20
49.1892905635
 30
0.0
 10
21.5248453871
 20
47.8682466814
 30
0.0
 10
21.8096921309
 20
46.4465268206
 30
0.0
 10
21.8735576308
 20
45.4672259909
 30
0.0
 10
21.8735576308
 20
44.9740420717
 30
0.0
  0
SPLINE
  5
31C
100
AcDbEntity
  8
0
100
AcDbSpline
 62
7
  6
BYLAYER
 70
0
 71
3
 72
24
 73
20
 74
0
 42
0.0000001
 43
0.0000001
 44
0.0000000001
 40
0.0
 40
0.0
 40
0.0
 40
0.0
 40
0.0681915551
 40
0.1353344356
 40
0.2002481355
 40
0.261799765
 40
0.3202871799
 40
0.375177057
 40
0.4267433152
 40
0.4759477834
 40
0.5242643094
 40
0.5733483448
 40
0.6246717055
 40
0.6792648414
 40
0.7375235015
 40
0.7990102615
 40
0.8640298661
 40
0.9314371013
 40
1.0
 40
1.0
 40
1.0
 40
1.0
 10
21.8735576308
 20
44.9740420717
 30
0.0
 10
21.8735576308
 20
44.4835292863
 30
0.0
 10
21.8103340918
 20
43.508821557
 30
0.0
 10
21.5279658366
 20
42.092100585
 30
0.0
 10
21.0679117339
 20
40.7724642357
 30
0.0
 10
20.4444391662
 20
39.5910119876
 30
0.0
 10
19.6758647457
 20
38.5862529031
 30
0.0
 10
18.7827466943
 20
37.7926597295
 30
0.0
 10
17.7953809906
 20
37.2434982595
 30
0.0
 10
16.7482682096
 20
36.962629529
 30
0.0
 10
15.6813657786
 20
36.9632585575
 30
0.0
 10
14.6370911476
 20
37.2442452063
 30
0.0
 10
13.6539007351
 20
37.7908561425
 30
0.0
 10
12.7640723291
 20
38.57966253
 30
0.0
 10
11.996353481
 20
39.5796666869
 30
0.0
 10
11.371360018
 20
40.7587935804
 30
0.0
 10
10.9085613757
 20
42.0798374623
 30
0.0
 10
10.6237146319
 20
43.501557323
 30
0.0
 10
10.5598491318
 20
44.4808581526
 30
0.0
 10
10.5598491318
 20
44.9740420717
 30
0.0
  0
SPLINE
  5
31D
100
AcDbEntity
  8
0
100
AcDbSpline
 62
7
  6
BYLAYER
 70
0
 71
3
 72
10
 73
6
 74
0
 42
0.0000001
 43
0.0000001
 44
0.0000000001
 40
0.0
 40
0.0
 40
0.0
 40
0.0
 40
0.358435969
 40
0.6976985539
 40
1.0
 40
1.0
 40
1.0
 40
1.0
 10
22.2284381519
 20
33.6740420714
 30
0.0
 10
22.2284381519
 20
33.6504818063
 30
0.0
 10
22.2341604245
 20
33.6043799152
 30
0.0
 10
22.2591652719
 20
33.5427572623
 30
0.0
 10
22.2872231447
 20
33.509761551
 30
0.0
 10
22.3030594854
 20
33.497759588
 30
0.0
  0
SPLINE
  5
31E
100
AcDbEntity
  8
0
100
AcDbSpline
 62
7
  6
BYLAYER
 70
0
 71
3
 72
10
 73
6
 74
0
 42
0.0000001
 43
0.0000001
 44
0.0000000001
 40
0.0
 40
0.0
 40
0.0
 40
0.0
 40
0.3461497256
 40
0.6771909098
 40
1.0
 40
1.0
 40
1.0
 40
1.0
 10
22.3030594854
 20
33.497759588
 30
0.0
 10
22.3096824044
 20
33.4927402449
 30
0.0
 10
22.3235973411
 20
33.4840862906
 30
0.0
 10
22.3463538851
 20
33.4758969934
 30
0.0
 10
22.3621098029
 20
33.4740420714
 30
0.0
 10
22.3698595081
 20
33.4740420714
 30
0.0
  0
SPLINE
  5
31F
100
AcDbEntity
  8
0
100
AcDbSpline
 62
7
  6
BYLAYER
 70
0
 71
3
 72
10
 73
6
 74
0
 42
0.0000001
 43
0.0000001
 44
0.0000000001
 40
0.0
 40
0.0
 40
0.0
 40
0.0
 40
0.2868466904
 40
0.6220395714
 40
1.0
 40
1.0
 40
1.0
 40
1.0
 10
22.369859509
 20
56.4740420714
 30
0.0
 10
22.3468089572
 20
56.4740420714
 30
0.0
 10
22.2963553557
 20
56.45466838
 30
0.0
 10
22.2472894036
 20
56.3875256076
 30
0.0
 10
22.2325549939
 20
56.330836637
 30
0.0
 10
22.2296905181
 20
56.3005997066
 30
0.0
  0
SPLINE
  5
320
100
AcDbEntity
  8
0
100
AcDbSpline
 62
7
  6
BYLAYER
 70
0
 71
3
 72
10
 73
6
 74
0
 42
0.0000001
 43
0.0000001
 44
0.0000000001
 40
0.0
 40
0.0
 40
0.0
 40
0.0
 40
0.376845692
 40
0.7083450951
 40
1.0
 40
1.0
 40
1.0
 40
1.0
 10
57.4290465163
 20
56.3311159396
 30
0.0
 10
57.4232750354
 20
56.3569819032
 30
0.0
 10
57.4049572796
 20
56.4044524459
 30
0.0
 10
57.3559843317
 20
56.4579808969
 30
0.0
 10
57.3114475799
 20
56.471882932
 30
0.0
 10
57.2909380648
 20
56.4716433752
 30
0.0
  0
SPLINE
  5
321
100
AcDbEntity
  8
0
100
AcDbSpline
 62
7
  6
BYLAYER
 70
0
 71
3
 72
13
 73
9
 74
0
 42
0.0000001
 43
0.0000001
 44
0.0000000001
 40
0.0
 40
0.0
 40
0.0
 40
0.0
 40
0.0893589479
 40
0.182978367
 40
0.2855166539
 40
0.3999987583
 40
0.670381643
 40
1.0
 40
1.0
 40
1.0
 40
1.0
 10
57.4908544397
 20
56.2740859325
 30
0.0
 10
57.4910208355
 20
56.2767484332
 30
0.0
 10
57.4905566673
 20
56.2822793321
 30
0.0
 10
57.4875338356
 20
56.2903402799
 30
0.0
 10
57.4823731125
 20
56.2981225482
 30
0.0
 10
57.4722405201
 20
56.3086493063
 30
0.0
 10
57.4542719375
 20
56.3205463066
 30
0.0
 10
57.4377285075
 20
56.3275830211
 30
0.0
 10
57.4284488719
 20
56.3308572245
 30
0.0
  0
SPLINE
  5
322
100
AcDbEntity
  8
0
100
AcDbSpline
 62
7
  6
BYLAYER
 70
0
 71
3
 72
10
 73
6
 74
0
 42
0.0000001
 43
0.0000001
 44
0.0000000001
 40
0.0
 40
0.0
 40
0.0
 40
0.0
 40
0.3727847097
 40
0.7040500369
 40
1.0
 40
1.0
 40
1.0
 40
1.0
 10
52.2709779954
 20
56.3430943402
 30
0.0
 10
52.2648313079
 20
56.3673459311
 30
0.0
 10
52.2464407804
 20
56.4118981161
 30
0.0
 10
52.1993032889
 20
56.4623482982
 30
0.0
 10
52.1568839021
 20
56.4761759132
 30
0.0
 10
52.1370236031
 20
56.4764256281
 30
0.0
  0
SPLINE
  5
323
100
AcDbEntity
  8
0
100
AcDbSpline
 62
7
  6
BYLAYER
 70
0
 71
3
 72
10
 73
6
 74
0
 42
0.0000001
 43
0.0000001
 44
0.0000000001
 40
0.0
 40
0.0
 40
0.0
 40
0.0
 40
0.3716527232
 40
0.7036796887
 40
1.0
 40
1.0
 40
1.0
 40
1.0
 10
52.2709777108
 20
33.6049899515
 30
0.0
 10
52.2648497892
 20
33.5808121808
 30
0.0
 10
52.246491308
 20
33.5362853614
 30
0.0
 10
52.1994034975
 20
33.4857794523
 30
0.0
 10
52.1569085715
 20
33.4719083497
 30
0.0
 10
52.1370235781
 20
33.4716582672
 30
0.0
  0
SPLINE
  5
324
100
AcDbEntity
  8
0
100
AcDbSpline
 62
7
  6
BYLAYER
 70
0
 71
3
 72
16
 73
12
 74
0
 42
0.0000001
 43
0.0000001
 44
0.0000000001
 40
0.0
 40
0.0
 40
0.0
 40
0.0
 40
0.1870714052
 40
0.3498999486
 40
0.4980563967
 40
0.6250819545
 40
0.7217908751
 40
0.7830205082
 40
0.8249089847
 40
0.8999344994
 40
1.0
 40
1.0
 40
1.0
 40
1.0
 10
28.1392400665
 20
33.6740420714
 30
0.0
 10
28.1351310069
 20
33.6565397802
 30
0.0
 10
28.1253198923
 20
33.6239406119
 30
0.0
 10
28.0985387867
 20
33.5836771062
 30
0.0
 10
28.0709825353
 20
33.5521197505
 30
0.0
 10
28.0438735949
 20
33.5275854896
 30
0.0
 10
28.026155995
 20
33.5093196397
 30
0.0
 10
28.0113186475
 20
33.4913097056
 30
0.0
 10
28.0247914443
 20
33.4760009683
 30
0.0
 10
28.0464281413
 20
33.4755864423
 30
0.0
 10
28.0629618937
 20
33.4740420714
 30
0.0
 10
28.0725785131
 20
33.4740420714
 30
0.0
  0
SPLINE
  5
325
100
AcDbEntity
  8
0
100
AcDbSpline
 62
7
  6
BYLAYER
 70
0
 71
3
 72
37
 73
33
 74
0
 42
0.0000001
 43
0.0000001
 44
0.0000000001
 40
0.0
 40
0.0
 40
0.0
 40
0.0
 40
0.0565272246
 40
0.1119603461
 40
0.1595857557
 40
0.2045211866
 40
0.2590014241
 40
0.3120383596
 40
0.4134344525
 40
0.5176519865
 40
0.6140919366
 40
0.7107783283
 40
0.7990992311
 40
0.82103051
 40
0.8423914965
 40
0.8631848877
 40
0.8834147941
 40
0.8936865396
 40
0.9043887775
 40
0.9138210831
 40
0.9222247189
 40
0.926797277
 40
0.9318891418
 40
0.9366850694
 40
0.9448302568
 40
0.9495143747
 40
0.9545358751
 40
0.9589291451
 40
0.9663642809
 40
0.9826522473
 40
0.990394833
 40
1.0
 40
1.0
 40
1.0
 40
1.0
 10
27.9477119024
 20
33.6895027883
 30
0.0
 10
27.9476225713
 20
33.6853935205
 30
0.0
 10
27.9473199326
 20
33.6772572987
 30
0.0
 10
27.9466445589
 20
33.6656717654
 30
0.0
 10
27.9457126938
 20
33.6549502758
 30
0.0
 10
27.9446253426
 20
33.6443135251
 30
0.0
 10
27.9432528649
 20
33.6333126329
 30
0.0
 10
27.9411200035
 20
33.6182721052
 30
0.0
 10
27.9380541364
 20
33.599713146
 30
0.0
 10
27.9338198016
 20
33.5781597704
 30
0.0
 10
27.9292715904
 20
33.5570223356
 30
0.0
 10
27.9248450866
 20
33.5370430509
 30
0.0
 10
27.9218153661
 20
33.5223003299
 30
0.0
 10
27.9202062286
 20
33.5128661988
 30
0.0
 10
27.9195039496
 20
33.508259278
 30
0.0
 10
27.9189183937
 20
33.5037607413
 30
0.0
 10
27.9185296378
 20
33.5000506578
 30
0.0
 10
27.9182979886
 20
33.497063342
 30
0.0
 10
27.9181791756
 20
33.4948554947
 30
0.0
 10
27.918082529
 20
33.4927826853
 30
0.0
 10
27.9180322561
 20
33.491153869
 30
0.0
 10
27.9180269251
 20
33.4898400364
 30
0.0
 10
27.9180360339
 20
33.4887886201
 30
0.0
 10
27.9180527569
 20
33.4874774944
 30
0.0
 10
27.9180953552
 20
33.4861964204
 30
0.0
 10
27.9181679914
 20
33.4849004513
 30
0.0
 10
27.9182325357
 20
33.4838773161
 30
0.0
 10
27.9183267804
 20
33.482655639
 30
0.0
 10
27.918546408
 20
33.4806229154
 30
0.0
 10
27.9188553176
 20
33.4783544415
 30
0.0
 10
27.9193163527
 20
33.4759521152
 30
0.0
 10
27.9195966402
 20
33.4747218352
 30
0.0
 10
27.9197664869
 20
33.4740443861
 30
0.0
  0
SPLINE
  5
326
100
AcDbEntity
  8
0
100
AcDbSpline
 62
7
  6
BYLAYER
 70
0
 71
3
 72
11
 73
7
 74
0
 42
0.0000001
 43
0.0000001
 44
0.0000000001
 40
0.0
 40
0.0
 40
0.0
 40
0.0
 40
0.2762407752
 40
0.5413161173
 40
0.7852794766
 40
1.0
 40
1.0
 40
1.0
 40
1.0
 10
25.2042543432
 20
33.4879181291
 30
0.0
 10
25.2305205746
 20
33.4879181291
 30
0.0
 10
25.2820019299
 20
33.4892654377
 30
0.0
 10
25.356469369
 20
33.4952548921
 30
0.0
 10
25.4246544101
 20
33.5048695322
 30
0.0
 10
25.4673586178
 20
33.514024464
 30
0.0
 10
25.4870795206
 20
33.5193087593
 30
0.0
  0
SPLINE
  5
327
100
AcDbEntity
  8
0
100
AcDbSpline
 62
7
  6
BYLAYER
 70
0
 71
3
 72
10
 73
6
 74
0
 42
0.0000001
 43
0.0000001
 44
0.0000000001
 40
0.0
 40
0.0
 40
0.0
 40
0.0
 40
0.2972681748
 40
0.6382701404
 40
1.0
 40
1.0
 40
1.0
 40
1.0
 10
24.4870970551
 20
33.5193043427
 30
0.0
 10
24.5143973588
 20
33.5119892486
 30
0.0
 10
24.574091788
 20
33.5002983083
 30
0.0
 10
24.6687053217
 20
33.4902202212
 30
0.0
 10
24.7355477302
 20
33.4879121352
 30
0.0
 10
24.7699399052
 20
33.4879121388
 30
0.0
  0
SPLINE
  5
328
100
AcDbEntity
  8
0
100
AcDbSpline
 62
7
  6
BYLAYER
 70
0
 71
3
 72
11
 73
7
 74
0
 42
0.0000001
 43
0.0000001
 44
0.0000000001
 40
0.0
 40
0.0
 40
0.0
 40
0.0
 40
0.2660300064
 40
0.5081535713
 40
0.7469027304
 40
1.0
 40
1.0
 40
1.0
 40
1.0
 10
22.0268168257
 20
37.2411371361
 30
0.0
 10
22.0251697435
 20
37.2685205528
 30
0.0
 10
22.0320710872
 20
37.3223125131
 30
0.0
 10
22.0750793138
 20
37.3893422068
 30
0.0
 10
22.1420613994
 20
37.4295257229
 30
0.0
 10
22.1939492957
 20
37.4358811621
 30
0.0
 10
22.2200019888
 20
37.4343223038
 30
0.0
  0
SPLINE
  5
329
100
AcDbEntity
  8
0
100
AcDbSpline
 62
7
  6
BYLAYER
 70
0
 71
3
 72
10
 73
6
 74
0
 42
0.0000001
 43
0.0000001
 44
0.0000000001
 40
0.0
 40
0.0
 40
0.0
 40
0.0
 40
0.3169518744
 40
0.6519680782
 40
1.0
 40
1.0
 40
1.0
 40
1.0
 10
24.5094199254
 20
37.4343223913
 30
0.0
 10
24.5368663448
 20
37.4365429275
 30
0.0
 10
24.5934924993
 20
37.4389167456
 30
0.0
 10
24.6803607072
 20
37.4398695116
 30
0.0
 10
24.739703502
 20
37.4401838017
 30
0.0
 10
24.7699397683
 20
37.4401848823
 30
0.0
  0
SPLINE
  5
32A
100
AcDbEntity
  8
0
100
AcDbSpline
 62
7
  6
BYLAYER
 70
0
 71
3
 72
12
 73
8
 74
0
 42
0.0000001
 43
0.0000001
 44
0.0000000001
 40
0.0
 40
0.0
 40
0.0
 40
0.0
 40
0.2737609532
 40
0.5397180276
 40
0.6654250337
 40
0.7844072344
 40
1.0
 40
1.0
 40
1.0
 40
1.0
 10
24.6285184256
 20
37.2355946251
 30
0.0
 10
24.6254650473
 20
37.2583852881
 30
0.0
 10
24.6139296081
 20
37.3027321566
 30
0.0
 10
24.587200345
 20
37.3525323717
 30
0.0
 10
24.5594969546
 20
37.3854888764
 30
0.0
 10
24.5304738475
 20
37.4111132128
 30
0.0
 10
24.5046648033
 20
37.4243878326
 30
0.0
 10
24.4870969682
 20
37.4287797904
 30
0.0
  0
SPLINE
  5
32B
100
AcDbEntity
  8
0
100
AcDbSpline
 62
7
  6
BYLAYER
 70
0
 71
3
 72
13
 73
9
 74
0
 42
0.0000001
 43
0.0000001
 44
0.0000000001
 40
0.0
 40
0.0
 40
0.0
 40
0.0
 40
0.23147894
 40
0.4336400934
 40
0.6067826583
 40
0.7501717466
 40
0.8782559674
 40
1.0
 40
1.0
 40
1.0
 40
1.0
 10
23.9456756988
 20
37.0526274813
 30
0.0
 10
23.9430902798
 20
37.0719253102
 30
0.0
 10
23.9344836097
 20
37.1076821795
 30
0.0
 10
23.9132539166
 20
37.1543890915
 30
0.0
 10
23.8882098397
 20
37.190409287
 30
0.0
 10
23.8615410052
 20
37.2169198938
 30
0.0
 10
23.8339555979
 20
37.2355275555
 30
0.0
 10
23.8141887654
 20
37.2433290412
 30
0.0
 10
23.804254329
 20
37.2458126499
 30
0.0
  0
SPLINE
  5
32C
100
AcDbEntity
  8
0
100
AcDbSpline
 62
7
  6
BYLAYER
 70
0
 71
3
 72
11
 73
7
 74
0
 42
0.0000001
 43
0.0000001
 44
0.0000000001
 40
0.0
 40
0.0
 40
0.0
 40
0.0
 40
0.2644554411
 40
0.5112699299
 40
0.7578914196
 40
1.0
 40
1.0
 40
1.0
 40
1.0
 10
22.2153264802
 20
37.0526274816
 30
0.0
 10
22.217070121
 20
37.0786569055
 30
0.0
 10
22.2307899084
 20
37.1287771858
 30
0.0
 10
22.2757496802
 20
37.1902416672
 30
0.0
 10
22.3367977786
 20
37.2319862578
 30
0.0
 10
22.3846817451
 20
37.2442163463
 30
0.0
 10
22.4085116457
 20
37.2458126469
 30
0.0
  0
SPLINE
  5
32D
100
AcDbEntity
  8
0
100
AcDbSpline
 62
7
  6
BYLAYER
 70
0
 71
3
 72
15
 73
11
 74
0
 42
0.0000001
 43
0.0000001
 44
0.0000000001
 40
0.0
 40
0.0
 40
0.0
 40
0.0
 40
0.1656249297
 40
0.3162945857
 40
0.4533184377
 40
0.5851233045
 40
0.6939644102
 40
0.7966628655
 40
0.8891230878
 40
1.0
 40
1.0
 40
1.0
 40
1.0
 10
22.2153264802
 20
33.8954566612
 30
0.0
 10
22.2164227722
 20
33.8790909917
 30
0.0
 10
22.2224999753
 20
33.8479720117
 30
0.0
 10
22.2410662462
 20
33.806742134
 30
0.0
 10
22.2655375929
 20
33.7728549791
 30
0.0
 10
22.2928470005
 20
33.7469864848
 30
0.0
 10
22.3211937157
 20
33.7279785585
 30
0.0
 10
22.3485152709
 20
33.7150686568
 30
0.0
 10
22.3775356372
 20
33.7060565205
 30
0.0
 10
22.3975557169
 20
33.7030054039
 30
0.0
 10
22.4085116455
 20
33.7022714959
 30
0.0
  0
SPLINE
  5
32E
100
AcDbEntity
  8
0
100
AcDbSpline
 62
7
  6
BYLAYER
 70
0
 71
3
 72
10
 73
6
 74
0
 42
0.0000001
 43
0.0000001
 44
0.0000000001
 40
0.0
 40
0.0
 40
0.0
 40
0.0
 40
0.3607999411
 40
0.7019400147
 40
1.0
 40
1.0
 40
1.0
 40
1.0
 10
23.9442575772
 20
33.8860753043
 30
0.0
 10
23.9394301268
 20
33.8574040698
 30
0.0
 10
23.9214073473
 20
33.8026928245
 30
0.0
 10
23.8736310825
 20
33.7362005945
 30
0.0
 10
23.8275561429
 20
33.7080969463
 30
0.0
 10
23.8042543425
 20
33.7022714962
 30
0.0
  0
SPLINE
  5
32F
100
AcDbEntity
  8
0
100
AcDbSpline
 62
7
  6
BYLAYER
 70
0
 71
3
 72
12
 73
8
 74
0
 42
0.0000001
 43
0.0000001
 44
0.0000000001
 40
0.0
 40
0.0
 40
0.0
 40
0.0
 40
0.215592737
 40
0.334574926
 40
0.4602819255
 40
0.7262390076
 40
1.0
 40
1.0
 40
1.0
 40
1.0
 10
24.4870970576
 20
33.5193043421
 30
0.0
 10
24.5046648863
 20
33.5236962993
 30
0.0
 10
24.5304739201
 20
33.5369709191
 30
0.0
 10
24.5594970106
 20
33.5625952553
 30
0.0
 10
24.5872003835
 20
33.5955517611
 30
0.0
 10
24.6139296231
 20
33.6453519786
 30
0.0
 10
24.6254650433
 20
33.6896988455
 30
0.0
 10
24.628518413
 20
33.7124895078
 30
0.0
  0
SPLINE
  5
330
100
AcDbEntity
  8
0
100
AcDbSpline
 62
7
  6
BYLAYER
 70
0
 71
3
 72
12
 73
8
 74
0
 42
0.0000001
 43
0.0000001
 44
0.0000000001
 40
0.0
 40
0.0
 40
0.0
 40
0.0
 40
0.2737609539
 40
0.5397180287
 40
0.6654250349
 40
0.7844072356
 40
1.0
 40
1.0
 40
1.0
 40
1.0
 10
25.3456756856
 20
33.7124895177
 30
0.0
 10
25.348729064
 20
33.6896988547
 30
0.0
 10
25.3602645032
 20
33.6453519861
 30
0.0
 10
25.3869937663
 20
33.595551771
 30
0.0
 10
25.4146971567
 20
33.5625952663
 30
0.0
 10
25.4437202636
 20
33.53697093
 30
0.0
 10
25.4695293076
 20
33.5236963103
 30
0.0
 10
25.4870971427
 20
33.5193043524
 30
0.0
  0
SPLINE
  5
331
100
AcDbEntity
  8
0
100
AcDbSpline
 62
7
  6
BYLAYER
 70
0
 71
3
 72
10
 73
6
 74
0
 42
0.0000001
 43
0.0000001
 44
0.0000000001
 40
0.0
 40
0.0
 40
0.0
 40
0.0
 40
0.2944744582
 40
0.6382110784
 40
1.0
 40
1.0
 40
1.0
 40
1.0
 10
26.1699397688
 20
33.7022714962
 30
0.0
 10
26.1460282814
 20
33.708249368
 30
0.0
 10
26.0983835185
 20
33.7378072677
 30
0.0
 10
26.0499006058
 20
33.8077849687
 30
0.0
 10
26.0325394475
 20
33.86544324
 30
0.0
 10
26.0285184113
 20
33.8954566709
 30
0.0
  0
SPLINE
  5
332
100
AcDbEntity
  8
0
100
AcDbSpline
 62
7
  6
BYLAYER
 70
0
 71
3
 72
10
 73
6
 74
0
 42
0.0000001
 43
0.0000001
 44
0.0000000001
 40
0.0
 40
0.0
 40
0.0
 40
0.0
 40
0.335233048
 40
0.6686150278
 40
1.0
 40
1.0
 40
1.0
 40
1.0
 10
27.6200002223
 20
33.7136678394
 30
0.0
 10
27.6141457147
 20
33.7115683806
 30
0.0
 10
27.6022714269
 20
33.7079085452
 30
0.0
 10
27.5840915567
 20
33.7040890574
 30
0.0
 10
27.571816889
 20
33.7026824246
 30
0.0
 10
27.5656824655
 20
33.7022714962
 30
0.0
  0
SPLINE
  5
333
100
AcDbEntity
  8
0
100
AcDbSpline
 62
7
  6
BYLAYER
 70
0
 71
3
 72
10
 73
6
 74
0
 42
0.0000001
 43
0.0000001
 44
0.0000000001
 40
0.0
 40
0.0
 40
0.0
 40
0.0
 40
0.3300501797
 40
0.6657041121
 40
1.0
 40
1.0
 40
1.0
 40
1.0
 10
27.7588676306
 20
33.8954566614
 30
0.0
 10
27.7571001581
 20
33.8690714719
 30
0.0
 10
27.7424243737
 20
33.816079036
 30
0.0
 10
27.6926150445
 20
33.7510869651
 30
0.0
 10
27.6452126043
 20
33.722709139
 30
0.0
 10
27.6200002223
 20
33.7136678394
 30
0.0
  0
SPLINE
  5
334
100
AcDbEntity
  8
0
100
AcDbSpline
 62
7
  6
BYLAYER
 70
0
 71
3
 72
11
 73
7
 74
0
 42
0.0000001
 43
0.0000001
 44
0.0000000001
 40
0.0
 40
0.0
 40
0.0
 40
0.0
 40
0.256622295
 40
0.5021988836
 40
0.7466726033
 40
1.0
 40
1.0
 40
1.0
 40
1.0
 10
27.7541921234
 20
37.627507469
 30
0.0
 10
27.8059141386
 20
37.627507469
 30
0.0
 10
27.9082774701
 20
37.6076094882
 30
0.0
 10
28.0369941805
 20
37.5222823106
 30
0.0
 10
28.1210829461
 20
37.3936194775
 30
0.0
 10
28.1405624515
 20
37.292195071
 30
0.0
 10
28.1405624526
 20
37.2411371398
 30
0.0
  0
SPLINE
  5
335
100
AcDbEntity
  8
0
100
AcDbSpline
 62
7
  6
BYLAYER
 70
0
 71
3
 72
11
 73
7
 74
0
 42
0.0000001
 43
0.0000001
 44
0.0000000001
 40
0.0
 40
0.0
 40
0.0
 40
0.0
 40
0.2696053459
 40
0.5145724684
 40
0.7509244565
 40
1.0
 40
1.0
 40
1.0
 40
1.0
 10
27.7541921225
 20
37.4343223038
 30
0.0
 10
27.7819467967
 20
37.4359325944
 30
0.0
 10
27.8364105547
 20
37.4286792702
 30
0.0
 10
27.9035401502
 20
37.3849416176
 30
0.0
 10
27.9429349028
 20
37.3179692924
 30
0.0
 10
27.9489666597
 20
37.2667722576
 30
0.0
 10
27.9473772878
 20
37.2411371385
 30
0.0
  0
SPLINE
  5
336
100
AcDbEntity
  8
0
100
AcDbSpline
 62
7
  6
BYLAYER
 70
0
 71
3
 72
10
 73
6
 74
0
 42
0.0000001
 43
0.0000001
 44
0.0000000001
 40
0.0
 40
0.0
 40
0.0
 40
0.0
 40
0.3480086066
 40
0.6830224953
 40
1.0
 40
1.0
 40
1.0
 40
1.0
 10
25.2042542319
 20
37.4401848108
 30
0.0
 10
25.2344885714
 20
37.4401839889
 30
0.0
 10
25.2938293368
 20
37.4398698609
 30
0.0
 10
25.3806978233
 20
37.43891717
 30
0.0
 10
25.4373262046
 20
37.4365433009
 30
0.0
 10
25.4647749109
 20
37.4343223033
 30
0.0
  0
SPLINE
  5
337
100
AcDbEntity
  8
0
100
AcDbSpline
 62
7
  6
BYLAYER
 70
0
 71
3
 72
12
 73
8
 74
0
 42
0.0000001
 43
0.0000001
 44
0.0000000001
 40
0.0
 40
0.0
 40
0.0
 40
0.0
 40
0.2155927375
 40
0.3345749269
 40
0.4602819267
 40
0.7262390091
 40
1.0
 40
1.0
 40
1.0
 40
1.0
 10
25.4870970557
 20
37.4287798
 30
0.0
 10
25.469529227
 20
37.4243878428
 30
0.0
 10
25.443720193
 20
37.411113223
 30
0.0
 10
25.4146971023
 20
37.3854888869
 30
0.0
 10
25.3869937292
 20
37.3525323811
 30
0.0
 10
25.3602644895
 20
37.3027321637
 30
0.0
 10
25.3487290692
 20
37.2583852969
 30
0.0
 10
25.3456756995
 20
37.2355946348
 30
0.0
  0
SPLINE
  5
338
100
AcDbEntity
  8
0
100
AcDbSpline
 62
7
  6
BYLAYER
 70
0
 71
3
 72
10
 73
6
 74
0
 42
0.0000001
 43
0.0000001
 44
0.0000000001
 40
0.0
 40
0.0
 40
0.0
 40
0.0
 40
0.3478373645
 40
0.687704799
 40
1.0
 40
1.0
 40
1.0
 40
1.0
 10
25.2042543432
 20
37.2669868387
 30
0.0
 10
25.2211892314
 20
37.2669575294
 30
0.0
 10
25.2547224576
 20
37.2646173072
 30
0.0
 10
25.3024646029
 20
37.2544097483
 30
0.0
 10
25.3322938194
 20
37.2428128078
 30
0.0
 10
25.3456756994
 20
37.2355946348
 30
0.0
  0
SPLINE
  5
339
100
AcDbEntity
  8
0
100
AcDbSpline
 62
7
  6
BYLAYER
 70
0
 71
3
 72
10
 73
6
 74
0
 42
0.0000001
 43
0.0000001
 44
0.0000000001
 40
0.0
 40
0.0
 40
0.0
 40
0.0
 40
0.3123748643
 40
0.6531347203
 40
1.0
 40
1.0
 40
1.0
 40
1.0
 10
25.3456756994
 20
33.7124895326
 30
0.0
 10
25.3322866041
 20
33.7052784634
 30
0.0
 10
25.3024057806
 20
33.6936887531
 30
0.0
 10
25.2546659688
 20
33.68349548
 30
0.0
 10
25.2211409068
 20
33.6811270095
 30
0.0
 10
25.2042543432
 20
33.6810973066
 30
0.0
  0
SPLINE
  5
33A
100
AcDbEntity
  8
0
100
AcDbSpline
 62
7
  6
BYLAYER
 70
0
 71
3
 72
10
 73
6
 74
0
 42
0.0000001
 43
0.0000001
 44
0.0000000001
 40
0.0
 40
0.0
 40
0.0
 40
0.0
 40
0.3616910092
 40
0.70540026
 40
1.0
 40
1.0
 40
1.0
 40
1.0
 10
26.0285184125
 20
37.0526274813
 30
0.0
 10
26.032538357
 20
37.0826327554
 30
0.0
 10
26.0498940199
 20
37.1402809002
 30
0.0
 10
26.0983681605
 20
37.210262971
 30
0.0
 10
26.1460181356
 20
37.2398322382
 30
0.0
 10
26.1699397688
 20
37.2458126465
 30
0.0
  0
SPLINE
  5
33B
100
AcDbEntity
  8
0
100
AcDbSpline
 62
7
  6
BYLAYER
 70
0
 71
3
 72
10
 73
6
 74
0
 42
0.0000001
 43
0.0000001
 44
0.0000000001
 40
0.0
 40
0.0
 40
0.0
 40
0.0
 40
0.3300501792
 40
0.6657041119
 40
1.0
 40
1.0
 40
1.0
 40
1.0
 10
27.5656824654
 20
37.2458126466
 30
0.0
 10
27.5920676548
 20
37.2440451741
 30
0.0
 10
27.6450600907
 20
37.2293693898
 30
0.0
 10
27.7100521616
 20
37.1795600605
 30
0.0
 10
27.7384299878
 20
37.1321576203
 30
0.0
 10
27.7474712874
 20
37.1069452383
 30
0.0
  0
SPLINE
  5
33C
100
AcDbEntity
  8
0
100
AcDbSpline
 62
7
  6
BYLAYER
 70
0
 71
3
 72
10
 73
6
 74
0
 42
0.0000001
 43
0.0000001
 44
0.0000000001
 40
0.0
 40
0.0
 40
0.0
 40
0.0
 40
0.3352330483
 40
0.6686150251
 40
1.0
 40
1.0
 40
1.0
 40
1.0
 10
27.7474712874
 20
37.1069452383
 30
0.0
 10
27.7495707462
 20
37.1010907307
 30
0.0
 10
27.7532305816
 20
37.0892164428
 30
0.0
 10
27.7570500694
 20
37.0710365726
 30
0.0
 10
27.7584567022
 20
37.0587619049
 30
0.0
 10
27.7588676306
 20
37.0526274813
 30
0.0
  0
SPLINE
  5
33D
100
AcDbEntity
  8
0
100
AcDbSpline
 62
7
  6
BYLAYER
 70
0
 71
3
 72
10
 73
6
 74
0
 42
0.0000001
 43
0.0000001
 44
0.0000000001
 40
0.0
 40
0.0
 40
0.0
 40
0.0
 40
0.3124601464
 40
0.6523256296
 40
1.0
 40
1.0
 40
1.0
 40
1.0
 10
24.6285184119
 20
37.2355946102
 30
0.0
 10
24.6419077123
 20
37.2428159828
 30
0.0
 10
24.671744465
 20
37.2544160373
 30
0.0
 10
24.7194876232
 20
37.264619157
 30
0.0
 10
24.7530127923
 20
37.266958955
 30
0.0
 10
24.7699397688
 20
37.2669868354
 30
0.0
  0
SPLINE
  5
33E
100
AcDbEntity
  8
0
100
AcDbSpline
 62
7
  6
BYLAYER
 70
0
 71
3
 72
10
 73
6
 74
0
 42
0.0000001
 43
0.0000001
 44
0.0000000001
 40
0.0
 40
0.0
 40
0.0
 40
0.0
 40
0.3469726091
 40
0.6877344639
 40
1.0
 40
1.0
 40
1.0
 40
1.0
 10
24.7699397688
 20
33.6810973047
 30
0.0
 10
24.7530479959
 20
33.6811279423
 30
0.0
 10
24.7195175943
 20
33.6834966953
 30
0.0
 10
24.6717784526
 20
33.6936929061
 30
0.0
 10
24.6419025882
 20
33.7052805574
 30
0.0
 10
24.6285184119
 20
33.7124895084
 30
0.0
  0
SPLINE
  5
33F
100
AcDbEntity
  8
0
100
AcDbSpline
 62
7
  6
BYLAYER
 70
0
 71
3
 72
11
 73
7
 74
0
 42
0.0000001
 43
0.0000001
 44
0.0000000001
 40
0.0
 40
0.0
 40
0.0
 40
0.0
 40
0.2552168504
 40
0.5003865464
 40
0.7453636183
 40
1.0
 40
1.0
 40
1.0
 40
1.0
 10
21.8336316256
 20
37.2411370968
 30
0.0
 10
21.8336317737
 20
37.2925758555
 30
0.0
 10
21.8533590428
 20
37.3945500184
 30
0.0
 10
21.9381706882
 20
37.52326079
 30
0.0
 10
22.0668682717
 20
37.6078668065
 30
0.0
 10
22.1686802227
 20
37.6275074687
 30
0.0
 10
22.2200019883
 20
37.627507469
 30
0.0
  0
SPLINE
  5
340
100
AcDbEntity
  8
0
100
AcDbSpline
 62
7
  6
BYLAYER
 70
0
 71
3
 72
17
 73
13
 74
0
 42
0.0000001
 43
0.0000001
 44
0.0000000001
 40
0.0
 40
0.0
 40
0.0
 40
0.0
 40
0.09373039
 40
0.1659809299
 40
0.2114161577
 40
0.2575346283
 40
0.3281478546
 40
0.4207542224
 40
0.5337240395
 40
0.6631324258
 40
0.8156416318
 40
1.0
 40
1.0
 40
1.0
 40
1.0
 10
21.9016155907
 20
33.4740420714
 30
0.0
 10
21.9106878761
 20
33.4740420714
 30
0.0
 10
21.9271246265
 20
33.4748905455
 30
0.0
 10
21.9462804516
 20
33.4769330653
 30
0.0
 10
21.9636752745
 20
33.4860710399
 30
0.0
 10
21.9545878849
 20
33.503288202
 30
0.0
 10
21.9409864221
 20
33.5164906025
 30
0.0
 10
21.9217216057
 20
33.5357790036
 30
0.0
 10
21.8983531013
 20
33.5580007791
 30
0.0
 10
21.8729893952
 20
33.586745842
 30
0.0
 10
21.8482848958
 20
33.6249896655
 30
0.0
 10
21.8390606008
 20
33.6566767407
 30
0.0
 10
21.834954045
 20
33.6740420706
 30
0.0
  0
SPLINE
  5
341
100
AcDbEntity
  8
0
100
AcDbSpline
 62
7
  6
BYLAYER
 70
0
 71
3
 72
12
 73
8
 74
0
 42
0.0000001
 43
0.0000001
 44
0.0000000001
 40
0.0
 40
0.0
 40
0.0
 40
0.0
 40
0.2443187415
 40
0.4645983319
 40
0.6661901963
 40
0.8435891614
 40
1.0
 40
1.0
 40
1.0
 40
1.0
 10
22.0264866129
 20
33.6895031376
 30
0.0
 10
22.0267334701
 20
33.6717562468
 30
0.0
 10
22.0298080498
 20
33.6380608769
 30
0.0
 10
22.0375034812
 20
33.5902587367
 30
0.0
 10
22.0469071074
 20
33.5477606841
 30
0.0
 10
22.0561250833
 20
33.5098963694
 30
0.0
 10
22.0561659931
 20
33.4852686681
 30
0.0
 10
22.0544318694
 20
33.4740392652
 30
0.0
  0
SPLINE
  5
342
100
AcDbEntity
  8
0
100
AcDbSpline
 62
7
  6
BYLAYER
 70
0
 71
3
 72
13
 73
9
 74
0
 42
0.0000001
 43
0.0000001
 44
0.0000000001
 40
0.0
 40
0.0
 40
0.0
 40
0.0
 40
0.3296178359
 40
0.6000005194
 40
0.714482667
 40
0.8170210984
 40
0.9106407546
 40
1.0
 40
1.0
 40
1.0
 40
1.0
 10
57.4284490521
 20
33.617226731
 30
0.0
 10
57.4377286781
 20
33.6205009523
 30
0.0
 10
57.4542720934
 20
33.6275377063
 30
0.0
 10
57.4722406458
 20
33.6394347666
 30
0.0
 10
57.4823732151
 20
33.6499615722
 30
0.0
 10
57.4875339259
 20
33.657743878
 30
0.0
 10
57.4905567467
 20
33.6658048627
 30
0.0
 10
57.4910209099
 20
33.6713357843
 30
0.0
 10
57.4908545124
 20
33.6739982972
 30
0.0
  0
SPLINE
  5
343
100
AcDbEntity
  8
0
100
AcDbSpline
 62
7
  6
BYLAYER
 70
0
 71
3
 72
10
 73
6
 74
0
 42
0.0000001
 43
0.0000001
 44
0.0000000001
 40
0.0
 40
0.0
 40
0.0
 40
0.0
 40
0.3782472292
 40
0.7088449515
 40
1.0
 40
1.0
 40
1.0
 40
1.0
 10
57.4290435244
 20
33.6169690137
 30
0.0
 10
57.4232505867
 20
33.591006588
 30
0.0
 10
57.4048902189
 20
33.5434985407
 30
0.0
 10
57.3558475831
 20
33.4900455614
 30
0.0
 10
57.3114103879
 20
33.4762020324
 30
0.0
 10
57.2909358248
 20
33.4764410083
 30
0.0
  0
SPLINE
  5
344
100
AcDbEntity
  8
0
100
AcDbSpline
 62
7
  6
BYLAYER
 70
0
 71
3
 72
20
 73
16
 74
0
 42
0.0000001
 43
0.0000001
 44
0.0000000001
 40
0.0
 40
0.0
 40
0.0
 40
0.0
 40
0.0670059462
 40
0.1274465744
 40
0.1848962592
 40
0.2417343415
 40
0.2684916988
 40
0.2964756818
 40
0.3592691855
 40
0.4342442586
 40
0.5217493768
 40
0.6237008951
 40
0.7390011393
 40
0.8657251989
 40
1.0
 40
1.0
 40
1.0
 40
1.0
 10
12.809295908
 20
38.442067781
 30
0.0
 10
12.8064190567
 20
38.464979657
 30
0.0
 10
12.8032769097
 20
38.508941486
 30
0.0
 10
12.8092322749
 20
38.5727773802
 30
0.0
 10
12.8289953606
 20
38.6304673609
 30
0.0
 10
12.8583042261
 20
38.6702629583
 30
0.0
 10
12.8871527094
 20
38.6958074335
 30
0.0
 10
12.9206779137
 20
38.7187098958
 30
0.0
 10
12.9728142987
 20
38.7429219044
 30
0.0
 10
13.0476136618
 20
38.7644257521
 30
0.0
 10
13.1375239336
 20
38.7800075689
 30
0.0
 10
13.242070025
 20
38.7905411217
 30
0.0
 10
13.3604234061
 20
38.7975023578
 30
0.0
 10
13.4900054835
 20
38.8026078069
 30
0.0
 10
13.579897037
 20
38.8057483952
 30
0.0
 10
13.6261341172
 20
38.8076006444
 30
0.0
  0
SPLINE
  5
345
100
AcDbEntity
  8
0
100
AcDbSpline
 62
7
  6
BYLAYER
 70
0
 71
3
 72
14
 73
10
 74
0
 42
0.0000001
 43
0.0000001
 44
0.0000000001
 40
0.0
 40
0.0
 40
0.0
 40
0.0
 40
0.1339104313
 40
0.2668717642
 40
0.3979677808
 40
0.5263596061
 40
0.6512991934
 40
0.7721956493
 40
1.0
 40
1.0
 40
1.0
 40
1.0
 10
10.418430077
 20
44.9740420713
 30
0.0
 10
10.4184300764
 20
44.6560749413
 30
0.0
 10
10.4452209468
 20
44.0220711863
 30
0.0
 10
10.5647902022
 20
43.0835962627
 30
0.0
 10
10.7626459971
 20
42.1717196038
 30
0.0
 10
11.0353800349
 20
41.2993289836
 30
0.0
 10
11.380000162
 20
40.4785255901
 30
0.0
 10
11.916637027
 20
39.4891160296
 30
0.0
 10
12.4268107837
 20
38.8245534073
 30
0.0
 10
12.8092959083
 20
38.4420677807
 30
0.0
  0
LINE
  5
346
100
AcDbEntity
  8
0
100
AcDbLine
 62
7
  6
BYLAYER
 10
16.1985907488
 20
36.9759323624
 11
15.6816143975
 21
38.4740419061
  0
SPLINE
  5
347
100
AcDbEntity
  8
0
100
AcDbSpline
 62
7
  6
BYLAYER
 70
0
 71
3
 72
14
 73
10
 74
0
 42
0.0000001
 43
0.0000001
 44
0.0000000001
 40
0.0
 40
0.0
 40
0.0
 40
0.0
 40
0.2662308838
 40
0.3942301059
 40
0.5191932204
 40
0.6416109699
 40
0.7620980023
 40
0.8813228423
 40
1.0
 40
1.0
 40
1.0
 40
1.0
 10
12.8092964586
 20
38.4420633976
 30
0.0
 10
13.0475417421
 20
38.2038169672
 30
0.0
 10
13.4309395296
 20
37.8790255463
 30
0.0
 10
13.9882185026
 20
37.5294569783
 30
0.0
 10
14.4144301459
 20
37.3176547417
 30
0.0
 10
14.8515391827
 20
37.1549072487
 30
0.0
 10
15.2966275454
 20
37.0418679627
 30
0.0
 10
15.7467325416
 20
36.9791539835
 30
0.0
 10
16.0484693141
 20
36.9713035205
 30
0.0
 10
16.1985907488
 20
36.9759323624
 30
0.0
  0
SPLINE
  5
348
100
AcDbEntity
  8
0
100
AcDbSpline
 62
7
  6
BYLAYER
 70
0
 71
3
 72
23
 73
19
 74
0
 42
0.0000001
 43
0.0000001
 44
0.0000000001
 40
0.0
 40
0.0
 40
0.0
 40
0.0
 40
0.0514055341
 40
0.1033929702
 40
0.1563828605
 40
0.2107464497
 40
0.2385590323
 40
0.2668255781
 40
0.3247791783
 40
0.4465946344
 40
0.5106225693
 40
0.576563171
 40
0.6442371365
 40
0.7134323032
 40
0.7839119105
 40
0.8553846106
 40
0.9275256651
 40
1.0
 40
1.0
 40
1.0
 40
1.0
 10
16.1985687225
 20
36.9759961908
 30
0.0
 10
16.3814194346
 20
36.9816337833
 30
0.0
 10
16.7488726059
 20
37.0186108786
 30
0.0
 10
17.2915534714
 20
37.1488075459
 30
0.0
 10
17.8225283854
 20
37.3521656018
 30
0.0
 10
18.2478586056
 20
37.5795853548
 30
0.0
 10
18.576713619
 20
37.7951580238
 30
0.0
 10
18.9029237547
 20
38.0369161085
 30
0.0
 10
19.4597966397
 20
38.5267407977
 30
0.0
 10
20.0183173759
 20
39.1990826816
 30
0.0
 10
20.4937357376
 20
39.9594188321
 30
0.0
 10
20.8152732961
 20
40.5859661794
 30
0.0
 10
21.0927910379
 20
41.2529839529
 30
0.0
 10
21.3235582145
 20
41.9546147135
 30
0.0
 10
21.5046688087
 20
42.6845579221
 30
0.0
 10
21.6352545507
 20
43.4358178096
 30
0.0
 10
21.7143745528
 20
44.2013091316
 30
0.0
 10
21.7321582792
 20
44.7161266328
 30
0.0
 10
21.7321582792
 20
44.9740420713
 30
0.0
  0
LINE
  5
349
100
AcDbEntity
  8
0
100
AcDbLine
 62
7
  6
BYLAYER
 10
16.1985871414
 20
52.9721413267
 11
15.6816143406
 21
51.4740420713
  0
SPLINE
  5
34A
100
AcDbEntity
  8
0
100
AcDbSpline
 62
7
  6
BYLAYER
 70
0
 71
3
 72
23
 73
19
 74
0
 42
0.0000001
 43
0.0000001
 44
0.0000000001
 40
0.0
 40
0.0
 40
0.0
 40
0.0
 40
0.0724746797
 40
0.1446160442
 40
0.2160890165
 40
0.2865688548
 40
0.3557642077
 40
0.4234383122
 40
0.489379003
 40
0.5534069748
 40
0.6752223409
 40
0.733175813
 40
0.7614422742
 40
0.7892547586
 40
0.8436181124
 40
0.8966077189
 40
0.9485948286
 40
1.0
 40
1.0
 40
1.0
 40
1.0
 10
21.7321439793
 20
44.9740420713
 30
0.0
 10
21.7321439793
 20
45.2319589747
 30
0.0
 10
21.7143603006
 20
45.7467792795
 30
0.0
 10
21.635240499
 20
46.5122746465
 30
0.0
 10
21.5046551189
 20
47.2635382419
 30
0.0
 10
21.3235450755
 20
47.9934848228
 30
0.0
 10
21.0927786634
 20
48.6951186284
 30
0.0
 10
20.8152619115
 20
49.3621391253
 30
0.0
 10
20.4937255819
 20
49.9886888865
 30
0.0
 10
20.0183093574
 20
50.7490274888
 30
0.0
 10
19.4597912103
 20
51.4213716949
 30
0.0
 10
18.9029205934
 20
51.9111983696
 30
0.0
 10
18.5767119983
 20
52.1529573044
 30
0.0
 10
18.2478587567
 20
52.3685306234
 30
0.0
 10
17.8225309149
 20
52.5959511119
 30
0.0
 10
17.2915589672
 20
52.7993099799
 30
0.0
 10
16.7488812919
 20
52.9295073417
 30
0.0
 10
16.3814302765
 20
52.9664848576
 30
0.0
 10
16.1985806925
 20
52.9721226391
 30
0.0
  0
SPLINE
  5
34B
100
AcDbEntity
  8
0
100
AcDbSpline
 62
7
  6
BYLAYER
 70
0
 71
3
 72
23
 73
19
 74
0
 42
0.0000001
 43
0.0000001
 44
0.0000000001
 40
0.0
 40
0.0
 40
0.0
 40
0.0
 40
0.0515464134
 40
0.1034927315
 40
0.1563047663
 40
0.210402488
 40
0.2661547774
 40
0.3238107746
 40
0.3835093539
 40
0.4453158157
 40
0.5092322615
 40
0.5751514319
 40
0.642893071
 40
0.7122398132
 40
0.7829466248
 40
0.8547069831
 40
0.9271767149
 40
1.0
 40
1.0
 40
1.0
 40
1.0
 10
16.1985942837
 20
52.972162024
 30
0.0
 10
16.0109925248
 20
52.9779466106
 30
0.0
 10
15.6329758437
 20
52.9626226145
 30
0.0
 10
15.0714076751
 20
52.8600687755
 30
0.0
 10
14.5200578334
 20
52.6794892163
 30
0.0
 10
13.9846673967
 20
52.4223877503
 30
0.0
 10
13.4711045799
 20
52.0905904409
 30
0.0
 10
12.9838300105
 20
51.6887097917
 30
0.0
 10
12.52724255
 20
51.221122109
 30
0.0
 10
12.1058825939
 20
50.6921992825
 30
0.0
 10
11.7245007259
 20
50.1066628412
 30
0.0
 10
11.3860019464
 20
49.47087153
 30
0.0
 10
11.0934425137
 20
48.7911653726
 30
0.0
 10
10.8499649632
 20
48.073970893
 30
0.0
 10
10.6587805553
 20
47.3260358629
 30
0.0
 10
10.5208600237
 20
46.5549622842
 30
0.0
 10
10.437249596
 20
45.7684351556
 30
0.0
 10
10.4184444869
 20
45.239206386
 30
0.0
 10
10.4184444834
 20
44.9740420713
 30
0.0
  0
SPLINE
  5
34C
100
AcDbEntity
  8
0
100
AcDbSpline
 62
7
  6
BYLAYER
 70
0
 71
3
 72
11
 73
7
 74
0
 42
0.0000001
 43
0.0000001
 44
0.0000000001
 40
0.0
 40
0.0
 40
0.0
 40
0.0
 40
0.2644554409
 40
0.5112699298
 40
0.7578914196
 40
1.0
 40
1.0
 40
1.0
 40
1.0
 10
22.2153264802
 20
56.0526274817
 30
0.0
 10
22.217070121
 20
56.0786569055
 30
0.0
 10
22.2307899084
 20
56.1287771858
 30
0.0
 10
22.2757496801
 20
56.1902416672
 30
0.0
 10
22.3367977786
 20
56.2319862579
 30
0.0
 10
22.3846817451
 20
56.2442163463
 30
0.0
 10
22.4085116457
 20
56.2458126469
 30
0.0
  0
SPLINE
  5
34D
100
AcDbEntity
  8
0
100
AcDbSpline
 62
7
  6
BYLAYER
 70
0
 71
3
 72
10
 73
6
 74
0
 42
0.0000001
 43
0.0000001
 44
0.0000000001
 40
0.0
 40
0.0
 40
0.0
 40
0.0
 40
0.3352330453
 40
0.6686150223
 40
1.0
 40
1.0
 40
1.0
 40
1.0
 10
22.2267228237
 20
52.8411389044
 30
0.0
 10
22.2246233649
 20
52.8469934119
 30
0.0
 10
22.2209635296
 20
52.8588676997
 30
0.0
 10
22.2171440417
 20
52.87704757
 30
0.0
 10
22.215737409
 20
52.8893222378
 30
0.0
 10
22.2153264805
 20
52.8954566615
 30
0.0
  0
SPLINE
  5
34E
100
AcDbEntity
  8
0
100
AcDbSpline
 62
7
  6
BYLAYER
 70
0
 71
3
 72
10
 73
6
 74
0
 42
0.0000001
 43
0.0000001
 44
0.0000000001
 40
0.0
 40
0.0
 40
0.0
 40
0.0
 40
0.3300501778
 40
0.6657041111
 40
1.0
 40
1.0
 40
1.0
 40
1.0
 10
22.4085116458
 20
52.7022714961
 30
0.0
 10
22.3821264564
 20
52.7040389686
 30
0.0
 10
22.3291340206
 20
52.7187147528
 30
0.0
 10
22.2641419496
 20
52.768524082
 30
0.0
 10
22.2357641234
 20
52.8159265222
 30
0.0
 10
22.2267228237
 20
52.8411389044
 30
0.0
  0
SPLINE
  5
34F
100
AcDbEntity
  8
0
100
AcDbSpline
 62
7
  6
BYLAYER
 70
0
 71
3
 72
15
 73
11
 74
0
 42
0.0000001
 43
0.0000001
 44
0.0000000001
 40
0.0
 40
0.0
 40
0.0
 40
0.0
 40
0.1656249297
 40
0.3162945861
 40
0.4533184379
 40
0.5851233047
 40
0.6939644117
 40
0.7966628657
 40
0.8891230878
 40
1.0
 40
1.0
 40
1.0
 40
1.0
 10
27.7588676307
 20
56.0526274813
 30
0.0
 10
27.7577713387
 20
56.0689931508
 30
0.0
 10
27.7516941356
 20
56.1001121308
 30
0.0
 10
27.7331278647
 20
56.1413420086
 30
0.0
 10
27.7086565179
 20
56.1752291634
 30
0.0
 10
27.6813471103
 20
56.2010976578
 30
0.0
 10
27.6530003951
 20
56.220105584
 30
0.0
 10
27.6256788399
 20
56.2330154857
 30
0.0
 10
27.5966584737
 20
56.242027622
 30
0.0
 10
27.576638394
 20
56.2450787386
 30
0.0
 10
27.5656824655
 20
56.2458126466
 30
0.0
  0
SPLINE
  5
350
100
AcDbEntity
  8
0
100
AcDbSpline
 62
7
  6
BYLAYER
 70
0
 71
3
 72
11
 73
7
 74
0
 42
0.0000001
 43
0.0000001
 44
0.0000000001
 40
0.0
 40
0.0
 40
0.0
 40
0.0
 40
0.2644554425
 40
0.5112699315
 40
0.7578914214
 40
1.0
 40
1.0
 40
1.0
 40
1.0
 10
27.7588676307
 20
52.8954566613
 30
0.0
 10
27.7571239899
 20
52.8694272373
 30
0.0
 10
27.7434042025
 20
52.8193069569
 30
0.0
 10
27.6984444307
 20
52.7578424756
 30
0.0
 10
27.6373963325
 20
52.7160978852
 30
0.0
 10
27.5895123663
 20
52.7038677967
 30
0.0
 10
27.5656824659
 20
52.702271496
 30
0.0
  0
SPLINE
  5
351
100
AcDbEntity
  8
0
100
AcDbSpline
 62
7
  6
BYLAYER
 70
0
 71
3
 72
9
 73
5
 74
0
 42
0.0000001
 43
0.0000001
 44
0.0000000001
 40
0.0
 40
0.0
 40
0.0
 40
0.0
 40
0.499999998
 40
1.0
 40
1.0
 40
1.0
 40
1.0
 10
29.0146717427
 20
44.4234053008
 30
0.0
 10
28.9643260287
 20
44.4234101104
 30
0.0
 10
28.867950846
 20
44.436947217
 30
0.0
 10
28.7909915901
 20
44.4865011104
 30
0.0
 10
28.7599873328
 20
44.5194130473
 30
0.0
  0
SPLINE
  5
352
100
AcDbEntity
  8
0
100
AcDbSpline
 62
7
  6
BYLAYER
 70
0
 71
3
 72
9
 73
5
 74
0
 42
0.0000001
 43
0.0000001
 44
0.0000000001
 40
0.0
 40
0.0
 40
0.0
 40
0.0
 40
0.5
 40
1.0
 40
1.0
 40
1.0
 40
1.0
 10
27.1780946162
 20
44.309891788
 30
0.0
 10
27.0942834725
 20
44.3927745341
 30
0.0
 10
26.9668673521
 20
44.5926234816
 30
0.0
 10
26.930769317
 20
44.8380722412
 30
0.0
 10
26.9307643585
 20
44.9660552681
 30
0.0
  0
SPLINE
  5
353
100
AcDbEntity
  8
0
100
AcDbSpline
 62
7
  6
BYLAYER
 70
0
 71
3
 72
9
 73
5
 74
0
 42
0.0000001
 43
0.0000001
 44
0.0000000001
 40
0.0
 40
0.0
 40
0.0
 40
0.0
 40
0.4999999999
 40
1.0
 40
1.0
 40
1.0
 40
1.0
 10
27.8481012078
 20
44.0561014114
 30
0.0
 10
27.7172055632
 20
44.0589640569
 30
0.0
 10
27.4656406408
 20
44.0993543252
 30
0.0
 10
27.2626999684
 20
44.2262432245
 30
0.0
 10
27.1780946162
 20
44.309891788
 30
0.0
  0
SPLINE
  5
354
100
AcDbEntity
  8
0
100
AcDbSpline
 62
7
  6
BYLAYER
 70
0
 71
3
 72
8
 73
4
 74
0
 42
0.0000001
 43
0.0000001
 44
0.0000000001
 40
0.0
 40
0.0
 40
0.0
 40
0.0
 40
1.0
 40
1.0
 40
1.0
 40
1.0
 10
27.5297096468
 20
44.4335569166
 30
0.0
 10
27.6211696167
 20
44.3759840343
 30
0.0
 10
27.7444864319
 20
44.346173077
 30
0.0
 10
27.8776331789
 20
44.3329636403
 30
0.0
  0
SPLINE
  5
355
100
AcDbEntity
  8
0
100
AcDbSpline
 62
7
  6
BYLAYER
 70
0
 71
3
 72
9
 73
5
 74
0
 42
0.0000001
 43
0.0000001
 44
0.0000000001
 40
0.0
 40
0.0
 40
0.0
 40
0.0
 40
0.5
 40
1.0
 40
1.0
 40
1.0
 40
1.0
 10
27.3817758146
 20
45.3933459732
 30
0.0
 10
27.3366496058
 20
45.3422558367
 30
0.0
 10
27.2712805346
 20
45.2178861328
 30
0.0
 10
27.2537742959
 20
45.0656069899
 30
0.0
 10
27.2537702932
 20
44.986358498
 30
0.0
  0
SPLINE
  5
356
100
AcDbEntity
  8
0
100
AcDbSpline
 62
7
  6
BYLAYER
 70
0
 71
3
 72
9
 73
5
 74
0
 42
0.0000001
 43
0.0000001
 44
0.0000000001
 40
0.0
 40
0.0
 40
0.0
 40
0.0
 40
0.5000000002
 40
1.0
 40
1.0
 40
1.0
 40
1.0
 10
28.2311516371
 20
44.8682306138
 30
0.0
 10
28.2037269639
 20
44.9608874707
 30
0.0
 10
28.1486491944
 20
45.1385376119
 30
0.0
 10
28.0940545377
 20
45.2816369475
 30
0.0
 10
28.0697063491
 20
45.3268990377
 30
0.0
  0
SPLINE
  5
357
100
AcDbEntity
  8
0
100
AcDbSpline
 62
7
  6
BYLAYER
 70
0
 71
3
 72
9
 73
5
 74
0
 42
0.0000001
 43
0.0000001
 44
0.0000000001
 40
0.0
 40
0.0
 40
0.0
 40
0.0
 40
0.5
 40
1.0
 40
1.0
 40
1.0
 40
1.0
 10
28.4184373975
 20
44.4215595527
 30
0.0
 10
28.3815004852
 20
44.47371442
 30
0.0
 10
28.313937435
 20
44.6107086847
 30
0.0
 10
28.2574225977
 20
44.779743445
 30
0.0
 10
28.2311516371
 20
44.8682306138
 30
0.0
  0
SPLINE
  5
358
100
AcDbEntity
  8
0
100
AcDbSpline
 62
7
  6
BYLAYER
 70
0
 71
3
 72
9
 73
5
 74
0
 42
0.0000001
 43
0.0000001
 44
0.0000000001
 40
0.0
 40
0.0
 40
0.0
 40
0.0
 40
0.5000000004
 40
1.0
 40
1.0
 40
1.0
 40
1.0
 10
29.5221948141
 20
44.3532668698
 30
0.0
 10
29.4527797585
 20
44.2826325519
 30
0.0
 10
29.288622973
 20
44.1732865022
 30
0.0
 10
29.0890109682
 20
44.141011173
 30
0.0
 10
28.985082092
 20
44.1410058282
 30
0.0
  0
SPLINE
  5
359
100
AcDbEntity
  8
0
100
AcDbSpline
 62
7
  6
BYLAYER
 70
0
 71
3
 72
9
 73
5
 74
0
 42
0.0000001
 43
0.0000001
 44
0.0000000001
 40
0.0
 40
0.0
 40
0.0
 40
0.0
 40
0.5000000002
 40
1.0
 40
1.0
 40
1.0
 40
1.0
 10
29.7307643592
 20
44.9254488075
 30
0.0
 10
29.7307595793
 20
44.8139924431
 30
0.0
 10
29.7002896606
 20
44.599265103
 30
0.0
 10
29.5933586455
 20
44.4257002482
 30
0.0
 10
29.5221948141
 20
44.3532668698
 30
0.0
  0
SPLINE
  5
35A
100
AcDbEntity
  8
0
100
AcDbSpline
 62
7
  6
BYLAYER
 70
0
 71
3
 72
9
 73
5
 74
0
 42
0.0000001
 43
0.0000001
 44
0.0000000001
 40
0.0
 40
0.0
 40
0.0
 40
0.0
 40
0.5
 40
1.0
 40
1.0
 40
1.0
 40
1.0
 10
29.2877847952
 20
45.315824549
 30
0.0
 10
29.2423448109
 20
45.3642166164
 30
0.0
 10
29.125362275
 20
45.4378242733
 30
0.0
 10
28.9753208926
 20
45.467016664
 30
0.0
 10
28.8964861795
 20
45.4736360193
 30
0.0
  0
SPLINE
  5
35B
100
AcDbEntity
  8
0
100
AcDbSpline
 62
7
  6
BYLAYER
 70
0
 71
3
 72
9
 73
5
 74
0
 42
0.0000001
 43
0.0000001
 44
0.0000000001
 40
0.0
 40
0.0
 40
0.0
 40
0.0
 40
0.5
 40
1.0
 40
1.0
 40
1.0
 40
1.0
 10
29.4151414195
 20
44.9346775486
 30
0.0
 10
29.4151371562
 20
45.0092252121
 30
0.0
 10
29.3974233221
 20
45.1527150544
 30
0.0
 10
29.3322857676
 20
45.2684104592
 30
0.0
 10
29.2877847952
 20
45.315824549
 30
0.0
  0
SPLINE
  5
35C
100
AcDbEntity
  8
0
100
AcDbSpline
 62
7
  6
BYLAYER
 70
0
 71
3
 72
9
 73
5
 74
0
 42
0.0000001
 43
0.0000001
 44
0.0000000001
 40
0.0
 40
0.0
 40
0.0
 40
0.0
 40
0.4999999985
 40
1.0
 40
1.0
 40
1.0
 40
1.0
 10
29.3034880755
 20
44.554453424
 30
0.0
 10
29.3435400639
 20
44.6014744811
 30
0.0
 10
29.400391448
 20
44.7176728574
 30
0.0
 10
29.4151377603
 20
44.8604124048
 30
0.0
 10
29.4151414195
 20
44.9346775486
 30
0.0
  0
SPLINE
  5
35D
100
AcDbEntity
  8
0
100
AcDbSpline
 62
7
  6
BYLAYER
 70
0
 71
3
 72
9
 73
5
 74
0
 42
0.0000001
 43
0.0000001
 44
0.0000000001
 40
0.0
 40
0.0
 40
0.0
 40
0.0
 40
0.5
 40
1.0
 40
1.0
 40
1.0
 40
1.0
 10
28.5768545064
 20
44.9511739238
 30
0.0
 10
28.6016068108
 20
44.8615117153
 30
0.0
 10
28.6551924614
 20
44.6906331246
 30
0.0
 10
28.7225598062
 20
44.5591449253
 30
0.0
 10
28.7599873336
 20
44.5194130465
 30
0.0
  0
SPLINE
  5
35E
100
AcDbEntity
  8
0
100
AcDbSpline
 62
7
  6
BYLAYER
 70
0
 71
3
 72
9
 73
5
 74
0
 42
0.0000001
 43
0.0000001
 44
0.0000000001
 40
0.0
 40
0.0
 40
0.0
 40
0.0
 40
0.5
 40
1.0
 40
1.0
 40
1.0
 40
1.0
 10
28.4192449151
 20
45.4123802518
 30
0.0
 10
28.4462148876
 20
45.3586892945
 30
0.0
 10
28.5004000611
 20
45.2155387886
 30
0.0
 10
28.5518011768
 20
45.0417004792
 30
0.0
 10
28.5768545064
 20
44.9511739238
 30
0.0
  0
SPLINE
  5
35F
100
AcDbEntity
  8
0
100
AcDbSpline
 62
7
  6
BYLAYER
 70
0
 71
3
 72
8
 73
4
 74
0
 42
0.0000001
 43
0.0000001
 44
0.0000000001
 40
0.0
 40
0.0
 40
0.0
 40
0.0
 40
1.0
 40
1.0
 40
1.0
 40
1.0
 10
27.743845277
 20
45.822482427
 30
0.0
 10
27.8916685767
 20
45.8224751063
 30
0.0
 10
28.0308060069
 20
45.7900634148
 30
0.0
 10
28.1467230787
 20
45.7189042302
 30
0.0
  0
SPLINE
  5
360
100
AcDbEntity
  8
0
100
AcDbSpline
 62
7
  6
BYLAYER
 70
0
 71
3
 72
8
 73
4
 74
0
 42
0.0000001
 43
0.0000001
 44
0.0000000001
 40
0.0
 40
0.0
 40
0.0
 40
0.0
 40
1.0
 40
1.0
 40
1.0
 40
1.0
 10
26.9307643585
 20
44.9660552681
 30
0.0
 10
26.9307705804
 20
45.1310704913
 30
0.0
 10
26.9608789705
 20
45.2866383733
 30
0.0
 10
27.0303338216
 20
45.4173406971
 30
0.0
  0
ENDSEC
  0
SECTION
  2
OBJECTS
  0
DICTIONARY
  5
C
100
AcDbDictionary
280
0
281
1
  3
ACAD_GROUP
350
D
  3
ACAD_MLINESTYLE
350
17
  3
ACAD_LAYOUT
350
1A
  3
ACAD_PLOTSETTINGS
350
19
  3
ACAD_PLOTSTYLENAME
350
E
  0
DICTIONARY
  5
D
102
{ACAD_REACTORS
330
C
102
}
100
AcDbDictionary
280
0
281
1
  0
ACDBDICTIONARYWDFLT
  5
E
102
{ACAD_REACTORS
330
C
102
}
100
AcDbDictionary
281
1
  3
Normal
350
F
100
AcDbDictionaryWithDefault
340
F
  0
DICTIONARY
  5
17
102
{ACAD_REACTORS
330
C
102
}
100
AcDbDictionary
280
0
281
1
  3
Standard
350
18
  0
DICTIONARY
  5
19
102
{ACAD_REACTORS
330
C
102
}
100
AcDbDictionary
281
1
  0
DICTIONARY
  5
1A
102
{ACAD_REACTORS
330
C
102
}
100
AcDbDictionary
281
1
  3
Model
350
361
  3
Layout1
350
362
  0
ACDBPLACEHOLDER
  5
F
102
{ACAD_REACTORS
330
E
102
}
  0
MLINESTYLE
  5
18
102
{ACAD_REACTORS
330
17
102
}
100
AcDbMlineStyle
  2
STANDARD
 70
0
  3

 62
256
 51
90.0
 52
90.0
 71
2
 49
0.5
 62
256
  6
BYLAYER
 49
-0.5
 62
256
  6
BYLAYER
  0
LAYOUT
  5
361
102
{ACAD_REACTORS
330
1A
102
}
100
AcDbPlotSettings
  1

  2
none_device
  4

  6

 40
0.0
 41
0.0
 42
0.0
 43
0.0
 44
210.0
 45
297.0
 46
0.0
 47
0.0
 48
0.0
 49
0.0
140
0.0
141
0.0
142
1.0
143
1.0
 70
1024
 72
1
 73
0
 74
0
  7

 75
0
147
1.0
148
0.0
149
0.0
100
AcDbLayout
  1
Model
 70
0
 71
0
 10
0.0
 20
0.0
 11
210.0
 21
297.0
 12
0.0
 22
0.0
 32
0.0
 14
0.0
 24
0.0
 34
0.0
 15
0.0
 25
0.0
 35
0.0
146
0.0
 13
0.0
 23
0.0
 33
0.0
 16
1.0
 26
0.0
 36
0.0
 17
0.0
 27
1.0
 37
0.0
 76
0
330
210
345
0
346
0
  0
LAYOUT
  5
362
102
{ACAD_REACTORS
330
1A
102
}
100
AcDbPlotSettings
  1

  2
none_device
  4

  6

 40
0.0
 41
0.0
 42
0.0
 43
0.0
 44
210.0
 45
297.0
 46
0.0
 47
0.0
 48
0.0
 49
0.0
140
0.0
141
0.0
142
1.0
143
1.0
 70
0
 72
1
 73
0
 74
0
  7

 75
0
147
1.0
148
0.0
149
0.0
100
AcDbLayout
  1
Layout1
 70
0
 71
1
 10
0.0
 20
0.0
 11
210.0
 21
297.0
 12
0.0
 22
0.0
 32
0.0
 14
0.0
 24
0.0
 34
0.0
 15
0.0
 25
0.0
 35
0.0
146
0.0
 13
0.0
 23
0.0
 33
0.0
 16
1.0
 26
0.0
 36
0.0
 17
0.0
 27
1.0
 37
0.0
 76
0
330
211
345
0
346
0
  0
ENDSEC
  0
EOF
