999
DXF file: C:\Users\sesa63760\Dev\_Creo\CAD\MCADID0005846_3D-CAD\mcadid0005846_3d-simplified_1.dxf
999
Pro/ENGINEER 2019471 by Parametric Technology Corporation
  0
SECTION
  2
HEADER
  9
$ACADVER
  1
AC1024
  9
$DWGCODEPAGE
  3
ANSI_1252
  9
$EXTMAX
 10
58.0924783455
 20
82.1593622316
 30
0.0
  9
$EXTMIN
 10
0.0
 20
0.0
 30
0.0
  9
$LIMMIN
 10
0.0
 20
0.0
  9
$LIMMAX
 10
58.0924783455
 20
82.1593622316
  9
$VIEWCTR
 10
29.0462391728
 20
41.0796811158
  9
$VIEWSIZE
 40
82.1593622316
  9
$CLAYER
  8
0
  9
$LTSCALE
 40
5.3555732418
  9
$CELTYPE
  6
BYLAYER
  9
$DIMSCALE
 40
1.0
  9
$DIMASZ
 40
0.6915771232
  9
$DIMEXO
 40
1.0
  9
$DIMDLI
 40
3.7002142398
  9
$DIMEXE
 40
1.0
  9
$DIMCEN
 40
0.8763665305
  9
$DIMLFAC
 40
1.0
  9
$DIMBLK
  1
_FILLED
  9
$DIMALT
 70
0
  9
$DIMALTF
 40
0.0393700787
  9
$DIMTXT
 40
0.9682079724
  9
$DIMTOL
 70
1
  9
$DIMLIM
 70
0
  9
$DIMTFAC
 40
1.0
  9
$DIMTP
 40
0.01
  9
$DIMTM
 40
0.01
  9
$DIMGAP
 40
0.625
  9
$DIMDSEP
 70
46
  9
$AUNITS
 70
0
  9
$PDMODE
 70
3
  9
$PDSIZE
 40
0.3125
  9
$HANDSEED
  5
3B6
  9
$TILEMODE
 70
1
  9
$MEASUREMENT
 70
1
  9
$INSUNITS
 70
4
  0
ENDSEC
  0
SECTION
  2
CLASSES
  0
CLASS
  1
ACDBDICTIONARYWDFLT
  2
AcDbDictionaryWithDefault
  3
AutoCAD 2000
 90
0
 91
1
280
0
281
0
  0
CLASS
  1
ACDBPLACEHOLDER
  2
AcDbPlaceHolder
  3
AutoCAD 2000
 90
0
 91
1
280
0
281
0
  0
CLASS
  1
LAYOUT
  2
AcDbLayout
  3
AutoCAD 2000
 90
0
 91
0
280
0
281
0
  0
ENDSEC
  0
SECTION
  2
TABLES
  0
TABLE
  2
VPORT
  5
8
100
AcDbSymbolTable
 70
2
  0
VPORT
  5
1F4
100
AcDbSymbolTableRecord
100
AcDbViewportTableRecord
  2
*ACTIVE
 70
0
 10
0.0
 20
0.0
 11
1.0
 21
1.0
 12
29.0462391728
 22
41.0796811158
 13
0.0
 23
0.0
 14
1.0
 24
1.0
 15
0.0
 25
0.0
 16
0.0
 26
0.0
 36
1.0
 17
0.0
 27
0.0
 37
0.0
 40
82.1593622316
 41
0.7070707071
 42
50.0
 43
0.0
 44
0.0
 50
0.0
 51
0.0
 71
0
 72
100
 73
1
 74
1
 75
0
 76
0
 77
0
 78
0
  0
ENDTAB
  0
TABLE
  2
LTYPE
  5
5
100
AcDbSymbolTable
 70
6
  0
LTYPE
  5
14
100
AcDbSymbolTableRecord
100
AcDbLinetypeTableRecord
  2
BYBLOCK
 70
0
  3

 72
65
 73
0
 40
0.0
  0
LTYPE
  5
15
100
AcDbSymbolTableRecord
100
AcDbLinetypeTableRecord
  2
BYLAYER
 70
0
  3

 72
65
 73
0
 40
0.0
  0
LTYPE
  5
16
100
AcDbSymbolTableRecord
100
AcDbLinetypeTableRecord
  2
CONTINUOUS
 70
64
  3
Solid line
 72
65
 73
0
 40
0.0
  0
LTYPE
  5
1F5
100
AcDbSymbolTableRecord
100
AcDbLinetypeTableRecord
  2
CENTER
 70
64
  3
____ _ ____ _ ____ _ ____ _ ____ _ ____ _ ____
 72
65
 73
4
 40
0.6
 49
0.375
 74
0
 49
-0.075
 74
0
 49
0.075
 74
0
 49
-0.075
 74
0
  0
LTYPE
  5
1F6
100
AcDbSymbolTableRecord
100
AcDbLinetypeTableRecord
  2
HIDDEN
 70
64
  3
- - - - - - - - - - - - - - - - - - - -
 72
65
 73
2
 40
0.2
 49
0.1
 74
0
 49
-0.1
 74
0
  0
LTYPE
  5
1F7
100
AcDbSymbolTableRecord
100
AcDbLinetypeTableRecord
  2
PHANTOM
 70
64
  3
_____ _ _ _____ _ _ _____ _ _ _____
 72
65
 73
6
 40
0.8
 49
0.45
 74
0
 49
-0.05
 74
0
 49
0.1
 74
0
 49
-0.05
 74
0
 49
0.1
 74
0
 49
-0.05
 74
0
  0
LTYPE
  5
1F8
100
AcDbSymbolTableRecord
100
AcDbLinetypeTableRecord
  2
DOT
 70
64
  3
. . . . . . . . . . . . . . . . . . . .
 72
65
 73
2
 40
0.2
 49
0.1
 74
0
 49
-0.1
 74
0
  0
LTYPE
  5
1F9
100
AcDbSymbolTableRecord
100
AcDbLinetypeTableRecord
  2
DASHED
 70
64
  3
- - - - - - - - - - - - - - - - - - - -
 72
65
 73
2
 40
0.2
 49
0.1
 74
0
 49
-0.1
 74
0
  0
ENDTAB
  0
TABLE
  2
LAYER
  5
2
100
AcDbSymbolTable
 70
36
  0
LAYER
  5
10
100
AcDbSymbolTableRecord
100
AcDbLayerTableRecord
  2
0
 70
0
 62
7
  6
CONTINUOUS
370
-3
390
F
  0
LAYER
  5
1FA
100
AcDbSymbolTableRecord
100
AcDbLayerTableRecord
  2
DEFAULT_1
 70
0
 62
7
  6
CENTER
370
-3
390
F
  0
LAYER
  5
1FB
100
AcDbSymbolTableRecord
100
AcDbLayerTableRecord
  2
DEFAULT_2
 70
0
 62
7
  6
HIDDEN
370
-3
390
F
  0
LAYER
  5
1FC
100
AcDbSymbolTableRecord
100
AcDbLayerTableRecord
  2
DEFAULT_3
 70
0
 62
7
  6
PHANTOM
370
-3
390
F
  0
LAYER
  5
1FD
100
AcDbSymbolTableRecord
100
AcDbLayerTableRecord
  2
00_COMPONENTS
 70
0
 62
7
  6
CONTINUOUS
370
-3
390
F
  0
LAYER
  5
1FE
100
AcDbSymbolTableRecord
100
AcDbLayerTableRecord
  2
01_1_DEFAULT_DATUMS
 70
0
 62
7
  6
CONTINUOUS
370
-3
390
F
  0
LAYER
  5
1FF
100
AcDbSymbolTableRecord
100
AcDbLayerTableRecord
  2
01_PLANES
 70
0
 62
7
  6
CONTINUOUS
370
-3
390
F
  0
LAYER
  5
200
100
AcDbSymbolTableRecord
100
AcDbLayerTableRecord
  2
02_COORD_SYS
 70
0
 62
7
  6
CONTINUOUS
370
-3
390
F
  0
LAYER
  5
201
100
AcDbSymbolTableRecord
100
AcDbLayerTableRecord
  2
03_AXES
 70
0
 62
7
  6
CONTINUOUS
370
-3
390
F
  0
LAYER
  5
202
100
AcDbSymbolTableRecord
100
AcDbLayerTableRecord
  2
04_POINTS
 70
0
 62
7
  6
CONTINUOUS
370
-3
390
F
  0
LAYER
  5
203
100
AcDbSymbolTableRecord
100
AcDbLayerTableRecord
  2
05_CURVES
 70
0
 62
7
  6
CONTINUOUS
370
-3
390
F
  0
LAYER
  5
204
100
AcDbSymbolTableRecord
100
AcDbLayerTableRecord
  2
06_SURFS
 70
0
 62
7
  6
CONTINUOUS
370
-3
390
F
  0
LAYER
  5
205
100
AcDbSymbolTableRecord
100
AcDbLayerTableRecord
  2
07_COSMETICS
 70
0
 62
7
  6
CONTINUOUS
370
-3
390
F
  0
LAYER
  5
206
100
AcDbSymbolTableRecord
100
AcDbLayerTableRecord
  2
10_NOTES
 70
0
 62
7
  6
CONTINUOUS
370
-3
390
F
  0
LAYER
  5
207
100
AcDbSymbolTableRecord
100
AcDbLayerTableRecord
  2
11_NOTES_PUB
 70
0
 62
7
  6
CONTINUOUS
370
-3
390
F
  0
LAYER
  5
208
100
AcDbSymbolTableRecord
100
AcDbLayerTableRecord
  2
13_REF_GTOL
 70
0
 62
7
  6
CONTINUOUS
370
-3
390
F
  0
LAYER
  5
209
100
AcDbSymbolTableRecord
100
AcDbLayerTableRecord
  2
16_MISC
 70
0
 62
7
  6
CONTINUOUS
370
-3
390
F
  0
LAYER
  5
20A
100
AcDbSymbolTableRecord
100
AcDbLayerTableRecord
  2
17_NO_PRINT
 70
0
 62
7
  6
CONTINUOUS
370
-3
390
F
  0
LAYER
  5
20B
100
AcDbSymbolTableRecord
100
AcDbLayerTableRecord
  2
18_DATUM_CAMS_JOINTS
 70
0
 62
7
  6
CONTINUOUS
370
-3
390
F
  0
LAYER
  5
20C
100
AcDbSymbolTableRecord
100
AcDbLayerTableRecord
  2
19_DATUM_FUNCTIONAL
 70
0
 62
7
  6
CONTINUOUS
370
-3
390
F
  0
LAYER
  5
20D
100
AcDbSymbolTableRecord
100
AcDbLayerTableRecord
  2
20_DATUM_KINEMATIC_SCHEME
 70
0
 62
7
  6
CONTINUOUS
370
-3
390
F
  0
ENDTAB
  0
TABLE
  2
STYLE
  5
3
100
AcDbSymbolTable
 70
1
  0
STYLE
  5
11
100
AcDbSymbolTableRecord
100
AcDbTextStyleTableRecord
  2
STANDARD
 70
0
 40
0.0
 41
1.0
 50
0.0
 71
0
 42
0.2
  3
ARIAL.TTF
  4

  0
STYLE
  5
20E
100
AcDbSymbolTableRecord
100
AcDbTextStyleTableRecord
  2
TEXTSTYLE_1
 70
0
 40
0.0
 41
0.8
 50
0.0
 71
0
 42
0.2
  3
gdt
  4

  0
ENDTAB
  0
TABLE
  2
VIEW
  5
6
100
AcDbSymbolTable
 70
0
  0
ENDTAB
  0
TABLE
  2
UCS
  5
7
100
AcDbSymbolTable
 70
0
  0
ENDTAB
  0
TABLE
  2
APPID
  5
9
100
AcDbSymbolTable
 70
1
  0
APPID
  5
20F
100
AcDbSymbolTableRecord
100
AcDbRegAppTableRecord
  2
ACAD
 70
0
  0
ENDTAB
  0
TABLE
  2
BLOCK_RECORD
  5
1
100
AcDbSymbolTable
 70
0
  0
BLOCK_RECORD
  5
210
100
AcDbSymbolTableRecord
100
AcDbBlockTableRecord
  2
*Model_Space
  0
BLOCK_RECORD
  5
211
100
AcDbSymbolTableRecord
100
AcDbBlockTableRecord
  2
*Paper_Space
  0
BLOCK_RECORD
  5
212
100
AcDbSymbolTableRecord
100
AcDbBlockTableRecord
  2
_FILLED
  0
ENDTAB
  0
TABLE
  2
DIMSTYLE
  5
A
100
AcDbSymbolTable
 70
1
100
AcDbDimStyleTable
 71
0
  0
DIMSTYLE
105
213
100
AcDbSymbolTableRecord
100
AcDbDimStyleTableRecord
  2
STANDARD
 70
0
  3

  4

 40
1.0
 41
0.6915771232
 42
1.0
 43
0.38
 44
1.0
 45
0.0
 46
0.0
 47
0.01
 48
0.01
140
0.9682079724
141
0.09
142
0.0
143
25.4
144
1.0
145
0.0
146
1.0
147
0.625
 71
1
 72
0
 73
0
 74
0
 75
0
 76
0
 77
1
 78
8
 79
2
170
0
171
1
172
0
173
0
174
0
175
0
176
0
177
0
178
0
270
2
179
2
271
2
272
2
273
2
274
2
275
0
280
0
281
0
282
0
283
1
284
8
285
0
286
0
287
3
288
0
340
11
278
46
341
212
342
212
343
212
344
212
  0
ENDTAB
  0
ENDSEC
  0
SECTION
  2
BLOCKS
  0
BLOCK
  5
20
100
AcDbEntity
  8
0
100
AcDbBlockBegin
  2
*Model_Space
 70
0
 10
0.0
 20
0.0
 30
0.0
  3
*Model_Space
  1

  0
ENDBLK
  5
21
100
AcDbEntity
  8
0
100
AcDbBlockEnd
  0
BLOCK
  5
1C
100
AcDbEntity
  8
0
100
AcDbBlockBegin
  2
*Paper_Space
 70
0
 10
0.0
 20
0.0
 30
0.0
  3
*Paper_Space
  1

  0
ENDBLK
  5
1D
100
AcDbEntity
  8
0
100
AcDbBlockEnd
  0
BLOCK
  5
214
100
AcDbEntity
  8
0
100
AcDbBlockBegin
  2
_FILLED
 70
64
 10
0.0
 20
0.0
  3
_FILLED
  1

  0
SOLID
  5
215
100
AcDbEntity
  8
0
  6
BYBLOCK
 62
0
100
AcDbTrace
 10
0.0
 20
0.0
 11
-1.0
 21
0.25
 12
-1.0
 22
-0.25
 13
-1.0
 23
-0.25
  0
ENDBLK
  5
216
100
AcDbEntity
  8
0
  6
BYBLOCK
 62
0
100
AcDbBlockEnd
  0
ENDSEC
  0
SECTION
  2
ENTITIES
  0
LINE
  5
217
100
AcDbEntity
  8
0
100
AcDbLine
 62
7
  6
BYLAYER
 10
12.2233220079
 20
25.3019339961
 11
12.5015218901
 21
24.8200803403
  0
LINE
  5
218
100
AcDbEntity
  8
0
100
AcDbLine
 62
7
  6
BYLAYER
 10
13.0446631363
 20
25.2649878789
 11
12.8233245059
 21
25.6483555043
  0
LINE
  5
219
100
AcDbEntity
  8
0
100
AcDbLine
 62
7
  6
BYLAYER
 10
35.2852684365
 20
58.0211923882
 11
33.7752919027
 21
57.1494122944
  0
LINE
  5
21A
100
AcDbEntity
  8
0
100
AcDbLine
 62
7
  6
BYLAYER
 10
28.8255651135
 20
54.2917032857
 11
30.3355414384
 21
55.1634832932
  0
LWPOLYLINE
  5
21B
100
AcDbEntity
  8
0
100
AcDbPolyline
 62
7
  6
BYLAYER
 90
3
 70
0
 10
28.355519431
 20
29.8238128273
 10
29.4537944193
 20
29.5618326955
 10
31.228842442
 20
29.9816082791
  0
LINE
  5
21C
100
AcDbEntity
  8
0
100
AcDbLine
 62
7
  6
BYLAYER
 10
16.5820193976
 20
36.2857769377
 11
16.1224136731
 21
36.5511380136
  0
LINE
  5
21D
100
AcDbEntity
  8
0
100
AcDbLine
 62
7
  6
BYLAYER
 10
20.3649595533
 20
29.7334932744
 11
20.3649633804
 21
29.2027825034
  0
LINE
  5
21E
100
AcDbEntity
  8
0
100
AcDbLine
 62
7
  6
BYLAYER
 10
7.5072021865
 20
32.6023793265
 11
8.2984289806
 21
33.3218120449
  0
LINE
  5
21F
100
AcDbEntity
  8
0
100
AcDbLine
 62
7
  6
BYLAYER
 10
19.55554094
 20
42.5254214146
 11
19.5488513503
 21
42.5197898287
  0
LINE
  5
220
100
AcDbEntity
  8
0
100
AcDbLine
 62
7
  6
BYLAYER
 10
36.6985066217
 20
54.9950044849
 11
38.2084831525
 21
55.8667845779
  0
LINE
  5
221
100
AcDbEntity
  8
0
100
AcDbLine
 62
7
  6
BYLAYER
 10
43.1582105841
 20
58.724494116
 11
41.64823379
 21
57.8527136796
  0
LINE
  5
222
100
AcDbEntity
  8
0
100
AcDbLine
 62
7
  6
BYLAYER
 10
43.6300018515
 20
58.512851669
 11
42.1562417877
 21
57.6619810305
  0
LINE
  5
223
100
AcDbEntity
  8
0
100
AcDbLine
 62
7
  6
BYLAYER
 10
37.2065149525
 20
54.8042719424
 11
38.6802749611
 21
55.6551426276
  0
LINE
  5
224
100
AcDbEntity
  8
0
100
AcDbLine
 62
7
  6
BYLAYER
 10
31.6841654205
 20
51.0290662283
 11
22.2288827339
 21
45.5700888096
  0
LINE
  5
225
100
AcDbEntity
  8
0
100
AcDbLine
 62
7
  6
BYLAYER
 10
8.6140110242
 20
33.5526701491
 11
8.2984289806
 21
33.3218120449
  0
LINE
  5
226
100
AcDbEntity
  8
0
100
AcDbLine
 62
7
  6
BYLAYER
 10
21.9596448355
 20
43.9135367046
 11
19.5480491496
 21
42.5211757743
  0
LINE
  5
227
100
AcDbEntity
  8
0
100
AcDbLine
 62
7
  6
BYLAYER
 10
19.560160872
 20
42.5281776079
 11
19.555499467
 21
42.5254932517
  0
LINE
  5
228
100
AcDbEntity
  8
0
100
AcDbLine
 62
7
  6
BYLAYER
 10
17.5048906611
 20
41.3415985352
 11
19.4910614889
 21
42.4882888598
  0
LINE
  5
229
100
AcDbEntity
  8
0
100
AcDbLine
 62
7
  6
BYLAYER
 10
19.5547081089
 20
42.5236068123
 11
19.5611035289
 21
42.5270261924
  0
LINE
  5
22A
100
AcDbEntity
  8
0
100
AcDbLine
 62
7
  6
BYLAYER
 10
13.1223184603
 20
36.8483464131
 11
9.2332473557
 21
34.6030035669
  0
LINE
  5
22B
100
AcDbEntity
  8
0
100
AcDbLine
 62
7
  6
BYLAYER
 10
18.5384646333
 20
39.2247869685
 11
14.7775594737
 21
37.0534403234
  0
LINE
  5
22C
100
AcDbEntity
  8
0
100
AcDbLine
 62
7
  6
BYLAYER
 10
8.6140110242
 20
33.5526701491
 11
8.7587025821
 21
33.6361911244
  0
LINE
  5
22D
100
AcDbEntity
  8
0
100
AcDbLine
 62
7
  6
BYLAYER
 10
19.5604922582
 20
42.5276026724
 11
19.55554094
 21
42.5254214146
  0
LINE
  5
22E
100
AcDbEntity
  8
0
100
AcDbLine
 62
7
  6
BYLAYER
 10
19.48478832
 20
42.4846701923
 11
19.4915952397
 21
42.487362381
  0
LINE
  5
22F
100
AcDbEntity
  8
0
100
AcDbLine
 62
7
  6
BYLAYER
 10
19.5599077119
 20
42.5143804848
 11
19.5667031413
 21
42.5170681289
  0
LINE
  5
230
100
AcDbEntity
  8
0
100
AcDbLine
 62
7
  6
BYLAYER
 10
18.5219943147
 20
41.6777879198
 11
17.5048906611
 21
41.3415985352
  0
LINE
  5
231
100
AcDbEntity
  8
0
100
AcDbLine
 62
7
  6
BYLAYER
 10
8.755462611
 20
33.6342655913
 11
8.7588691751
 21
33.6359021055
  0
LINE
  5
232
100
AcDbEntity
  8
0
100
AcDbLine
 62
7
  6
BYLAYER
 10
47.0748360686
 20
48.4464384772
 11
47.1689860008
 21
48.4755024033
  0
LWPOLYLINE
  5
233
100
AcDbEntity
  8
0
100
AcDbPolyline
 62
7
  6
BYLAYER
 90
3
 70
0
 10
26.0158243014
 20
39.8674707645
 10
25.1946856139
 20
40.7620379491
 10
23.4268661472
 20
42.1317691842
  0
LINE
  5
234
100
AcDbEntity
  8
0
100
AcDbLine
 62
7
  6
BYLAYER
 10
26.0158243014
 20
39.8674707645
 11
26.0043365797
 21
39.8813289425
  0
LINE
  5
235
100
AcDbEntity
  8
0
100
AcDbLine
 62
7
  6
BYLAYER
 10
11.1627234308
 20
31.2644722805
 11
10.1977841658
 21
30.7073676615
  0
LINE
  5
236
100
AcDbEntity
  8
0
100
AcDbLine
 62
7
  6
BYLAYER
 10
47.5479345508
 20
48.1728749913
 11
47.8192373212
 21
48.2566257014
  0
LINE
  5
237
100
AcDbEntity
  8
0
100
AcDbLine
 62
7
  6
BYLAYER
 10
47.5994471276
 20
47.5792062582
 11
47.5052971954
 21
47.5501423321
  0
LWPOLYLINE
  5
238
100
AcDbEntity
  8
0
100
AcDbPolyline
 62
7
  6
BYLAYER
 90
3
 70
0
 10
23.4268661472
 20
42.1317691842
 10
21.6555501979
 20
42.8208988505
 10
21.1458206697
 20
42.7987272795
  0
LINE
  5
239
100
AcDbEntity
  8
0
100
AcDbLine
 62
7
  6
BYLAYER
 10
11.8901186002
 20
30.5297327552
 11
10.6977819274
 21
29.8413409654
  0
LINE
  5
23A
100
AcDbEntity
  8
0
100
AcDbLine
 62
7
  6
BYLAYER
 10
46.3729813224
 20
49.6947766219
 11
46.4568960828
 21
49.7432262166
  0
LINE
  5
23B
100
AcDbEntity
  8
0
100
AcDbLine
 62
7
  6
BYLAYER
 10
46.8912522244
 20
49.4166475713
 11
47.1330612884
 21
49.5562600911
  0
LINE
  5
23C
100
AcDbEntity
  8
0
100
AcDbLine
 62
7
  6
BYLAYER
 10
46.9568981645
 20
48.8772020147
 11
46.8729834041
 21
48.82875242
  0
LINE
  5
23D
100
AcDbEntity
  8
0
100
AcDbLine
 62
7
  6
BYLAYER
 10
8.4258388134
 20
32.000656002
 11
8.9740180553
 21
32.181848982
  0
LINE
  5
23E
100
AcDbEntity
  8
0
100
AcDbLine
 62
7
  6
BYLAYER
 10
45.5818246093
 20
50.8816760841
 11
45.6540683932
 21
50.9486823615
  0
LINE
  5
23F
100
AcDbEntity
  8
0
100
AcDbLine
 62
7
  6
BYLAYER
 10
13.0202251042
 20
28.5401915347
 11
11.8418142768
 21
27.8598397875
  0
LINE
  5
240
100
AcDbEntity
  8
0
100
AcDbLine
 62
7
  6
BYLAYER
 10
13.3004646265
 20
27.5472881173
 11
12.3418120384
 21
26.9938130913
  0
LINE
  5
241
100
AcDbEntity
  8
0
100
AcDbLine
 62
7
  6
BYLAYER
 10
48.1317089539
 20
46.2559698146
 11
48.0289347814
 21
46.246788849
  0
LINE
  5
242
100
AcDbEntity
  8
0
100
AcDbLine
 62
7
  6
BYLAYER
 10
48.1012605062
 20
46.897196473
 11
48.3974149173
 21
46.9236523755
  0
LINE
  5
243
100
AcDbEntity
  8
0
100
AcDbLine
 62
7
  6
BYLAYER
 10
46.1424495437
 20
50.6072329192
 11
46.3506274813
 21
50.8003184399
  0
LINE
  5
244
100
AcDbEntity
  8
0
100
AcDbLine
 62
7
  6
BYLAYER
 10
46.2150562556
 20
50.127748017
 11
46.1428124717
 21
50.0607417396
  0
LINE
  5
245
100
AcDbEntity
  8
0
100
AcDbLine
 62
7
  6
BYLAYER
 10
12.2233246
 20
25.9947607678
 11
13.433736289
 21
26.6935881109
  0
LINE
  5
246
100
AcDbEntity
  8
0
100
AcDbLine
 62
7
  6
BYLAYER
 10
45.3244066079
 20
44.705567095
 11
46.7981666713
 21
45.5564377335
  0
LINE
  5
247
100
AcDbEntity
  8
0
100
AcDbLine
 62
7
  6
BYLAYER
 10
51.747892831
 20
48.4141464456
 11
50.274133324
 21
47.5632760358
  0
LINE
  5
248
100
AcDbEntity
  8
0
100
AcDbLine
 62
7
  6
BYLAYER
 10
12.8233245059
 20
25.6483555042
 11
13.3160448211
 21
25.9328260128
  0
LINE
  5
249
100
AcDbEntity
  8
0
100
AcDbLine
 62
7
  6
BYLAYER
 10
51.9497141763
 20
47.7878108584
 11
50.4397378452
 21
46.9160308242
  0
LINE
  5
24A
100
AcDbEntity
  8
0
100
AcDbLine
 62
7
  6
BYLAYER
 10
45.4900109855
 20
44.058321744
 11
46.9999873158
 21
44.9301017845
  0
LINE
  5
24B
100
AcDbEntity
  8
0
100
AcDbLine
 62
7
  6
BYLAYER
 10
10.2710056153
 20
30.7299704198
 11
10.1977841658
 21
30.7073676615
  0
LINE
  5
24C
100
AcDbEntity
  8
0
100
AcDbLine
 62
7
  6
BYLAYER
 10
47.6753799188
 20
47.1580210617
 11
47.7781540913
 21
47.1672020274
  0
LINE
  5
24D
100
AcDbEntity
  8
0
100
AcDbLine
 62
7
  6
BYLAYER
 10
48.5445764959
 20
44.9301336264
 11
48.4349365777
 21
44.9409927101
  0
LINE
  5
24E
100
AcDbEntity
  8
0
100
AcDbLine
 62
7
  6
BYLAYER
 10
44.7149028401
 20
51.9868286849
 11
44.7742395362
 21
52.0712451489
  0
LINE
  5
24F
100
AcDbEntity
  8
0
100
AcDbLine
 62
7
  6
BYLAYER
 10
45.3143387301
 20
51.7242597898
 11
45.4853235591
 21
51.9675145645
  0
LINE
  5
250
100
AcDbEntity
  8
0
100
AcDbLine
 62
7
  6
BYLAYER
 10
45.3866145215
 20
51.3094470761
 11
45.3272778253
 21
51.2250306121
  0
LINE
  5
251
100
AcDbEntity
  8
0
100
AcDbLine
 62
7
  6
BYLAYER
 10
27.255408166
 20
29.1887806277
 11
27.2620977557
 21
29.1944122136
  0
LINE
  5
252
100
AcDbEntity
  8
0
100
AcDbLine
 62
7
  6
BYLAYER
 10
27.253012966
 20
29.205018587
 11
27.2464191974
 21
29.1995057677
  0
LINE
  5
253
100
AcDbEntity
  8
0
100
AcDbLine
 62
7
  6
BYLAYER
 10
27.1913049276
 20
29.1534266536
 11
27.1847186326
 21
29.1479200826
  0
LINE
  5
254
100
AcDbEntity
  8
0
100
AcDbLine
 62
7
  6
BYLAYER
 10
23.888440682
 20
29.9583013198
 11
20.1273024404
 21
27.7868201055
  0
LINE
  5
255
100
AcDbEntity
  8
0
100
AcDbLine
 62
7
  6
BYLAYER
 10
14.1554076165
 20
24.2812306615
 11
14.0139868491
 21
24.1995818308
  0
LINE
  5
256
100
AcDbEntity
  8
0
100
AcDbLine
 62
7
  6
BYLAYER
 10
19.1222915991
 20
26.4560260594
 11
15.2332204944
 21
24.2106832131
  0
LINE
  5
257
100
AcDbEntity
  8
0
100
AcDbLine
 62
7
  6
BYLAYER
 10
48.5417625301
 20
45.6114392296
 11
48.8577012978
 21
45.5801476566
  0
LINE
  5
258
100
AcDbEntity
  8
0
100
AcDbLine
 62
7
  6
BYLAYER
 10
48.164337401
 20
45.8515695547
 11
48.2739773193
 21
45.840710471
  0
LINE
  5
259
100
AcDbEntity
  8
0
100
AcDbLine
 62
7
  6
BYLAYER
 10
48.8309854757
 20
43.6243831184
 11
48.7163557811
 21
43.6550964494
  0
LINE
  5
25A
100
AcDbEntity
  8
0
100
AcDbLine
 62
7
  6
BYLAYER
 10
42.8141397803
 20
53.8779776906
 11
42.8448547144
 21
53.9926081813
  0
LINE
  5
25B
100
AcDbEntity
  8
0
100
AcDbLine
 62
7
  6
BYLAYER
 10
43.7870492866
 20
52.991324957
 11
43.8324636277
 21
53.0917072185
  0
LINE
  5
25C
100
AcDbEntity
  8
0
100
AcDbLine
 62
7
  6
BYLAYER
 10
44.4210889894
 20
52.7486155434
 11
44.5519551119
 21
53.0378774156
  0
LINE
  5
25D
100
AcDbEntity
  8
0
100
AcDbLine
 62
7
  6
BYLAYER
 10
44.48574783
 20
52.4020799936
 11
44.4403334889
 21
52.301697732
  0
LINE
  5
25E
100
AcDbEntity
  8
0
100
AcDbLine
 62
7
  6
BYLAYER
 10
27.2600725741
 20
29.1931065044
 11
27.2528543326
 21
29.1886199932
  0
LINE
  5
25F
100
AcDbEntity
  8
0
100
AcDbLine
 62
7
  6
BYLAYER
 10
27.1920588655
 20
29.1521240321
 11
25.2048561891
 21
28.0047874146
  0
LINE
  5
260
100
AcDbEntity
  8
0
100
AcDbLine
 62
7
  6
BYLAYER
 10
27.250788234
 20
29.1860244344
 11
29.6596103635
 21
30.576725584
  0
LINE
  5
261
100
AcDbEntity
  8
0
100
AcDbLine
 62
7
  6
BYLAYER
 10
13.6562660282
 20
24.0417106653
 11
14.0139868491
 21
24.1995818308
  0
LINE
  5
262
100
AcDbEntity
  8
0
100
AcDbLine
 62
7
  6
BYLAYER
 10
48.8619035109
 20
44.3376029238
 11
49.1922208352
 21
44.2490992828
  0
LINE
  5
263
100
AcDbEntity
  8
0
100
AcDbLine
 62
7
  6
BYLAYER
 10
48.5333423173
 20
44.5494377036
 11
48.6479720118
 21
44.5187243726
  0
LINE
  5
264
100
AcDbEntity
  8
0
100
AcDbLine
 62
7
  6
BYLAYER
 10
48.986035356
 20
42.3610600437
 11
48.8683772311
 21
42.4111021085
  0
LINE
  5
265
100
AcDbEntity
  8
0
100
AcDbLine
 62
7
  6
BYLAYER
 10
49.0562057474
 20
43.0974832482
 11
49.3952498075
 21
42.953281861
  0
LINE
  5
266
100
AcDbEntity
  8
0
100
AcDbLine
 62
7
  6
BYLAYER
 10
48.7760808911
 20
43.2739053455
 11
48.8937390161
 21
43.2238632807
  0
LINE
  5
267
100
AcDbEntity
  8
0
100
AcDbLine
 62
7
  6
BYLAYER
 10
48.8883997983
 20
41.2302947755
 11
49.0070731906
 21
41.1617802105
  0
LINE
  5
268
100
AcDbEntity
  8
0
100
AcDbLine
 62
7
  6
BYLAYER
 10
40.8002260045
 20
55.2393449593
 11
40.8002260045
 21
55.3763775982
  0
LINE
  5
269
100
AcDbEntity
  8
0
100
AcDbLine
 62
7
  6
BYLAYER
 10
41.8128210727
 20
54.6316160115
 11
41.8283110587
 21
54.758533372
  0
LINE
  5
26A
100
AcDbEntity
  8
0
100
AcDbLine
 62
7
  6
BYLAYER
 10
42.5011607651
 20
54.451091177
 11
42.5457967624
 21
54.816816682
  0
LINE
  5
26B
100
AcDbEntity
  8
0
100
AcDbLine
 62
7
  6
BYLAYER
 10
42.5293713622
 20
54.2472102223
 11
42.5138813761
 21
54.1202928618
  0
LINE
  5
26C
100
AcDbEntity
  8
0
100
AcDbLine
 62
7
  6
BYLAYER
 10
43.4779840722
 20
53.6627731693
 11
43.5664923325
 21
53.993092788
  0
LINE
  5
26D
100
AcDbEntity
  8
0
100
AcDbLine
 62
7
  6
BYLAYER
 10
43.5278702599
 20
53.3869515172
 11
43.4971553259
 21
53.2723210265
  0
LINE
  5
26E
100
AcDbEntity
  8
0
100
AcDbLine
 62
7
  6
BYLAYER
 10
40.684202739
 20
35.4406305058
 11
31.228842442
 21
29.9816082791
  0
LINE
  5
26F
100
AcDbEntity
  8
0
100
AcDbLine
 62
7
  6
BYLAYER
 10
27.2504568478
 20
29.1865993699
 11
27.255408166
 21
29.1887806277
  0
LINE
  5
270
100
AcDbEntity
  8
0
100
AcDbLine
 62
7
  6
BYLAYER
 10
12.6376039381
 20
23.7162097866
 11
13.6562660282
 21
24.0417106653
  0
LWPOLYLINE
  5
271
100
AcDbEntity
  8
0
100
AcDbPolyline
 62
7
  6
BYLAYER
 90
3
 70
0
 10
40.9416851989
 20
32.597304594
 10
42.6990285839
 20
33.1397899898
 10
44.0475240073
 20
34.3905172825
  0
LINE
  5
272
100
AcDbEntity
  8
0
100
AcDbLine
 62
7
  6
BYLAYER
 10
49.4633143325
 20
41.7148671865
 11
48.8883997983
 21
42.0467971926
  0
LINE
  5
273
100
AcDbEntity
  8
0
100
AcDbLine
 62
7
  6
BYLAYER
 10
48.8937390161
 20
40.0470636292
 11
48.7760808911
 21
40.1328783911
  0
LINE
  5
274
100
AcDbEntity
  8
0
100
AcDbLine
 62
7
  6
BYLAYER
 10
48.8683772311
 20
40.8891094057
 11
48.986035356
 21
40.8032946437
  0
LINE
  5
275
100
AcDbEntity
  8
0
100
AcDbLine
 62
7
  6
BYLAYER
 10
48.6479720118
 20
39.0359834095
 11
48.5333423173
 21
39.137630054
  0
LINE
  5
276
100
AcDbEntity
  8
0
100
AcDbLine
 62
7
  6
BYLAYER
 10
48.7163557811
 20
39.8206503437
 11
48.8309854757
 21
39.7190036991
  0
LINE
  5
277
100
AcDbEntity
  8
0
100
AcDbLine
 62
7
  6
BYLAYER
 10
48.2739773193
 20
38.1458394143
 11
48.164337401
 21
38.2615787392
  0
LINE
  5
278
100
AcDbEntity
  8
0
100
AcDbLine
 62
7
  6
BYLAYER
 10
39.793680358
 20
55.690766123
 11
39.778190372
 21
55.8355693741
  0
LINE
  5
279
100
AcDbEntity
  8
0
100
AcDbLine
 62
7
  6
BYLAYER
 10
40.4792506754
 20
55.5373961272
 11
40.4947406614
 21
55.3925928762
  0
LINE
  5
27A
100
AcDbEntity
  8
0
100
AcDbLine
 62
7
  6
BYLAYER
 10
41.5073327857
 20
55.4949549533
 11
41.5073357297
 21
54.8311042048
  0
LINE
  5
27B
100
AcDbEntity
  8
0
100
AcDbLine
 62
7
  6
BYLAYER
 10
48.4349365777
 20
38.8597016375
 11
48.5445764959
 21
38.7439623126
  0
LINE
  5
27C
100
AcDbEntity
  8
0
100
AcDbLine
 62
7
  6
BYLAYER
 10
47.7781540913
 20
37.3918622542
 11
47.6753799188
 21
37.5197139275
  0
LINE
  5
27D
100
AcDbEntity
  8
0
100
AcDbLine
 62
7
  6
BYLAYER
 10
48.0289347814
 20
38.0227053857
 11
48.1317089539
 21
37.8948537125
  0
LINE
  5
27E
100
AcDbEntity
  8
0
100
AcDbLine
 62
7
  6
BYLAYER
 10
47.5052971954
 20
37.3239828265
 11
47.5994471276
 21
37.1862063824
  0
LINE
  5
27F
100
AcDbEntity
  8
0
100
AcDbLine
 62
7
  6
BYLAYER
 10
35.8506656513
 20
55.8665976822
 11
35.8992869418
 21
55.7823836042
  0
LINE
  5
280
100
AcDbEntity
  8
0
100
AcDbLine
 62
7
  6
BYLAYER
 10
36.1647492625
 20
55.8214488948
 11
36.0925054786
 21
55.9718732212
  0
LINE
  5
281
100
AcDbEntity
  8
0
100
AcDbLine
 62
7
  6
BYLAYER
 10
36.653493341
 20
56.1450492332
 11
36.7257371249
 21
55.9946249068
  0
LINE
  5
282
100
AcDbEntity
  8
0
100
AcDbLine
 62
7
  6
BYLAYER
 10
36.9802839089
 20
56.0440607757
 11
36.9209472127
 21
56.1969918046
  0
LINE
  5
283
100
AcDbEntity
  8
0
100
AcDbLine
 62
7
  6
BYLAYER
 10
37.5333221979
 20
56.2516961489
 11
37.5926588941
 21
56.0987651199
  0
LINE
  5
284
100
AcDbEntity
  8
0
100
AcDbLine
 62
7
  6
BYLAYER
 10
37.8672282453
 20
56.0965959618
 11
37.8218139042
 21
56.2494170011
  0
LINE
  5
285
100
AcDbEntity
  8
0
100
AcDbLine
 62
7
  6
BYLAYER
 10
38.4750981065
 20
56.1847136712
 11
38.5205124476
 21
56.0318926318
  0
LINE
  5
286
100
AcDbEntity
  8
0
100
AcDbLine
 62
7
  6
BYLAYER
 10
38.8104064083
 20
55.9781555615
 11
38.7796914742
 21
56.1282518008
  0
LINE
  5
287
100
AcDbEntity
  8
0
100
AcDbLine
 62
7
  6
BYLAYER
 10
39.4627070198
 20
55.9452478886
 11
39.4934219538
 21
55.7951516493
  0
LINE
  5
288
100
AcDbEntity
  8
0
100
AcDbLine
 62
7
  6
BYLAYER
 10
48.3743406006
 20
37.5177368879
 11
47.1784334677
 21
36.6143672881
  0
LINE
  5
289
100
AcDbEntity
  8
0
100
AcDbLine
 62
7
  6
BYLAYER
 10
47.2323524704
 20
37.4076934994
 11
48.0067526614
 21
37.990749115
  0
LINE
  5
28A
100
AcDbEntity
  8
0
100
AcDbLine
 62
7
  6
BYLAYER
 10
51.9497148698
 20
37.2905243129
 11
50.4397380185
 21
36.4187439736
  0
LINE
  5
28B
100
AcDbEntity
  8
0
100
AcDbLine
 62
7
  6
BYLAYER
 10
45.4900109846
 20
33.5610347997
 11
46.9999873157
 21
34.4328148339
  0
LINE
  5
28C
100
AcDbEntity
  8
0
100
AcDbLine
 62
7
  6
BYLAYER
 10
51.7478935093
 20
36.8554067176
 11
50.2741334975
 21
36.0045360436
  0
LINE
  5
28D
100
AcDbEntity
  8
0
100
AcDbLine
 62
7
  6
BYLAYER
 10
45.3244066226
 20
33.1468269407
 11
46.7981666719
 21
33.9976976402
  0
LWPOLYLINE
  5
28E
100
AcDbEntity
  8
0
100
AcDbPolyline
 62
7
  6
BYLAYER
 90
3
 70
0
 10
36.658152449
 20
56.4284576557
 10
38.3268178216
 20
56.7034775845
 10
40.5107627427
 20
56.1833498594
  0
LWPOLYLINE
  5
28F
100
AcDbEntity
  8
0
100
AcDbPolyline
 62
7
  6
BYLAYER
 90
3
 70
0
 10
44.0475240073
 20
34.3905172825
 10
44.8952196881
 20
36.2642423971
 10
45.1843433972
 20
38.6332020092
  0
LINE
  5
290
100
AcDbEntity
  8
0
100
AcDbLine
 62
7
  6
BYLAYER
 10
49.3184532338
 20
39.3598123941
 11
48.3743406006
 21
37.5177368879
  0
LWPOLYLINE
  5
291
100
AcDbEntity
  8
0
100
AcDbPolyline
 62
7
  6
BYLAYER
 90
7
 70
0
 10
40.5107627427
 20
56.1833498594
 10
42.7862637622
 20
54.8696982434
 10
44.9676245851
 20
52.8711085894
 10
46.8788161012
 20
50.3510917211
 10
48.3697652077
 20
47.5068561294
 10
49.3169671471
 20
44.5704730499
 10
49.6426289959
 20
41.7746384612
  0
LINE
  5
292
100
AcDbEntity
  8
0
100
AcDbLine
 62
7
  6
BYLAYER
 10
49.6426289959
 20
41.7746384612
 11
49.6426220304
 21
41.7624774871
  0
LINE
  5
293
100
AcDbEntity
  8
0
100
AcDbLine
 62
7
  6
BYLAYER
 10
49.6426289959
 20
41.7746384612
 11
49.3184532338
 21
39.3598123941
  0
ARC
  5
294
100
AcDbEntity
  8
0
100
AcDbCircle
 62
7
  6
BYLAYER
 10
-7.8970118641
 20
27.5866400061
 40
57.5714876081
100
AcDbArc
 50
17.5327498629
 51
18.1876509047
  0
ARC
  5
295
100
AcDbEntity
  8
0
100
AcDbCircle
 62
7
  6
BYLAYER
 10
0.5492884864
 20
16.5923928356
 40
54.562733998
100
AcDbArc
 50
39.5335414928
 51
40.5290771936
  0
ARC
  5
296
100
AcDbEntity
  8
0
100
AcDbCircle
 62
7
  6
BYLAYER
 10
1.3755961785
 20
17.2779131307
 40
53.4890884225
100
AcDbArc
 50
39.0618765796
 51
39.5306070675
  0
ARC
  5
297
100
AcDbEntity
  8
0
100
AcDbCircle
 62
7
  6
BYLAYER
 10
1.8097244117
 20
17.630901694
 40
52.9295636402
100
AcDbArc
 50
38.7943782469
 51
39.0613205814
  0
ARC
  5
298
100
AcDbEntity
  8
0
100
AcDbCircle
 62
7
  6
BYLAYER
 10
5.2896981195
 20
25.3980152326
 40
8.8802431903
100
AcDbArc
 50
22.5437376184
 51
37.4465299312
  0
ARC
  5
299
100
AcDbEntity
  8
0
100
AcDbCircle
 62
7
  6
BYLAYER
 10
5.6661065455
 20
25.6755013151
 40
8.4126429804
100
AcDbArc
 50
37.504843542
 51
39.6050141992
  0
ARC
  5
29A
100
AcDbEntity
  8
0
100
AcDbCircle
 62
7
  6
BYLAYER
 10
8.6197286051
 20
28.5401331851
 40
3.7594481386
100
AcDbArc
 50
60.6153201536
 51
61.8690809778
  0
ARC
  5
29B
100
AcDbEntity
  8
0
100
AcDbCircle
 62
7
  6
BYLAYER
 10
14.1948681745
 20
27.2059167803
 40
3.2803872102
100
AcDbArc
 50
258.9643869558
 51
260.2893809543
  0
ARC
  5
29C
100
AcDbEntity
  8
0
100
AcDbCircle
 62
7
  6
BYLAYER
 10
13.2439490256
 20
25.8580914355
 40
1.8213253934
100
AcDbArc
 50
300.3076289651
 51
311.632977992
  0
ARC
  5
29D
100
AcDbEntity
  8
0
100
AcDbCircle
 62
7
  6
BYLAYER
 10
13.1122184681
 20
25.7615339829
 40
1.8035678222
100
AcDbArc
 50
299.9993090518
 51
305.0461157867
  0
ARC
  5
29E
100
AcDbEntity
  8
0
100
AcDbCircle
 62
7
  6
BYLAYER
 10
13.2546624815
 20
25.8414490314
 40
1.8015512687
100
AcDbArc
 50
299.9986956666
 51
300.2805716014
  0
ARC
  5
29F
100
AcDbEntity
  8
0
100
AcDbCircle
 62
7
  6
BYLAYER
 10
12.1050068339
 20
26.2216436308
 40
1.4565726371
100
AcDbArc
 50
285.7966927367
 51
288.4525360805
  0
ARC
  5
2A0
100
AcDbEntity
  8
0
100
AcDbCircle
 62
7
  6
BYLAYER
 10
12.1134086992
 20
26.1961599058
 40
1.4297397811
100
AcDbArc
 50
288.4563907694
 51
291.4975160364
  0
ARC
  5
2A1
100
AcDbEntity
  8
0
100
AcDbCircle
 62
7
  6
BYLAYER
 10
11.8841549162
 20
26.0105103688
 40
1.3832212903
100
AcDbArc
 50
297.1880606238
 51
300.002558388
  0
ARC
  5
2A2
100
AcDbEntity
  8
0
100
AcDbCircle
 62
7
  6
BYLAYER
 10
12.0918131576
 20
27.4268264394
 40
0.5
100
AcDbArc
 50
119.9998519061
 51
299.9998519061
  0
ARC
  5
2A3
100
AcDbEntity
  8
0
100
AcDbCircle
 62
7
  6
BYLAYER
 10
10.4477830466
 20
30.2743543135
 40
0.5
100
AcDbArc
 50
119.9998519061
 51
299.9998519061
  0
ARC
  5
2A4
100
AcDbEntity
  8
0
100
AcDbCircle
 62
7
  6
BYLAYER
 10
-2.8481526105
 20
30.4762382859
 40
57.4673535757
100
AcDbArc
 50
17.5322073757
 51
18.1882950612
  0
ARC
  5
2A5
100
AcDbEntity
  8
0
100
AcDbCircle
 62
7
  6
BYLAYER
 10
16.637706579
 20
32.0931171324
 40
12.1518639769
100
AcDbArc
 50
39.6148264436
 51
39.7498164219
  0
ARC
  5
2A6
100
AcDbEntity
  8
0
100
AcDbCircle
 62
7
  6
BYLAYER
 10
11.2910072092
 20
32.212201879
 40
3.2623387666
100
AcDbArc
 50
159.7039452546
 51
161.0326388643
  0
ARC
  5
2A7
100
AcDbEntity
  8
0
100
AcDbCircle
 62
7
  6
BYLAYER
 10
9.665440317
 20
32.0562800703
 40
1.8216180331
100
AcDbArc
 50
108.4031473418
 51
119.8522446773
  0
ARC
  5
2A8
100
AcDbEntity
  8
0
100
AcDbCircle
 62
7
  6
BYLAYER
 10
9.5173705085
 20
31.9876476735
 40
1.8070223607
100
AcDbArc
 50
114.8348839516
 51
119.9943251673
  0
ARC
  5
2A9
100
AcDbEntity
  8
0
100
AcDbCircle
 62
7
  6
BYLAYER
 10
20.9069051661
 20
16.6664623566
 40
42.8486856641
100
AcDbArc
 50
65.4936672945
 51
66.1851034415
  0
ARC
  5
2AA
100
AcDbEntity
  8
0
100
AcDbCircle
 62
7
  6
BYLAYER
 10
25.8803909769
 20
19.5772331878
 40
42.7905490565
100
AcDbArc
 50
65.4931434876
 51
66.1855188062
  0
ARC
  5
2AB
100
AcDbEntity
  8
0
100
AcDbCircle
 62
7
  6
BYLAYER
 10
24.6490191712
 20
34.415662795
 40
6.8687964328
100
AcDbArc
 50
240.5650340561
 51
241.4458812871
  0
ARC
  5
2AC
100
AcDbEntity
  8
0
100
AcDbCircle
 62
7
  6
BYLAYER
 10
22.7761252646
 20
37.6551465574
 40
6.865975648
100
AcDbArc
 50
178.6424819207
 51
179.5517923476
  0
ARC
  5
2AD
100
AcDbEntity
  8
0
100
AcDbCircle
 62
7
  6
BYLAYER
 10
25.9714356032
 20
31.4130279633
 40
2.5683239421
100
AcDbArc
 50
298.8777857788
 51
299.8761895758
  0
ARC
  5
2AE
100
AcDbEntity
  8
0
100
AcDbCircle
 62
7
  6
BYLAYER
 10
25.9016005538
 20
31.370671925
 40
2.5665613975
100
AcDbArc
 50
300.1851938466
 51
301.7682062661
  0
ARC
  5
2AF
100
AcDbEntity
  8
0
100
AcDbCircle
 62
7
  6
BYLAYER
 10
30.1010202772
 20
39.7247294303
 40
19.1803271929
100
AcDbArc
 50
31.488801266
 51
32.8457773248
  0
ARC
  5
2B0
100
AcDbEntity
  8
0
100
AcDbCircle
 62
7
  6
BYLAYER
 10
30.1178299066
 20
39.7297361923
 40
19.1632552237
100
AcDbArc
 50
27.1538947744
 51
28.5120808032
  0
ARC
  5
2B1
100
AcDbEntity
  8
0
100
AcDbCircle
 62
7
  6
BYLAYER
 10
30.26951047
 20
39.8180701205
 40
18.8909425115
100
AcDbArc
 50
27.1773515424
 51
28.4886240352
  0
ARC
  5
2B2
100
AcDbEntity
  8
0
100
AcDbCircle
 62
7
  6
BYLAYER
 10
30.2816388911
 20
39.8297060588
 40
18.8746104186
100
AcDbArc
 50
31.5110862007
 51
32.8234923901
  0
ARC
  5
2B3
100
AcDbEntity
  8
0
100
AcDbCircle
 62
7
  6
BYLAYER
 10
30.6192383124
 20
40.0820926421
 40
18.5507112448
100
AcDbArc
 50
35.8579375951
 51
37.2450352999
  0
ARC
  5
2B4
100
AcDbEntity
  8
0
100
AcDbCircle
 62
7
  6
BYLAYER
 10
30.7167286025
 20
40.011562613
 40
18.5012273955
100
AcDbArc
 50
22.7533983843
 51
24.1442093832
  0
ARC
  5
2B5
100
AcDbEntity
  8
0
100
AcDbCircle
 62
7
  6
BYLAYER
 10
28.8206253208
 20
39.0502059229
 40
18.5010996866
100
AcDbArc
 50
35.8560777205
 51
37.2468951746
  0
ARC
  5
2B6
100
AcDbEntity
  8
0
100
AcDbCircle
 62
7
  6
BYLAYER
 10
30.8299653738
 20
40.0842645979
 40
18.2703591017
100
AcDbArc
 50
22.7785959804
 51
24.1190117872
  0
ARC
  5
2B7
100
AcDbEntity
  8
0
100
AcDbCircle
 62
7
  6
BYLAYER
 10
30.8166047724
 20
40.2014731843
 40
18.2230198049
100
AcDbArc
 50
35.8795389352
 51
37.2234339599
  0
ARC
  5
2B8
100
AcDbEntity
  8
0
100
AcDbCircle
 62
7
  6
BYLAYER
 10
31.5636061921
 20
40.8426256883
 40
17.3378986138
100
AcDbArc
 50
40.3634818508
 51
41.8141068045
  0
ARC
  5
2B9
100
AcDbEntity
  8
0
100
AcDbCircle
 62
7
  6
BYLAYER
 10
31.8749476577
 20
40.4543829306
 40
17.2609587861
100
AcDbArc
 50
18.1829749726
 51
19.640071847
  0
ARC
  5
2BA
100
AcDbEntity
  8
0
100
AcDbCircle
 62
7
  6
BYLAYER
 10
29.7832783224
 20
39.8318914597
 40
17.260761757
100
AcDbArc
 50
40.3602403176
 51
41.8173483378
  0
ARC
  5
2BB
100
AcDbEntity
  8
0
100
AcDbCircle
 62
7
  6
BYLAYER
 10
31.9441340561
 20
40.5153120007
 40
17.0754397084
100
AcDbArc
 50
18.2106020336
 51
19.612444786
  0
ARC
  5
2BC
100
AcDbEntity
  8
0
100
AcDbCircle
 62
7
  6
BYLAYER
 10
31.7644397662
 20
40.9710275029
 40
17.0018342984
100
AcDbArc
 50
40.3848409774
 51
41.792747678
  0
ARC
  5
2BD
100
AcDbEntity
  8
0
100
AcDbCircle
 62
7
  6
BYLAYER
 10
32.780518372
 20
41.9945375801
 40
15.6618219859
100
AcDbArc
 50
45.1169871877
 51
46.6688920871
  0
ARC
  5
2BE
100
AcDbEntity
  8
0
100
AcDbCircle
 62
7
  6
BYLAYER
 10
20.8388097176
 20
40.3024017358
 40
2.5669088565
100
AcDbArc
 50
120.1884876654
 51
120.8187302554
  0
ARC
  5
2BF
100
AcDbEntity
  8
0
100
AcDbCircle
 62
7
  6
BYLAYER
 10
20.7664035011
 20
40.2649979298
 40
2.5631074514
100
AcDbArc
 50
118.2126071611
 51
119.8397910569
  0
ARC
  5
2C0
100
AcDbEntity
  8
0
100
AcDbCircle
 62
7
  6
BYLAYER
 10
33.5021840988
 20
40.9309770439
 40
15.5649228203
100
AcDbArc
 50
13.3266340098
 51
14.88820907
  0
ARC
  5
2C1
100
AcDbEntity
  8
0
100
AcDbCircle
 62
7
  6
BYLAYER
 10
33.5262672176
 20
40.9859975873
 40
15.4243446704
100
AcDbArc
 50
13.3575432145
 51
14.8572998653
  0
ARC
  5
2C2
100
AcDbEntity
  8
0
100
AcDbCircle
 62
7
  6
BYLAYER
 10
32.9721827916
 20
42.124034755
 40
15.3316448445
100
AcDbArc
 50
45.1385310212
 51
46.6473482536
  0
ARC
  5
2C3
100
AcDbEntity
  8
0
100
AcDbCircle
 62
7
  6
BYLAYER
 10
37.382301799
 20
44.065212767
 40
14.4551880355
100
AcDbArc
 50
38.7135742037
 51
39.382245446
  0
ARC
  5
2C4
100
AcDbEntity
  8
0
100
AcDbCircle
 62
7
  6
BYLAYER
 10
37.4683530551
 20
44.1357643863
 40
14.3439120493
100
AcDbArc
 50
39.3825141568
 51
39.6147542414
  0
ARC
  5
2C5
100
AcDbEntity
  8
0
100
AcDbCircle
 62
7
  6
BYLAYER
 10
37.7509813767
 20
44.286340719
 40
14.072534339
100
AcDbArc
 50
38.929688939
 51
39.6144559057
  0
ARC
  5
2C6
100
AcDbEntity
  8
0
100
AcDbCircle
 62
7
  6
BYLAYER
 10
37.7232742616
 20
44.3506241135
 40
14.010534678
100
AcDbArc
 50
39.6025940764
 51
42.1326634649
  0
ARC
  5
2C7
100
AcDbEntity
  8
0
100
AcDbCircle
 62
7
  6
BYLAYER
 10
34.0951948974
 20
43.473462195
 40
13.6824332336
100
AcDbArc
 50
50.2468498263
 51
51.9445563054
  0
ARC
  5
2C8
100
AcDbEntity
  8
0
100
AcDbCircle
 62
7
  6
BYLAYER
 10
35.4528765821
 20
41.323121896
 40
13.5745939454
100
AcDbArc
 50
8.0491175519
 51
9.7603234158
  0
ARC
  5
2C9
100
AcDbEntity
  8
0
100
AcDbCircle
 62
7
  6
BYLAYER
 10
35.4353552766
 20
41.3789518062
 40
13.4746357591
100
AcDbArc
 50
8.0843698844
 51
9.7250710833
  0
ARC
  5
2CA
100
AcDbEntity
  8
0
100
AcDbCircle
 62
7
  6
BYLAYER
 10
34.2673151779
 20
43.5945933397
 40
13.3714697955
100
AcDbArc
 50
50.2690282521
 51
51.9223778796
  0
ARC
  5
2CB
100
AcDbEntity
  8
0
100
AcDbCircle
 62
7
  6
BYLAYER
 10
37.5466176148
 20
41.540371218
 40
11.4688189631
100
AcDbArc
 50
2.1882441712
 51
4.1034939123
  0
ARC
  5
2CC
100
AcDbEntity
  8
0
100
AcDbCircle
 62
7
  6
BYLAYER
 10
37.4948872331
 20
41.6033008885
 40
11.4021409193
100
AcDbArc
 50
2.229132073
 51
4.0626060105
  0
ARC
  5
2CD
100
AcDbEntity
  8
0
100
AcDbCircle
 62
7
  6
BYLAYER
 10
39.5700044504
 20
41.4804374071
 40
10.5640709993
100
AcDbArc
 50
356.0350653964
 51
0.0568055356
  0
ARC
  5
2CE
100
AcDbEntity
  8
0
100
AcDbCircle
 62
7
  6
BYLAYER
 10
39.5936244588
 20
41.5343512239
 40
9.4208187641
100
AcDbArc
 50
355.5493667281
 51
357.7334968936
  0
ARC
  5
2CF
100
AcDbEntity
  8
0
100
AcDbCircle
 62
7
  6
BYLAYER
 10
39.5177700727
 20
41.6090328316
 40
9.3782804378
100
AcDbArc
 50
355.597359881
 51
357.6855037407
  0
ARC
  5
2D0
100
AcDbEntity
  8
0
100
AcDbCircle
 62
7
  6
BYLAYER
 10
41.4214251111
 20
41.3063868592
 40
7.5776889678
100
AcDbArc
 50
347.9080507065
 51
350.4337279507
  0
ARC
  5
2D1
100
AcDbEntity
  8
0
100
AcDbCircle
 62
7
  6
BYLAYER
 10
41.3326483466
 20
41.3948825882
 40
7.5496584452
100
AcDbArc
 50
347.9645403063
 51
350.3772383509
  0
ARC
  5
2D2
100
AcDbEntity
  8
0
100
AcDbCircle
 62
7
  6
BYLAYER
 10
42.8987344292
 20
40.9072931018
 40
6.0461171627
100
AcDbArc
 50
339.0345470392
 51
341.9705361803
  0
ARC
  5
2D3
100
AcDbEntity
  8
0
100
AcDbCircle
 62
7
  6
BYLAYER
 10
42.8076540516
 20
41.0085313733
 40
6.0236017351
100
AcDbArc
 50
339.1001822112
 51
341.9049010083
  0
ARC
  5
2D4
100
AcDbEntity
  8
0
100
AcDbCircle
 62
7
  6
BYLAYER
 10
43.952926222
 20
40.4293632047
 40
4.8873268242
100
AcDbArc
 50
328.7624089385
 51
332.1451207368
  0
ARC
  5
2D5
100
AcDbEntity
  8
0
100
AcDbCircle
 62
7
  6
BYLAYER
 10
43.8680110873
 20
40.5390896284
 40
4.8626613746
100
AcDbArc
 50
328.8358870189
 51
332.0716426563
  0
ARC
  5
2D6
100
AcDbEntity
  8
0
100
AcDbCircle
 62
7
  6
BYLAYER
 10
44.5784843609
 20
39.9917783145
 40
4.1227963695
100
AcDbArc
 50
317.1171020813
 51
320.9041521473
  0
ARC
  5
2D7
100
AcDbEntity
  8
0
100
AcDbCircle
 62
7
  6
BYLAYER
 10
44.5048564585
 20
40.1030124617
 40
4.0897005182
100
AcDbArc
 50
317.1939243811
 51
320.8273298476
  0
ARC
  5
2D8
100
AcDbEntity
  8
0
100
AcDbCircle
 62
7
  6
BYLAYER
 10
44.8693678476
 20
40.5717880172
 40
4.0626278791
100
AcDbArc
 50
320.5568226728
 51
321.1003580524
  0
ARC
  5
2D9
100
AcDbEntity
  8
0
100
AcDbCircle
 62
7
  6
BYLAYER
 10
4.5236234525
 20
59.0238706898
 40
52.1686926409
100
AcDbArc
 50
334.8532560954
 51
335.3800416483
  0
ARC
  5
2DA
100
AcDbEntity
  8
0
100
AcDbCircle
 62
7
  6
BYLAYER
 10
0.0259938641
 20
55.9564238003
 40
51.6703184018
100
AcDbArc
 50
334.8507565642
 51
335.3826225756
  0
ARC
  5
2DB
100
AcDbEntity
  8
0
100
AcDbCircle
 62
7
  6
BYLAYER
 10
35.3381106865
 20
45.1703581615
 40
11.5782470495
100
AcDbArc
 50
55.9060739637
 51
57.8032054177
  0
ARC
  5
2DC
100
AcDbEntity
  8
0
100
AcDbCircle
 62
7
  6
BYLAYER
 10
35.4838308776
 20
45.2733913779
 40
11.2974548099
100
AcDbArc
 50
55.929414627
 51
57.7798647544
  0
ARC
  5
2DD
100
AcDbEntity
  8
0
100
AcDbCircle
 62
7
  6
BYLAYER
 10
36.370280227
 20
46.9461227196
 40
9.5233196371
100
AcDbArc
 50
62.2788895926
 51
64.4394890438
  0
ARC
  5
2DE
100
AcDbEntity
  8
0
100
AcDbCircle
 62
7
  6
BYLAYER
 10
36.4869761243
 20
47.0223881793
 40
9.2802210779
100
AcDbArc
 50
62.3040936427
 51
64.4142849937
  0
ARC
  5
2DF
100
AcDbEntity
  8
0
100
AcDbCircle
 62
7
  6
BYLAYER
 10
37.1035572889
 20
48.6507287226
 40
7.6665244613
100
AcDbArc
 50
69.5816839304
 51
72.0780657038
  0
ARC
  5
2E0
100
AcDbEntity
  8
0
100
AcDbCircle
 62
7
  6
BYLAYER
 10
37.1929012612
 20
48.693818523
 40
7.4646719706
100
AcDbArc
 50
69.6098013005
 51
72.0499483338
  0
ARC
  5
2E1
100
AcDbEntity
  8
0
100
AcDbCircle
 62
7
  6
BYLAYER
 10
37.512873913
 20
50.1440062554
 40
6.1168636965
100
AcDbArc
 50
78.0473967782
 51
80.9493928964
  0
ARC
  5
2E2
100
AcDbEntity
  8
0
100
AcDbCircle
 62
7
  6
BYLAYER
 10
37.5802477054
 20
50.1506609428
 40
5.9559200772
100
AcDbArc
 50
78.0801101015
 51
80.9166795731
  0
ARC
  5
2E3
100
AcDbEntity
  8
0
100
AcDbCircle
 62
7
  6
BYLAYER
 10
37.638575598
 20
51.3149402775
 40
4.937877764
100
AcDbArc
 50
87.8733388809
 51
91.2213814625
  0
ARC
  5
2E4
100
AcDbEntity
  8
0
100
AcDbCircle
 62
7
  6
BYLAYER
 10
37.6919261962
 20
51.2854885958
 40
4.814300042
100
AcDbArc
 50
87.9132400664
 51
91.1814802769
  0
ARC
  5
2E5
100
AcDbEntity
  8
0
100
AcDbCircle
 62
7
  6
BYLAYER
 10
38.0708184856
 20
52.8887494471
 40
4.6042858874
100
AcDbArc
 50
140.9562147087
 51
142.1827253067
  0
ARC
  5
2E6
100
AcDbEntity
  8
0
100
AcDbCircle
 62
7
  6
BYLAYER
 10
37.5785225189
 20
52.0965813385
 40
4.1528028214
100
AcDbArc
 50
99.1108435594
 51
102.8704969831
  0
ARC
  5
2E7
100
AcDbEntity
  8
0
100
AcDbCircle
 62
7
  6
BYLAYER
 10
37.6268408164
 20
52.0348672216
 40
4.0609935716
100
AcDbArc
 50
99.1611322585
 51
102.8202082839
  0
ARC
  5
2E8
100
AcDbEntity
  8
0
100
AcDbCircle
 62
7
  6
BYLAYER
 10
37.9129826404
 20
52.8692866876
 40
3.8258912085
100
AcDbArc
 50
124.4871999461
 51
129.2116870298
  0
ARC
  5
2E9
100
AcDbEntity
  8
0
100
AcDbCircle
 62
7
  6
BYLAYER
 10
37.8938258883
 20
52.8929860834
 40
3.7955636574
100
AcDbArc
 50
109.3605206447
 51
122.4191465545
  0
ARC
  5
2EA
100
AcDbEntity
  8
0
100
AcDbCircle
 62
7
  6
BYLAYER
 10
37.8895978137
 20
52.9021261904
 40
3.7855822148
100
AcDbArc
 50
123.090563831
 51
124.4768995814
  0
ARC
  5
2EB
100
AcDbEntity
  8
0
100
AcDbCircle
 62
7
  6
BYLAYER
 10
37.4711893492
 20
52.4743334015
 40
3.7594619303
100
AcDbArc
 50
111.5137020439
 51
115.5343431684
  0
ARC
  5
2EC
100
AcDbEntity
  8
0
100
AcDbCircle
 62
7
  6
BYLAYER
 10
37.5333196361
 20
52.3619561243
 40
3.7203595387
100
AcDbArc
 50
111.5836803505
 51
112.6032748952
  0
ARC
  5
2ED
100
AcDbEntity
  8
0
100
AcDbCircle
 62
7
  6
BYLAYER
 10
91.1627147618
 20
-14.5795746169
 40
92.893342852
100
AcDbArc
 50
132.1490478734
 51
132.3891645936
  0
ARC
  5
2EE
100
AcDbEntity
  8
0
100
AcDbCircle
 62
7
  6
BYLAYER
 10
95.6980715894
 20
-11.2659420186
 40
92.2772527818
100
AcDbArc
 50
132.1482649008
 51
132.3899843412
  0
ARC
  5
2EF
100
AcDbEntity
  8
0
100
AcDbCircle
 62
7
  6
BYLAYER
 10
89.2222523678
 20
20.6729436851
 40
41.8570620801
100
AcDbArc
 50
157.902721399
 51
158.5133460104
  0
ARC
  5
2F0
100
AcDbEntity
  8
0
100
AcDbCircle
 62
7
  6
BYLAYER
 10
84.1274097262
 20
17.8732148838
 40
41.7007946582
100
AcDbArc
 50
157.9015286332
 51
158.5144421824
  0
ARC
  5
2F1
100
AcDbEntity
  8
0
100
AcDbCircle
 62
7
  6
BYLAYER
 10
94.3624672505
 20
89.7668448346
 40
81.0748145237
100
AcDbArc
 50
224.4344324663
 51
224.6637939246
  0
ARC
  5
2F2
100
AcDbEntity
  8
0
100
AcDbCircle
 62
7
  6
BYLAYER
 10
104.2178716751
 20
49.4238562956
 40
71.123365132
100
AcDbArc
 50
173.9762725683
 51
175.0558068267
  0
ARC
  5
2F3
100
AcDbEntity
  8
0
100
AcDbCircle
 62
7
  6
BYLAYER
 10
108.7887948305
 20
62.1899896059
 40
60.3150591568
100
AcDbArc
 50
194.0344447247
 51
194.669099568
  0
ARC
  5
2F4
100
AcDbEntity
  8
0
100
AcDbCircle
 62
7
  6
BYLAYER
 10
103.5714981522
 20
59.2638741865
 40
60.0388872031
100
AcDbArc
 50
194.0330347792
 51
194.6706088747
  0
ARC
  5
2F5
100
AcDbEntity
  8
0
100
AcDbCircle
 62
7
  6
BYLAYER
 10
68.2976210556
 20
77.5763034293
 40
54.8233540954
100
AcDbArc
 50
234.8036303369
 51
235.4507612388
  0
ARC
  5
2F6
100
AcDbEntity
  8
0
100
AcDbCircle
 62
7
  6
BYLAYER
 10
54.4166019714
 20
101.4145160756
 40
49.6860337857
100
AcDbArc
 50
249.1083946454
 51
249.7341394805
  0
ARC
  5
2F7
100
AcDbEntity
  8
0
100
AcDbCircle
 62
7
  6
BYLAYER
 10
59.2352103612
 20
103.9231136862
 40
49.3131169334
100
AcDbArc
 50
249.1060767607
 51
249.7365538967
  0
SPLINE
  5
2F8
100
AcDbEntity
  8
0
100
AcDbSpline
 62
7
  6
BYLAYER
 70
0
 71
3
 72
11
 73
7
 74
0
 42
0.0000001
 43
0.0000001
 44
0.0000000001
 40
0.0
 40
0.0
 40
0.0
 40
0.0
 40
0.228309529
 40
0.4746527558
 40
0.7339519869
 40
1.0
 40
1.0
 40
1.0
 40
1.0
 10
12.0990574218
 20
25.7200892029
 30
0.0
 10
12.0990574218
 20
25.6865517147
 30
0.0
 10
12.1052001602
 20
25.6167631068
 30
0.0
 10
12.1296901286
 20
25.5114757729
 30
0.0
 10
12.1689128707
 20
25.4048407115
 30
0.0
 10
12.2037813884
 20
25.3357791539
 30
0.0
 10
12.2233220079
 20
25.3019339961
 30
0.0
  0
SPLINE
  5
2F9
100
AcDbEntity
  8
0
100
AcDbSpline
 62
7
  6
BYLAYER
 70
0
 71
3
 72
14
 73
10
 74
0
 42
0.0000001
 43
0.0000001
 44
0.0000000001
 40
0.0
 40
0.0
 40
0.0
 40
0.0
 40
0.1080465729
 40
0.2181376181
 40
0.3321026907
 40
0.4514742459
 40
0.5774266321
 40
0.7107709466
 40
1.0
 40
1.0
 40
1.0
 40
1.0
 10
12.2233269978
 20
25.9947565909
 30
0.0
 10
12.2134890023
 20
25.9890785322
 30
0.0
 10
12.194572363
 20
25.9758830316
 30
0.0
 10
12.1695913132
 20
25.9512796374
 30
0.0
 10
12.1480899945
 20
25.9220991233
 30
0.0
 10
12.1302979174
 20
25.8886438905
 30
0.0
 10
12.1163289166
 20
25.8512524467
 30
0.0
 10
12.1026175488
 20
25.7951378807
 30
0.0
 10
12.0990574218
 20
25.7504959799
 30
0.0
 10
12.0990574218
 20
25.7200892029
 30
0.0
  0
SPLINE
  5
2FA
100
AcDbEntity
  8
0
100
AcDbSpline
 62
7
  6
BYLAYER
 70
0
 71
3
 72
19
 73
15
 74
0
 42
0.0000001
 43
0.0000001
 44
0.0000000001
 40
0.0
 40
0.0
 40
0.0
 40
0.0
 40
0.0598763106
 40
0.1232679831
 40
0.2580296519
 40
0.3990973058
 40
0.5401608095
 40
0.6749293637
 40
0.738284112
 40
0.7981927511
 40
0.854303522
 40
0.9065010656
 40
0.9549388491
 40
1.0
 40
1.0
 40
1.0
 40
1.0
 10
10.8013379092
 20
30.0702339362
 30
0.0
 10
10.8013379092
 20
30.0885964103
 30
0.0
 10
10.7991286818
 20
30.1264218131
 30
0.0
 10
10.7866871008
 20
30.2046680194
 30
0.0
 10
10.7563127105
 20
30.3047340726
 30
0.0
 10
10.7005700161
 20
30.4203033722
 30
0.0
 10
10.6283539936
 20
30.526368275
 30
0.0
 10
10.5568833521
 20
30.6026855157
 30
0.0
 10
10.4953465535
 20
30.6526046358
 30
0.0
 10
10.4492956093
 20
30.6828843129
 30
0.0
 10
10.4031754771
 20
30.7062684418
 30
0.0
 10
10.3577053063
 20
30.722349676
 30
0.0
 10
10.3136426085
 20
30.7307819203
 30
0.0
 10
10.2847698625
 20
30.7312
 30
0.0
 10
10.2710056153
 20
30.7299704198
 30
0.0
  0
SPLINE
  5
2FB
100
AcDbEntity
  8
0
100
AcDbSpline
 62
7
  6
BYLAYER
 70
0
 71
3
 72
18
 73
14
 74
0
 42
0.0000001
 43
0.0000001
 44
0.0000000001
 40
0.0
 40
0.0
 40
0.0
 40
0.0
 40
0.1550507998
 40
0.3062254111
 40
0.449789529
 40
0.5828653014
 40
0.7035298491
 40
0.7591180754
 40
0.8116627609
 40
0.8614651957
 40
0.909009499
 40
0.9549289476
 40
1.0
 40
1.0
 40
1.0
 40
1.0
 10
12.8233245059
 20
25.6483555043
 30
0.0
 10
12.8037863999
 20
25.6821963086
 30
0.0
 10
12.7614022
 20
25.7469255113
 30
0.0
 10
12.6886817776
 20
25.8342108468
 30
0.0
 10
12.6097011758
 20
25.908075921
 30
0.0
 10
12.5274264692
 20
25.9657672071
 30
0.0
 10
12.4565616428
 20
25.9994911128
 30
0.0
 10
12.4010975944
 20
26.0156564457
 30
0.0
 10
12.3617419053
 20
26.0222681773
 30
0.0
 10
12.3238686554
 20
26.0235747569
 30
0.0
 10
12.2878434312
 20
26.019563873
 30
0.0
 10
12.2540490628
 20
26.0102169313
 30
0.0
 10
12.233164877
 20
26.0004345825
 30
0.0
 10
12.2233269978
 20
25.9947565909
 30
0.0
  0
SPLINE
  5
2FC
100
AcDbEntity
  8
0
100
AcDbSpline
 62
7
  6
BYLAYER
 70
0
 71
3
 72
12
 73
8
 74
0
 42
0.0000001
 43
0.0000001
 44
0.0000000001
 40
0.0
 40
0.0
 40
0.0
 40
0.0
 40
0.1081588022
 40
0.2183521463
 40
0.4513532897
 40
0.710426048
 40
1.0
 40
1.0
 40
1.0
 40
1.0
 10
12.3418124424
 20
26.9938123916
 30
0.0
 10
12.3500098095
 20
26.9985453982
 30
0.0
 10
12.3657707367
 20
27.0095449096
 30
0.0
 10
12.3940410382
 20
27.0373577377
 30
0.0
 10
12.4220467196
 20
27.0830066567
 30
0.0
 10
12.4415262595
 20
27.1491769864
 30
0.0
 10
12.4453680202
 20
27.1973636926
 30
0.0
 10
12.4453680202
 20
27.2227060621
 30
0.0
  0
SPLINE
  5
2FD
100
AcDbEntity
  8
0
100
AcDbSpline
 62
7
  6
BYLAYER
 70
0
 71
3
 72
22
 73
18
 74
0
 42
0.0000001
 43
0.0000001
 44
0.0000000001
 40
0.0
 40
0.0
 40
0.0
 40
0.0
 40
0.0623723762
 40
0.1287691697
 40
0.1983773216
 40
0.2703689161
 40
0.4173897834
 40
0.4904342226
 40
0.5617427099
 40
0.6303587685
 40
0.6954667374
 40
0.7564318543
 40
0.8128854303
 40
0.8648032571
 40
0.9125911014
 40
0.9571796485
 40
1.0
 40
1.0
 40
1.0
 40
1.0
 10
12.4453680202
 20
27.2227060621
 30
0.0
 10
12.4453680202
 20
27.2434393711
 30
0.0
 10
12.4425469022
 20
27.2862715835
 30
0.0
 10
12.4310002063
 20
27.3513055404
 30
0.0
 10
12.4121925235
 20
27.4179557892
 30
0.0
 10
12.3777790582
 20
27.5076141606
 30
0.0
 10
12.3313059019
 20
27.5934976668
 30
0.0
 10
12.2747678988
 20
27.6722473968
 30
0.0
 10
12.228522307
 20
27.7259841766
 30
0.0
 10
12.1793511778
 20
27.7733321153
 30
0.0
 10
12.1282973036
 20
27.8133092224
 30
0.0
 10
12.0764079624
 20
27.845050243
 30
0.0
 10
12.0247455585
 20
27.8678814011
 30
0.0
 10
11.9743370609
 20
27.8812813868
 30
0.0
 10
11.926170095
 20
27.8848168553
 30
0.0
 10
11.8813138157
 20
27.8782533197
 30
0.0
 10
11.8541435063
 20
27.8669529083
 30
0.0
 10
11.8418152389
 20
27.8598381208
 30
0.0
  0
SPLINE
  5
2FE
100
AcDbEntity
  8
0
100
AcDbSpline
 62
7
  6
BYLAYER
 70
0
 71
3
 72
13
 73
9
 74
0
 42
0.0000001
 43
0.0000001
 44
0.0000000001
 40
0.0
 40
0.0
 40
0.0
 40
0.0
 40
0.1080983532
 40
0.2182408668
 40
0.3322555564
 40
0.4516815527
 40
0.7106547151
 40
1.0
 40
1.0
 40
1.0
 40
1.0
 10
10.6977809653
 20
29.841342632
 30
0.0
 10
10.7059797021
 20
29.846074219
 30
0.0
 10
10.7217421293
 20
29.8570735204
 30
0.0
 10
10.7425605846
 20
29.8775751725
 30
0.0
 10
10.7604796381
 20
29.9018927082
 30
0.0
 10
10.780787165
 20
29.9400817382
 30
0.0
 10
10.797515566
 20
29.9967364698
 30
0.0
 10
10.8013379092
 20
30.0448961431
 30
0.0
 10
10.8013379092
 20
30.0702339362
 30
0.0
  0
SPLINE
  5
2FF
100
AcDbEntity
  8
0
100
AcDbSpline
 62
7
  6
BYLAYER
 70
0
 71
3
 72
11
 73
7
 74
0
 42
0.0000001
 43
0.0000001
 44
0.0000000001
 40
0.0
 40
0.0
 40
0.0
 40
0.0
 40
0.224337825
 40
0.4643547528
 40
0.7225623719
 40
1.0
 40
1.0
 40
1.0
 40
1.0
 10
8.9740180553
 20
32.181848982
 30
0.0
 10
9.0835818421
 20
32.1956729787
 30
0.0
 10
9.3137139636
 20
32.2009900449
 30
0.0
 10
9.666707517
 20
32.1465206587
 30
0.0
 10
10.0321147067
 20
32.0315193406
 30
0.0
 10
10.2718219432
 20
31.9198748873
 30
0.0
 10
10.3922626967
 20
31.8554873442
 30
0.0
  0
SPLINE
  5
300
100
AcDbEntity
  8
0
100
AcDbSpline
 62
7
  6
BYLAYER
 70
0
 71
3
 72
20
 73
16
 74
0
 42
0.0000001
 43
0.0000001
 44
0.0000000001
 40
0.0
 40
0.0
 40
0.0
 40
0.0
 40
0.1533704613
 40
0.3005139834
 40
0.3712430042
 40
0.4398366747
 40
0.5061512577
 40
0.570087535
 40
0.6315851374
 40
0.6906331864
 40
0.8014896686
 40
0.853667827
 40
0.9039327625
 40
0.9525868354
 40
1.0
 40
1.0
 40
1.0
 40
1.0
 10
8.6418378412
 20
25.6523281601
 30
0.0
 10
8.7944497246
 20
25.46794937
 30
0.0
 10
9.1093218259
 20
25.1194244212
 30
0.0
 10
9.5371032438
 20
24.7272181942
 30
0.0
 10
9.8895649022
 20
24.4519065447
 30
0.0
 10
10.1531138449
 20
24.2684971246
 30
0.0
 10
10.4179802101
 20
24.1064528195
 30
0.0
 10
10.6827533179
 20
23.9665963739
 30
0.0
 10
10.9461430636
 20
23.8496804308
 30
0.0
 10
11.2862717964
 20
23.7277958693
 30
0.0
 10
11.6260591691
 20
23.6494586753
 30
0.0
 10
11.9582793017
 20
23.6221703039
 30
0.0
 10
12.1944903534
 20
23.6270247127
 30
0.0
 10
12.4213625867
 20
23.6568399924
 30
0.0
 10
12.567119444
 20
23.6936975777
 30
0.0
 10
12.6376010652
 20
23.7162157231
 30
0.0
  0
SPLINE
  5
301
100
AcDbEntity
  8
0
100
AcDbSpline
 62
7
  6
BYLAYER
 70
0
 71
3
 72
15
 73
11
 74
0
 42
0.0000001
 43
0.0000001
 44
0.0000000001
 40
0.0
 40
0.0
 40
0.0
 40
0.0
 40
0.1293641084
 40
0.2605083109
 40
0.3918432032
 40
0.5218305088
 40
0.6489497618
 40
0.7718020906
 40
0.8891495316
 40
1.0
 40
1.0
 40
1.0
 40
1.0
 10
11.8524917298
 20
30.5849657193
 30
0.0
 10
11.9727912167
 20
30.4396253084
 30
0.0
 10
12.2031031489
 20
30.1368570401
 30
0.0
 10
12.5128686031
 20
29.6559774977
 30
0.0
 10
12.7852012555
 20
29.1518766578
 30
0.0
 10
13.0152847206
 20
28.6335510958
 30
0.0
 10
13.1990454813
 20
28.1101061362
 30
0.0
 10
13.3332494817
 20
27.5907500418
 30
0.0
 10
13.4155132044
 20
27.0846782272
 30
0.0
 10
13.4353261296
 20
26.7516725847
 30
0.0
 10
13.435331673
 20
26.5900049362
 30
0.0
  0
SPLINE
  5
302
100
AcDbEntity
  8
0
100
AcDbSpline
 62
7
  6
BYLAYER
 70
0
 71
3
 72
24
 73
20
 74
0
 42
0.0000001
 43
0.0000001
 44
0.0000000001
 40
0.0
 40
0.0
 40
0.0
 40
0.0
 40
0.0723082177
 40
0.1455691761
 40
0.2191748495
 40
0.2925701146
 40
0.3651757544
 40
0.4364380442
 40
0.5058377857
 40
0.5729014802
 40
0.6372221048
 40
0.6984769937
 40
0.7564477807
 40
0.8110450269
 40
0.8623372132
 40
0.9105775416
 40
0.9562261693
 40
0.9783021941
 40
1.0
 40
1.0
 40
1.0
 40
1.0
 10
13.2860545926
 20
31.7702419135
 30
0.0
 10
13.4084825908
 20
31.6223299312
 30
0.0
 10
13.6450778584
 20
31.3162452793
 30
0.0
 10
13.9711431422
 20
30.8337247762
 30
0.0
 10
14.2677740813
 20
30.3291951444
 30
0.0
 10
14.531490666
 20
29.8086620023
 30
0.0
 10
14.7592108793
 20
29.278154208
 30
0.0
 10
14.9482755982
 20
28.7438917967
 30
0.0
 10
15.096482204
 20
28.2121103336
 30
0.0
 10
15.2020790452
 20
27.6889982347
 30
0.0
 10
15.2638274159
 20
27.1806323089
 30
0.0
 10
15.2809861557
 20
26.6928880046
 30
0.0
 10
15.2532821885
 20
26.2313717389
 30
0.0
 10
15.1808982725
 20
25.8013795818
 30
0.0
 10
15.0644422804
 20
25.4078307975
 30
0.0
 10
14.9050011151
 20
25.0553911326
 30
0.0
 10
14.7354212706
 20
24.7965265474
 30
0.0
 10
14.5804896007
 20
24.6162511656
 30
0.0
 10
14.4970549655
 20
24.5350442083
 30
0.0
 10
14.4539584188
 20
24.4968040092
 30
0.0
  0
SPLINE
  5
303
100
AcDbEntity
  8
0
100
AcDbSpline
 62
7
  6
BYLAYER
 70
0
 71
3
 72
23
 73
19
 74
0
 42
0.0000001
 43
0.0000001
 44
0.0000000001
 40
0.0
 40
0.0
 40
0.0
 40
0.0
 40
0.0474883114
 40
0.0955806638
 40
0.1448430161
 40
0.1957752535
 40
0.2487869331
 40
0.3041943303
 40
0.36221404
 40
0.4229745666
 40
0.4865190419
 40
0.5528206897
 40
0.62178959
 40
0.6932763143
 40
0.7670838618
 40
0.8429931693
 40
0.9207516593
 40
1.0
 40
1.0
 40
1.0
 40
1.0
 10
18.5384696055
 20
39.2247783494
 30
0.0
 10
18.6102008501
 20
39.2661902266
 30
0.0
 10
18.760609535
 20
39.3395475618
 30
0.0
 10
19.0014739945
 20
39.4181575803
 30
0.0
 10
19.2565193366
 20
39.4653012736
 30
0.0
 10
19.5239405126
 20
39.4806695645
 30
0.0
 10
19.8019700677
 20
39.4643674844
 30
0.0
 10
20.0888075283
 20
39.4165491894
 30
0.0
 10
20.3826463443
 20
39.3376587066
 30
0.0
 10
20.681629907
 20
39.2282265777
 30
0.0
 10
20.9838895925
 20
39.0890143388
 30
0.0
 10
21.2875218043
 20
38.9209222943
 30
0.0
 10
21.5906012297
 20
38.7250302803
 30
0.0
 10
21.891211359
 20
38.5026230301
 30
0.0
 10
22.1874357588
 20
38.2551045015
 30
0.0
 10
22.4774241853
 20
37.9840415706
 30
0.0
 10
22.7592313282
 20
37.6911975922
 30
0.0
 10
22.9390039567
 20
37.4844485099
 30
0.0
 10
23.0271372231
 20
37.3779698749
 30
0.0
  0
SPLINE
  5
304
100
AcDbEntity
  8
0
100
AcDbSpline
 62
7
  6
BYLAYER
 70
0
 71
3
 72
15
 73
11
 74
0
 42
0.0000001
 43
0.0000001
 44
0.0000000001
 40
0.0
 40
0.0
 40
0.0
 40
0.0
 40
0.1486058177
 40
0.2895003741
 40
0.4227225657
 40
0.5486426469
 40
0.6680011788
 40
0.7819384642
 40
0.8919873012
 40
1.0
 40
1.0
 40
1.0
 40
1.0
 10
20.3649587699
 20
29.2027851652
 30
0.0
 10
20.364959871
 20
29.0465014915
 30
0.0
 10
20.3523803103
 20
28.7418326832
 30
0.0
 10
20.2923919127
 20
28.3006290085
 30
0.0
 10
20.1922116357
 20
27.8911335613
 30
0.0
 10
20.0526103481
 20
27.5172678087
 30
0.0
 10
19.87465282
 20
27.1826687001
 30
0.0
 10
19.6597112409
 20
26.8907611373
 30
0.0
 10
19.4098021149
 20
26.6448070112
 30
0.0
 10
19.2206663752
 20
26.5128224971
 30
0.0
 10
19.122291599
 20
26.4560260596
 30
0.0
  0
SPLINE
  5
305
100
AcDbEntity
  8
0
100
AcDbSpline
 62
7
  6
BYLAYER
 70
0
 71
3
 72
25
 73
21
 74
0
 42
0.0000001
 43
0.0000001
 44
0.0000000001
 40
0.0
 40
0.0
 40
0.0
 40
0.0
 40
0.0738331602
 40
0.1486565529
 40
0.2237748036
 40
0.2985355898
 40
0.3722691776
 40
0.4443429115
 40
0.5141703031
 40
0.5812328079
 40
0.6451037482
 40
0.7054740274
 40
0.7621838445
 40
0.8152569264
 40
0.8649375815
 40
0.9117233237
 40
0.9342835249
 40
0.9564274634
 40
0.9782862656
 40
1.0
 40
1.0
 40
1.0
 40
1.0
 10
23.0271372231
 20
37.3779698749
 30
0.0
 10
23.1567166447
 20
37.2214178657
 30
0.0
 10
23.406457744
 20
36.8968138083
 30
0.0
 10
23.7482636439
 20
36.3839001592
 30
0.0
 10
24.0562988136
 20
35.847045294
 30
0.0
 10
24.3264592346
 20
35.2935067677
 30
0.0
 10
24.5551376577
 20
34.7305929064
 30
0.0
 10
24.7392918992
 20
34.1658136871
 30
0.0
 10
24.8764782469
 20
33.6066634676
 30
0.0
 10
24.9648625963
 20
33.0605408185
 30
0.0
 10
25.00324236
 20
32.5346407431
 30
0.0
 10
24.9910302555
 20
32.0358485725
 30
0.0
 10
24.9282594147
 20
31.5706662037
 30
0.0
 10
24.8154691506
 20
31.1451248234
 30
0.0
 10
24.6537979359
 20
30.7649296638
 30
0.0
 10
24.4772849492
 20
30.4867733739
 30
0.0
 10
24.3141221566
 20
30.2945380841
 30
0.0
 10
24.1826488538
 20
30.1665154057
 30
0.0
 10
24.0411151929
 20
30.0534314308
 30
0.0
 10
23.9401953266
 20
29.9881917972
 30
0.0
 10
23.8884357098
 20
29.9583099389
 30
0.0
  0
SPLINE
  5
306
100
AcDbEntity
  8
0
100
AcDbSpline
 62
7
  6
BYLAYER
 70
0
 71
3
 72
14
 73
10
 74
0
 42
0.0000001
 43
0.0000001
 44
0.0000000001
 40
0.0
 40
0.0
 40
0.0
 40
0.0
 40
0.1179746086
 40
0.2366803682
 40
0.3568260507
 40
0.4790791157
 40
0.6040441585
 40
0.7322606562
 40
1.0
 40
1.0
 40
1.0
 40
1.0
 10
9.2332473558
 20
34.6030035667
 30
0.0
 10
9.1773369536
 20
34.5707238321
 30
0.0
 10
9.0682452415
 20
34.5004649935
 30
0.0
 10
8.9147869072
 20
34.3792616124
 30
0.0
 10
8.7717717508
 20
34.2424716767
 30
0.0
 10
8.6396815694
 20
34.0905693144
 30
0.0
 10
8.5188807804
 20
33.9240540903
 30
0.0
 10
8.3713434461
 20
33.6798492349
 30
0.0
 10
8.2820443456
 20
33.4812304758
 30
0.0
 10
8.2312178517
 20
33.3438128173
 30
0.0
  0
SPLINE
  5
307
100
AcDbEntity
  8
0
100
AcDbSpline
 62
7
  6
BYLAYER
 70
0
 71
3
 72
15
 73
11
 74
0
 42
0.0000001
 43
0.0000001
 44
0.0000000001
 40
0.0
 40
0.0
 40
0.0
 40
0.0
 40
0.1080127572
 40
0.21806165
 40
0.3319990073
 40
0.4513576276
 40
0.5772777375
 40
0.7105000912
 40
0.8513948522
 40
1.0
 40
1.0
 40
1.0
 40
1.0
 10
13.1223184604
 20
36.848346413
 30
0.0
 10
13.2206932767
 20
36.9051428736
 30
0.0
 10
13.4295638133
 20
37.0029456667
 30
0.0
 10
13.767521441
 20
37.0963947493
 30
0.0
 10
14.1277920227
 20
37.1365839012
 30
0.0
 10
14.5065421695
 20
37.1233978275
 30
0.0
 10
14.9001199812
 20
37.0573613992
 30
0.0
 10
15.3048432959
 20
36.9393699106
 30
0.0
 10
15.7169294697
 20
36.7707167447
 30
0.0
 10
15.9870695715
 20
36.6292765829
 30
0.0
 10
16.122413673
 20
36.5511335466
 30
0.0
  0
SPLINE
  5
308
100
AcDbEntity
  8
0
100
AcDbSpline
 62
7
  6
BYLAYER
 70
0
 71
3
 72
14
 73
10
 74
0
 42
0.0000001
 43
0.0000001
 44
0.0000000001
 40
0.0
 40
0.0
 40
0.0
 40
0.0
 40
0.2677418356
 40
0.39595884
 40
0.5209239294
 40
0.6431766306
 40
0.7633216047
 40
0.8820264421
 40
1.0
 40
1.0
 40
1.0
 40
1.0
 10
13.6415584921
 20
23.9725302207
 30
0.0
 10
13.7859927515
 20
23.9478281323
 30
0.0
 10
14.0026725077
 20
23.9258405716
 30
0.0
 10
14.2879580019
 20
23.9314972048
 30
0.0
 10
14.4925853269
 20
23.9528502443
 30
0.0
 10
14.6902013858
 20
23.9912894904
 30
0.0
 10
14.880191021
 20
24.046749677
 30
0.0
 10
15.0619027711
 20
24.1190498104
 30
0.0
 10
15.1773052467
 20
24.1784006812
 30
0.0
 10
15.2332204943
 20
24.2106832133
 30
0.0
  0
SPLINE
  5
309
100
AcDbEntity
  8
0
100
AcDbSpline
 62
7
  6
BYLAYER
 70
0
 71
3
 72
11
 73
7
 74
0
 42
0.0000001
 43
0.0000001
 44
0.0000000001
 40
0.0
 40
0.0
 40
0.0
 40
0.0
 40
0.2325810675
 40
0.4780121557
 40
0.7345771936
 40
1.0
 40
1.0
 40
1.0
 40
1.0
 10
10.3948418143
 20
31.8563196797
 30
0.0
 10
10.5253323616
 20
31.7809812353
 30
0.0
 10
10.7850571026
 20
31.6111537923
 30
0.0
 10
11.1571340531
 20
31.3134649024
 30
0.0
 10
11.5173522173
 20
30.9699760574
 30
0.0
 10
11.7428499088
 20
30.7174300194
 30
0.0
 10
11.8524917298
 20
30.5849657193
 30
0.0
  0
SPLINE
  5
30A
100
AcDbEntity
  8
0
100
AcDbSpline
 62
7
  6
BYLAYER
 70
0
 71
3
 72
16
 73
12
 74
0
 42
0.0000001
 43
0.0000001
 44
0.0000000001
 40
0.0
 40
0.0
 40
0.0
 40
0.0
 40
0.1473708599
 40
0.2873044738
 40
0.4199256349
 40
0.4836410394
 40
0.5457139834
 40
0.6653136264
 40
0.7798863073
 40
0.89087712
 40
1.0
 40
1.0
 40
1.0
 40
1.0
 10
13.4332448535
 20
26.5857942226
 30
0.0
 10
13.4298793358
 20
26.4848618752
 30
0.0
 10
13.4152587226
 20
26.2882225654
 30
0.0
 10
13.3673937163
 20
26.0040418521
 30
0.0
 10
13.3057964911
 20
25.7814633576
 30
0.0
 10
13.2438192209
 20
25.6154788225
 30
0.0
 10
13.175508988
 20
25.4617311141
 30
0.0
 10
13.0756268833
 20
25.2842517192
 30
0.0
 10
12.9313117287
 20
25.095781384
 30
0.0
 10
12.7652785125
 20
24.9362646793
 30
0.0
 10
12.6405771013
 20
24.8500289387
 30
0.0
 10
12.5758190499
 20
24.8126364755
 30
0.0
  0
SPLINE
  5
30B
100
AcDbEntity
  8
0
100
AcDbSpline
 62
7
  6
BYLAYER
 70
0
 71
3
 72
24
 73
20
 74
0
 42
0.0000001
 43
0.0000001
 44
0.0000000001
 40
0.0
 40
0.0
 40
0.0
 40
0.0
 40
0.0217128933
 40
0.0438158324
 40
0.0895444361
 40
0.1378833695
 40
0.189276339
 40
0.2439638368
 40
0.30200569
 40
0.3633071699
 40
0.4276472607
 40
0.494703107
 40
0.5640695167
 40
0.6352760966
 40
0.7078078266
 40
0.7811155413
 40
0.8546254121
 40
0.927787994
 40
1.0
 40
1.0
 40
1.0
 40
1.0
 10
7.5072076995
 20
32.6023712039
 30
0.0
 10
7.4664776834
 20
32.5653357118
 30
0.0
 10
7.3876622157
 20
32.4867894721
 30
0.0
 10
7.2414533974
 20
32.3127983825
 30
0.0
 10
7.0817010363
 20
32.0636425058
 30
0.0
 10
6.9319335649
 20
31.7252779809
 30
0.0
 10
6.8230421924
 20
31.3480995577
 30
0.0
 10
6.7560362519
 20
30.9365345988
 30
0.0
 10
6.7314758423
 20
30.4952512556
 30
0.0
 10
6.749518822
 20
30.0292732177
 30
0.0
 10
6.8098871689
 20
29.5439148861
 30
0.0
 10
6.9118627877
 20
29.0447405876
 30
0.0
 10
7.0542624873
 20
28.5375021016
 30
0.0
 10
7.2354171564
 20
28.0280532499
 30
0.0
 10
7.4532330836
 20
27.5222913406
 30
0.0
 10
7.7051871713
 20
27.0260975808
 30
0.0
 10
7.9883614017
 20
26.5451725383
 30
0.0
 10
8.2994588996
 20
26.0851951136
 30
0.0
 10
8.5250983823
 20
25.7933675059
 30
0.0
 10
8.6418378412
 20
25.6523281601
 30
0.0
  0
SPLINE
  5
30C
100
AcDbEntity
  8
0
100
AcDbSpline
 62
7
  6
BYLAYER
 70
0
 71
3
 72
20
 73
16
 74
0
 42
0.0000001
 43
0.0000001
 44
0.0000000001
 40
0.0
 40
0.0
 40
0.0
 40
0.0
 40
0.047387483
 40
0.0959860439
 40
0.1461772997
 40
0.1982739047
 40
0.3089771947
 40
0.3679695978
 40
0.4294307354
 40
0.4933524956
 40
0.5596756971
 40
0.6283014849
 40
0.6990852535
 40
0.8463976522
 40
1.0
 40
1.0
 40
1.0
 40
1.0
 10
9.0903533915
 20
33.7847381365
 30
0.0
 10
9.1639723714
 20
33.8092982714
 30
0.0
 10
9.3163356182
 20
33.8498001278
 30
0.0
 10
9.5538335491
 20
33.8836258838
 30
0.0
 10
9.8013318716
 20
33.8910345637
 30
0.0
 10
10.1497064431
 20
33.8652479016
 30
0.0
 10
10.506382411
 20
33.7853291622
 30
0.0
 10
10.8635574781
 20
33.6592503477
 30
0.0
 10
11.1402961157
 20
33.5377087033
 30
0.0
 10
11.4185709405
 20
33.391857238
 30
0.0
 10
11.697011137
 20
33.2224945598
 30
0.0
 10
11.9741133691
 20
33.0304893233
 30
0.0
 10
12.3447873597
 20
32.7418857369
 30
0.0
 10
12.7946665592
 20
32.3301908863
 30
0.0
 10
13.1256549532
 20
31.9640295189
 30
0.0
 10
13.2860545926
 20
31.7702419135
 30
0.0
  0
SPLINE
  5
30D
100
AcDbEntity
  8
0
100
AcDbSpline
 62
7
  6
BYLAYER
 70
0
 71
3
 72
11
 73
7
 74
0
 42
0.0000001
 43
0.0000001
 44
0.0000000001
 40
0.0
 40
0.0
 40
0.0
 40
0.0
 40
0.2654226625
 40
0.5219876773
 40
0.7674185833
 40
1.0
 40
1.0
 40
1.0
 40
1.0
 10
18.3956070893
 20
34.7039706671
 30
0.0
 10
18.2591922698
 20
34.8687808956
 30
0.0
 10
17.9786314079
 20
35.1829954564
 30
0.0
 10
17.5304532058
 20
35.6103597165
 30
0.0
 10
17.0675209214
 20
35.980741594
 30
0.0
 10
16.7443744535
 20
36.192038376
 30
0.0
 10
16.5820193976
 20
36.28577324
 30
0.0
  0
SPLINE
  5
30E
100
AcDbEntity
  8
0
100
AcDbSpline
 62
7
  6
BYLAYER
 70
0
 71
3
 72
23
 73
19
 74
0
 42
0.0000001
 43
0.0000001
 44
0.0000000001
 40
0.0
 40
0.0
 40
0.0
 40
0.0
 40
0.0721350824
 40
0.1452183653
 40
0.2186510686
 40
0.2918885339
 40
0.3643616437
 40
0.4355249025
 40
0.504866478
 40
0.5719185576
 40
0.6362772264
 40
0.6976194552
 40
0.755722181
 40
0.8104864891
 40
0.8619652196
 40
0.9103884395
 40
0.9561864808
 40
1.0
 40
1.0
 40
1.0
 40
1.0
 10
8.9370361667
 20
26.1058514605
 30
0.0
 10
8.8402946217
 20
26.2227302292
 30
0.0
 10
8.653283042
 20
26.4645415252
 30
0.0
 10
8.3953538373
 20
26.8456363573
 30
0.0
 10
8.1604665376
 20
27.2440625718
 30
0.0
 10
7.9513364939
 20
27.6551481441
 30
0.0
 10
7.7703690996
 20
28.0742035745
 30
0.0
 10
7.6196460567
 20
28.4963888029
 30
0.0
 10
7.5008984214
 20
28.9168494989
 30
0.0
 10
7.4155087779
 20
29.3307659141
 30
0.0
 10
7.3644595933
 20
29.7334001703
 30
0.0
 10
7.3483537935
 20
30.1201672084
 30
0.0
 10
7.3674314803
 20
30.486683013
 30
0.0
 10
7.4215793812
 20
30.8288092896
 30
0.0
 10
7.5103240981
 20
31.1426713604
 30
0.0
 10
7.6329290688
 20
31.4246873447
 30
0.0
 10
7.7882259906
 20
31.6713780549
 30
0.0
 10
7.9147985328
 20
31.8125859678
 30
0.0
 10
7.9823538752
 20
31.8752635624
 30
0.0
  0
SPLINE
  5
30F
100
AcDbEntity
  8
0
100
AcDbSpline
 62
7
  6
BYLAYER
 70
0
 71
3
 72
11
 73
7
 74
0
 42
0.0000001
 43
0.0000001
 44
0.0000000001
 40
0.0
 40
0.0
 40
0.0
 40
0.0
 40
0.2484970579
 40
0.4952411479
 40
0.7444811882
 40
1.0
 40
1.0
 40
1.0
 40
1.0
 10
7.9823538752
 20
31.8752635624
 30
0.0
 10
8.0387255162
 20
31.9275649605
 30
0.0
 10
8.1593196191
 20
32.0233439015
 30
0.0
 10
8.3611607038
 20
32.1363940767
 30
0.0
 10
8.5804592523
 20
32.2165538
 30
0.0
 10
8.7343182898
 20
32.2471674547
 30
0.0
 10
8.812766523
 20
32.2570655072
 30
0.0
  0
SPLINE
  5
310
100
AcDbEntity
  8
0
100
AcDbSpline
 62
7
  6
BYLAYER
 70
0
 71
3
 72
15
 73
11
 74
0
 42
0.0000001
 43
0.0000001
 44
0.0000000001
 40
0.0
 40
0.0
 40
0.0
 40
0.0
 40
0.1108500945
 40
0.2281962168
 40
0.3510463805
 40
0.4781664113
 40
0.6081544319
 40
0.739491771
 40
0.8706320709
 40
1.0
 40
1.0
 40
1.0
 40
1.0
 10
20.3649581592
 20
29.7334940793
 30
0.0
 10
20.364961144
 20
29.9346381327
 30
0.0
 10
20.3402901263
 20
30.3489559867
 30
0.0
 10
20.2379471957
 20
30.9785966731
 30
0.0
 10
20.0709759661
 20
31.6247690385
 30
0.0
 10
19.8423446105
 20
32.2760311713
 30
0.0
 10
19.5560807156
 20
32.9209342464
 30
0.0
 10
19.2172432163
 20
33.5481256405
 30
0.0
 10
18.8318400896
 20
34.146436416
 30
0.0
 10
18.5452865268
 20
34.5231347258
 30
0.0
 10
18.3956070893
 20
34.7039706671
 30
0.0
  0
SPLINE
  5
311
100
AcDbEntity
  8
0
100
AcDbSpline
 62
7
  6
BYLAYER
 70
0
 71
3
 72
21
 73
17
 74
0
 42
0.0000001
 43
0.0000001
 44
0.0000000001
 40
0.0
 40
0.0
 40
0.0
 40
0.0
 40
0.1555179532
 40
0.3041914522
 40
0.3753980443
 40
0.444248761
 40
0.5105947095
 40
0.5743409911
 40
0.6354430073
 40
0.6939186401
 40
0.7498525448
 40
0.8034081886
 40
0.8548303104
 40
0.9044496901
 40
0.9526786528
 40
1.0
 40
1.0
 40
1.0
 40
1.0
 10
13.1446338251
 20
31.6885930827
 30
0.0
 10
12.9754503123
 20
31.8929929677
 30
0.0
 10
12.625911504
 20
32.277850244
 30
0.0
 10
12.1489899259
 20
32.707289735
 30
0.0
 10
11.7560293279
 20
33.0047709657
 30
0.0
 10
11.4628734977
 20
33.2003018499
 30
0.0
 10
11.1687714004
 20
33.3702482047
 30
0.0
 10
10.8754596325
 20
33.5136414925
 30
0.0
 10
10.584622304
 20
33.6295860803
 30
0.0
 10
10.2979604702
 20
33.7174111377
 30
0.0
 10
10.0171218258
 20
33.7765186351
 30
0.0
 10
9.7437467138
 20
33.8065320002
 30
0.0
 10
9.4794422799
 20
33.8071605856
 30
0.0
 10
9.2257837053
 20
33.7783206404
 30
0.0
 10
8.9844001263
 20
33.720086253
 30
0.0
 10
8.8316815552
 20
33.6614725765
 30
0.0
 10
8.7584126317
 20
33.6275600959
 30
0.0
  0
SPLINE
  5
312
100
AcDbEntity
  8
0
100
AcDbSpline
 62
7
  6
BYLAYER
 70
0
 71
3
 72
26
 73
22
 74
0
 42
0.0000001
 43
0.0000001
 44
0.0000000001
 40
0.0
 40
0.0
 40
0.0
 40
0.0
 40
0.021712859
 40
0.0435706616
 40
0.0657136401
 40
0.0882730669
 40
0.1113672069
 40
0.1351004301
 40
0.184778625
 40
0.23784932
 40
0.2945570944
 40
0.3549251954
 40
0.4187932386
 40
0.4858525171
 40
0.5556766136
 40
0.6277474265
 40
0.70147799
 40
0.7762354291
 40
0.8513512382
 40
0.9261683646
 40
1.0
 40
1.0
 40
1.0
 40
1.0
 10
15.2332204943
 20
24.2106832133
 30
0.0
 10
15.2912681903
 20
24.2441969092
 30
0.0
 10
15.4044371703
 20
24.3173802809
 30
0.0
 10
15.5631830043
 20
24.4441851944
 30
0.0
 10
15.7106217796
 20
24.5877613874
 30
0.0
 10
15.8462301112
 20
24.7475643477
 30
0.0
 10
15.9695893715
 20
24.9230250075
 30
0.0
 10
16.1193947926
 20
25.1808971983
 30
0.0
 10
16.2729274599
 20
25.5417506765
 30
0.0
 10
16.39936952
 20
26.0189239729
 30
0.0
 10
16.4697786099
 20
26.5406480203
 30
0.0
 10
16.4834613138
 20
27.1000377997
 30
0.0
 10
16.4404219855
 20
27.689834361
 30
0.0
 10
16.3413029428
 20
28.3023067946
 30
0.0
 10
16.1874514427
 20
28.9293912896
 30
0.0
 10
15.9809181319
 20
29.5627878347
 30
0.0
 10
15.7244535287
 20
30.1940932506
 30
0.0
 10
15.4214710084
 20
30.814888371
 30
0.0
 10
15.0760117148
 20
31.4169613503
 30
0.0
 10
14.6926828559
 20
31.9921935327
 30
0.0
 10
14.4125988198
 20
32.3562303549
 30
0.0
 10
14.26727269
 20
32.5318068264
 30
0.0
  0
SPLINE
  5
313
100
AcDbEntity
  8
0
100
AcDbSpline
 62
7
  6
BYLAYER
 70
0
 71
3
 72
24
 73
20
 74
0
 42
0.0000001
 43
0.0000001
 44
0.0000000001
 40
0.0
 40
0.0
 40
0.0
 40
0.0
 40
0.0808895125
 40
0.1600658699
 40
0.2371092854
 40
0.3117232487
 40
0.3836464767
 40
0.4526576311
 40
0.5186138624
 40
0.5814510618
 40
0.6411991046
 40
0.6699636631
 40
0.6980181476
 40
0.7521229316
 40
0.8039262313
 40
0.8539458642
 40
0.9028159084
 40
0.9512514594
 40
1.0
 40
1.0
 40
1.0
 40
1.0
 10
12.1476900554
 20
31.0384890197
 30
0.0
 10
12.0543056362
 20
31.1513118606
 30
0.0
 10
11.8635243891
 20
31.3696964769
 30
0.0
 10
11.5633941669
 20
31.6769680988
 30
0.0
 10
11.2541712255
 20
31.9585194212
 30
0.0
 10
10.938305637
 20
32.2121414888
 30
0.0
 10
10.6182018904
 20
32.4359375888
 30
0.0
 10
10.2962718746
 20
32.6281401605
 30
0.0
 10
9.9749826636
 20
32.7872925728
 30
0.0
 10
9.6567697756
 20
32.9121088927
 30
0.0
 10
9.3928246986
 20
32.9876390886
 30
0.0
 10
9.1858235155
 20
33.0293009841
 30
0.0
 10
8.9869604812
 20
33.0579770561
 30
0.0
 10
8.7441557503
 20
33.0717588641
 30
0.0
 10
8.4617271966
 20
33.0515762979
 30
0.0
 10
8.1939851449
 20
32.9943864562
 30
0.0
 10
7.9432103203
 20
32.9005213639
 30
0.0
 10
7.7116728717
 20
32.7707194024
 30
0.0
 10
7.5725105952
 20
32.6617506275
 30
0.0
 10
7.5072076995
 20
32.6023712039
 30
0.0
  0
SPLINE
  5
314
100
AcDbEntity
  8
0
100
AcDbSpline
 62
7
  6
BYLAYER
 70
0
 71
3
 72
25
 73
21
 74
0
 42
0.0000001
 43
0.0000001
 44
0.0000000001
 40
0.0
 40
0.0
 40
0.0
 40
0.0
 40
0.0738331974
 40
0.1486565019
 40
0.22377478
 40
0.2985358001
 40
0.3722699087
 40
0.4443437482
 40
0.5141710638
 40
0.5812336136
 40
0.6451047087
 40
0.7054751991
 40
0.7621851924
 40
0.8152584112
 40
0.8649391158
 40
0.9117248679
 40
0.9342854402
 40
0.9564297021
 40
0.9782879282
 40
1.0
 40
1.0
 40
1.0
 40
1.0
 10
9.0939527114
 20
26.2452121695
 30
0.0
 10
8.9934377363
 20
26.3666498261
 30
0.0
 10
8.7997132358
 20
26.6184454696
 30
0.0
 10
8.5345740175
 20
27.0163132261
 30
0.0
 10
8.2956303879
 20
27.4327524599
 30
0.0
 10
8.0860658671
 20
27.8621345168
 30
0.0
 10
7.90867916
 20
28.2987892815
 30
0.0
 10
7.7658301529
 20
28.7368903854
 30
0.0
 10
7.6594148682
 20
29.1706241844
 30
0.0
 10
7.5908552538
 20
29.5942525294
 30
0.0
 10
7.5610842892
 20
30.0021948103
 30
0.0
 10
7.570558015
 20
30.3891096832
 30
0.0
 10
7.6192501644
 20
30.7499532893
 30
0.0
 10
7.7067434074
 20
31.0800467176
 30
0.0
 10
7.8321534274
 20
31.3749642631
 30
0.0
 10
7.9690750786
 20
31.5907315966
 30
0.0
 10
8.0956449803
 20
31.7398472094
 30
0.0
 10
8.197631434
 20
31.8391523147
 30
0.0
 10
8.3074149269
 20
31.9268702252
 30
0.0
 10
8.3856923605
 20
31.9774775592
 30
0.0
 10
8.4258388575
 20
32.0006559255
 30
0.0
  0
SPLINE
  5
315
100
AcDbEntity
  8
0
100
AcDbSpline
 62
7
  6
BYLAYER
 70
0
 71
3
 72
22
 73
18
 74
0
 42
0.0000001
 43
0.0000001
 44
0.0000000001
 40
0.0
 40
0.0
 40
0.0
 40
0.0
 40
0.0474908422
 40
0.0955857632
 40
0.1448507595
 40
0.1957857369
 40
0.2488002694
 40
0.3042106708
 40
0.3622334131
 40
0.4229971256
 40
0.4865450606
 40
0.5528504358
 40
0.6218228361
 40
0.6933130131
 40
0.7671239191
 40
0.8430364123
 40
1.0
 40
1.0
 40
1.0
 40
1.0
 10
9.0986316817
 20
33.7747218414
 30
0.0
 10
9.1703632311
 20
33.8161337512
 30
0.0
 10
9.3207724718
 20
33.889491255
 30
0.0
 10
9.5616378838
 20
33.9681012586
 30
0.0
 10
9.8166842379
 20
34.0152448692
 30
0.0
 10
10.0841064792
 20
34.030612441
 30
0.0
 10
10.362137163
 20
34.0143101378
 30
0.0
 10
10.6489754039
 20
33.9664903716
 30
0.0
 10
10.9428151384
 20
33.8875997588
 30
0.0
 10
11.2417991766
 20
33.7781659948
 30
0.0
 10
11.5440601633
 20
33.6389528677
 30
0.0
 10
11.8476926199
 20
33.4708589897
 30
0.0
 10
12.1507735076
 20
33.274966432
 30
0.0
 10
12.4513790939
 20
33.0525600551
 30
0.0
 10
12.7476137768
 20
32.8050353797
 30
0.0
 10
13.1385004157
 20
32.4396383419
 30
0.0
 10
13.4127481519
 20
32.1387972898
 30
0.0
 10
13.5873009963
 20
31.9279104207
 30
0.0
  0
SPLINE
  5
316
100
AcDbEntity
  8
0
100
AcDbSpline
 62
7
  6
BYLAYER
 70
0
 71
3
 72
25
 73
21
 74
0
 42
0.0000001
 43
0.0000001
 44
0.0000000001
 40
0.0
 40
0.0
 40
0.0
 40
0.0
 40
0.0738329985
 40
0.1486561008
 40
0.2237741785
 40
0.2985350056
 40
0.3722689335
 40
0.4443426094
 40
0.5141697824
 40
0.5812322132
 40
0.6451032142
 40
0.7054736344
 40
0.7621835835
 40
0.8152567539
 40
0.8649374603
 40
0.9117232373
 40
0.9342834602
 40
0.9564274162
 40
0.9782862422
 40
1.0
 40
1.0
 40
1.0
 40
1.0
 10
13.5873009963
 20
31.9279104207
 30
0.0
 10
13.7168801939
 20
31.7713586821
 30
0.0
 10
13.9666207742
 20
31.4467555599
 30
0.0
 10
14.3084259746
 20
30.9338431763
 30
0.0
 10
14.6164611602
 20
30.3969893386
 30
0.0
 10
14.8866223045
 20
29.8434502054
 30
0.0
 10
15.1153014622
 20
29.2805353833
 30
0.0
 10
15.2994563853
 20
28.7157559125
 30
0.0
 10
15.4366428219
 20
28.156606436
 30
0.0
 10
15.525027656
 20
27.6104842635
 30
0.0
 10
15.5634080888
 20
27.0845836377
 30
0.0
 10
15.5511964273
 20
26.5857903026
 30
0.0
 10
15.4884258324
 20
26.120606672
 30
0.0
 10
15.3756356791
 20
25.6950642858
 30
0.0
 10
15.2139644997
 20
25.314868343
 30
0.0
 10
15.0374511165
 20
25.0367118012
 30
0.0
 10
14.8742884129
 20
24.8444760054
 30
0.0
 10
14.7428147067
 20
24.7164533644
 30
0.0
 10
14.6012809564
 20
24.6033691027
 30
0.0
 10
14.5003609211
 20
24.5381293652
 30
0.0
 10
14.44860118
 20
24.5082475385
 30
0.0
  0
SPLINE
  5
317
100
AcDbEntity
  8
0
100
AcDbSpline
 62
7
  6
BYLAYER
 70
0
 71
3
 72
21
 73
17
 74
0
 42
0.0000001
 43
0.0000001
 44
0.0000000001
 40
0.0
 40
0.0
 40
0.0
 40
0.0
 40
0.0473749082
 40
0.0955249214
 40
0.1449722638
 40
0.1961665168
 40
0.2494758521
 40
0.3051737376
 40
0.3634495472
 40
0.4244040792
 40
0.4880688992
 40
0.5544051764
 40
0.6233209767
 40
0.694663939
 40
0.8438087907
 40
1.0
 40
1.0
 40
1.0
 40
1.0
 10
12.5161661237
 20
24.7801189792
 30
0.0
 10
12.4601109937
 20
24.7513254107
 30
0.0
 10
12.3429543577
 20
24.7009578912
 30
0.0
 10
12.1567245237
 20
24.6489134575
 30
0.0
 10
11.9603561647
 20
24.6203333998
 30
0.0
 10
11.7551807177
 20
24.6152632048
 30
0.0
 10
11.5424773698
 20
24.6337141356
 30
0.0
 10
11.3235463196
 20
24.6754308684
 30
0.0
 10
11.0997246435
 20
24.7401660242
 30
0.0
 10
10.8723385747
 20
24.8274226155
 30
0.0
 10
10.6427778159
 20
24.9366994178
 30
0.0
 10
10.4124004287
 20
25.0672657088
 30
0.0
 10
10.1826281178
 20
25.2183618538
 30
0.0
 10
9.8743714641
 20
25.4492985728
 30
0.0
 10
9.5002511655
 20
25.7841921192
 30
0.0
 10
9.2264283593
 20
26.0851610703
 30
0.0
 10
9.0939527114
 20
26.2452121695
 30
0.0
  0
SPLINE
  5
318
100
AcDbEntity
  8
0
100
AcDbSpline
 62
7
  6
BYLAYER
 70
0
 71
3
 72
23
 73
19
 74
0
 42
0.0000001
 43
0.0000001
 44
0.0000000001
 40
0.0
 40
0.0
 40
0.0
 40
0.0
 40
0.0792517124
 40
0.1570068395
 40
0.232913454
 40
0.3067216079
 40
0.3782092175
 40
0.4471773062
 40
0.5134795259
 40
0.5770241641
 40
0.6377849621
 40
0.6958047833
 40
0.7512121016
 40
0.8042244013
 40
0.8551562944
 40
0.9044192796
 40
0.9525114679
 40
1.0
 40
1.0
 40
1.0
 40
1.0
 10
14.26727269
 20
32.5318068264
 30
0.0
 10
14.1684273769
 20
32.6512272728
 30
0.0
 10
13.966815694
 20
32.8830979401
 30
0.0
 10
13.6507697828
 20
33.2115136419
 30
0.0
 10
13.3255590659
 20
33.5155049969
 30
0.0
 10
12.9933430185
 20
33.7930901412
 30
0.0
 10
12.65621662
 20
34.0425306192
 30
0.0
 10
12.3163062339
 20
34.2622125025
 30
0.0
 10
11.9757902197
 20
34.4507380545
 30
0.0
 10
11.6368016212
 20
34.6068570036
 30
0.0
 10
11.3014946914
 20
34.729592166
 30
0.0
 10
10.9719541673
 20
34.8180668347
 30
0.0
 10
10.6502657763
 20
34.8716890792
 30
0.0
 10
10.3384561581
 20
34.8899877446
 30
0.0
 10
10.0385451124
 20
34.8727288367
 30
0.0
 10
9.7525057385
 20
34.8198886262
 30
0.0
 10
9.4823877418
 20
34.7316925924
 30
0.0
 10
9.3136930727
 20
34.6494487054
 30
0.0
 10
9.2332473558
 20
34.6030035667
 30
0.0
  0
SPLINE
  5
319
100
AcDbEntity
  8
0
100
AcDbSpline
 62
7
  6
BYLAYER
 70
0
 71
3
 72
13
 73
9
 74
0
 42
0.0000001
 43
0.0000001
 44
0.0000000001
 40
0.0
 40
0.0
 40
0.0
 40
0.0
 40
0.2825335355
 40
0.5417885162
 40
0.663201429
 40
0.7795914174
 40
0.8915861391
 40
1.0
 40
1.0
 40
1.0
 40
1.0
 10
13.435331673
 20
26.5900049362
 30
0.0
 10
13.4353375936
 20
26.4173408469
 30
0.0
 10
13.4143433955
 20
26.0856743447
 30
0.0
 10
13.3258945277
 20
25.6879175597
 30
0.0
 10
13.2183225921
 20
25.4033566903
 30
0.0
 10
13.1225779424
 20
25.211761747
 30
0.0
 10
13.010574323
 20
25.0385697022
 30
0.0
 10
12.9242391246
 20
24.9346546764
 30
0.0
 10
12.8787386752
 20
24.8864945565
 30
0.0
  0
SPLINE
  5
31A
100
AcDbEntity
  8
0
100
AcDbSpline
 62
7
  6
BYLAYER
 70
0
 71
3
 72
11
 73
7
 74
0
 42
0.0000001
 43
0.0000001
 44
0.0000000001
 40
0.0
 40
0.0
 40
0.0
 40
0.0
 40
0.2524960825
 40
0.5014891983
 40
0.7497264222
 40
1.0
 40
1.0
 40
1.0
 40
1.0
 10
12.8787386752
 20
24.8864945565
 30
0.0
 10
12.8352607704
 20
24.8404752065
 30
0.0
 10
12.7432049033
 20
24.7542485215
 30
0.0
 10
12.5902481224
 20
24.6440910003
 30
0.0
 10
12.4247327267
 20
24.5550561047
 30
0.0
 10
12.3075180957
 20
24.5105002334
 30
0.0
 10
12.2475820266
 20
24.4919118739
 30
0.0
  0
SPLINE
  5
31B
100
AcDbEntity
  8
0
100
AcDbSpline
 62
7
  6
BYLAYER
 70
0
 71
3
 72
17
 73
13
 74
0
 42
0.0000001
 43
0.0000001
 44
0.0000000001
 40
0.0
 40
0.0
 40
0.0
 40
0.0
 40
0.0474415595
 40
0.0961445976
 40
0.146469223
 40
0.1987137094
 40
0.3096951797
 40
0.4302435331
 40
0.560458041
 40
0.6996937343
 40
0.8467574905
 40
1.0
 40
1.0
 40
1.0
 40
1.0
 10
12.2475820266
 20
24.4919118739
 30
0.0
 10
12.1889835657
 20
24.4737383555
 30
0.0
 10
12.0678599376
 20
24.4441570812
 30
0.0
 10
11.8795093833
 20
24.420806851
 30
0.0
 10
11.6835280477
 20
24.4179959372
 30
0.0
 10
11.4080167302
 20
24.4421497487
 30
0.0
 10
11.0487574835
 20
24.5265507774
 30
0.0
 10
10.6144753377
 20
24.7046121921
 30
0.0
 10
10.1765007659
 20
24.9573658189
 30
0.0
 10
9.7434955265
 20
25.2795315135
 30
0.0
 10
9.3241062236
 20
25.6645082149
 30
0.0
 10
9.063397077
 20
25.9531879114
 30
0.0
 10
8.9370361667
 20
26.1058514605
 30
0.0
  0
SPLINE
  5
31C
100
AcDbEntity
  8
0
100
AcDbSpline
 62
7
  6
BYLAYER
 70
0
 71
3
 72
11
 73
7
 74
0
 42
0.0000001
 43
0.0000001
 44
0.0000000001
 40
0.0
 40
0.0
 40
0.0
 40
0.0
 40
0.2224605835
 40
0.4617902292
 40
0.7206799047
 40
1.0
 40
1.0
 40
1.0
 40
1.0
 10
8.812766523
 20
32.2570655072
 30
0.0
 10
8.934794165
 20
32.2724621064
 30
0.0
 10
9.1921333927
 20
32.2764344826
 30
0.0
 10
9.5865432485
 20
32.2080351441
 30
0.0
 10
9.9945694108
 20
32.0678923349
 30
0.0
 10
10.2610997316
 20
31.9335353913
 30
0.0
 10
10.3948418143
 20
31.8563196797
 30
0.0
  0
SPLINE
  5
31D
100
AcDbEntity
  8
0
100
AcDbSpline
 62
7
  6
BYLAYER
 70
0
 71
3
 72
22
 73
18
 74
0
 42
0.0000001
 43
0.0000001
 44
0.0000000001
 40
0.0
 40
0.0
 40
0.0
 40
0.0
 40
0.0503361534
 40
0.1003134305
 40
0.1505615122
 40
0.2016935951
 40
0.2542708504
 40
0.3087737779
 40
0.3655904555
 40
0.42500577
 40
0.487211354
 40
0.5523041415
 40
0.6203046939
 40
0.6911579261
 40
0.7647507669
 40
0.8409135417
 40
1.0
 40
1.0
 40
1.0
 40
1.0
 10
12.6376010652
 20
23.7162157231
 30
0.0
 10
12.7135843427
 20
23.7404915905
 30
0.0
 10
12.8619937171
 20
23.7990513238
 30
0.0
 10
13.0704141579
 20
23.9166805609
 30
0.0
 10
13.2616507444
 20
24.0627067111
 30
0.0
 10
13.4343757998
 20
24.2360152335
 30
0.0
 10
13.5874588367
 20
24.4353938372
 30
0.0
 10
13.7200240842
 20
24.6594167636
 30
0.0
 10
13.8312614352
 20
24.9066154633
 30
0.0
 10
13.9206176285
 20
25.1753636018
 30
0.0
 10
13.9875436061
 20
25.4639769049
 30
0.0
 10
14.0317369058
 20
25.7706344426
 30
0.0
 10
14.0529062827
 20
26.0934302808
 30
0.0
 10
14.0509925302
 20
26.43034492
 30
0.0
 10
14.0259874858
 20
26.7792932134
 30
0.0
 10
13.961179067
 20
27.2646207334
 30
0.0
 10
13.8796869124
 20
27.629411703
 30
0.0
 10
13.8124695989
 20
27.8723876608
 30
0.0
  0
SPLINE
  5
31E
100
AcDbEntity
  8
0
100
AcDbSpline
 62
7
  6
BYLAYER
 70
0
 71
3
 72
9
 73
5
 74
0
 42
0.0000001
 43
0.0000001
 44
0.0000000001
 40
0.0
 40
0.0
 40
0.0
 40
0.0
 40
0.2458890933
 40
1.0
 40
1.0
 40
1.0
 40
1.0
 10
13.8124695989
 20
27.8723876608
 30
0.0
 10
13.790956584
 20
27.9501525271
 30
0.0
 10
13.6983683818
 20
28.2649872689
 30
0.0
 10
13.5859524039
 20
28.5739325293
 30
0.0
 10
13.4913343055
 20
28.8025815329
 30
0.0
  0
SPLINE
  5
31F
100
AcDbEntity
  8
0
100
AcDbSpline
 62
7
  6
BYLAYER
 70
0
 71
3
 72
11
 73
7
 74
0
 42
0.0000001
 43
0.0000001
 44
0.0000000001
 40
0.0
 40
0.0
 40
0.0
 40
0.0
 40
0.2325800134
 40
0.4780150728
 40
0.7345715043
 40
1.0
 40
1.0
 40
1.0
 40
1.0
 10
16.122413673
 20
36.5511335466
 30
0.0
 10
16.3044913882
 20
36.4460081268
 30
0.0
 10
16.6669057793
 20
36.2090464173
 30
0.0
 10
17.1860733056
 20
35.7936615208
 30
0.0
 10
17.6887082808
 20
35.3143784946
 30
0.0
 10
18.0033518384
 20
34.9619876497
 30
0.0
 10
18.1563437947
 20
34.7771496727
 30
0.0
  0
SPLINE
  5
320
100
AcDbEntity
  8
0
100
AcDbSpline
 62
7
  6
BYLAYER
 70
0
 71
3
 72
15
 73
11
 74
0
 42
0.0000001
 43
0.0000001
 44
0.0000000001
 40
0.0
 40
0.0
 40
0.0
 40
0.0
 40
0.1293701092
 40
0.2605070034
 40
0.3918462069
 40
0.521833703
 40
0.6489540356
 40
0.7718041401
 40
0.8891501374
 40
1.0
 40
1.0
 40
1.0
 40
1.0
 10
18.1563437947
 20
34.7771496727
 30
0.0
 10
18.3242113767
 20
34.5743396359
 30
0.0
 10
18.6455805075
 20
34.1518778665
 30
0.0
 10
19.0778046601
 20
33.4808715565
 30
0.0
 10
19.4578126696
 20
32.7774861308
 30
0.0
 10
19.7788547028
 20
32.0542260901
 30
0.0
 10
20.0352648316
 20
31.3238397995
 30
0.0
 10
20.2225195124
 20
30.5991598973
 30
0.0
 10
20.3372984367
 20
29.8930215611
 30
0.0
 10
20.3649571806
 20
29.4283667602
 30
0.0
 10
20.3649587699
 20
29.2027851652
 30
0.0
  0
SPLINE
  5
321
100
AcDbEntity
  8
0
100
AcDbSpline
 62
7
  6
BYLAYER
 70
0
 71
3
 72
25
 73
21
 74
0
 42
0.0000001
 43
0.0000001
 44
0.0000000001
 40
0.0
 40
0.0
 40
0.0
 40
0.0
 40
0.021643647
 40
0.0435425398
 40
0.0658211239
 40
0.0885936765
 40
0.135967809
 40
0.1863345334
 40
0.2400767528
 40
0.2973538519
 40
0.3581344017
 40
0.4222291694
 40
0.4893204627
 40
0.558988097
 40
0.6307327173
 40
0.7039969765
 40
0.7781822156
 40
0.852658403
 40
0.9268164791
 40
1.0
 40
1.0
 40
1.0
 40
1.0
 10
14.1478912525
 20
24.2849708204
 30
0.0
 10
14.1961853809
 20
24.318839507
 30
0.0
 10
14.290065876
 20
24.3917836376
 30
0.0
 10
14.4207376421
 20
24.5150482851
 30
0.0
 10
14.5414503969
 20
24.6522240763
 30
0.0
 10
14.6904762029
 20
24.8556537781
 30
0.0
 10
14.8495503076
 20
25.1448130981
 30
0.0
 10
14.9920031637
 20
25.5337215865
 30
0.0
 10
15.0874090875
 20
25.9642606798
 30
0.0
 10
15.1348511823
 20
26.4310010162
 30
0.0
 10
15.1339572161
 20
26.9282120959
 30
0.0
 10
15.0848320446
 20
27.4497466957
 30
0.0
 10
14.9881367782
 20
27.9891268963
 30
0.0
 10
14.8451159035
 20
28.539616967
 30
0.0
 10
14.6575790233
 20
29.0943181984
 30
0.0
 10
14.4278816876
 20
29.6462599748
 30
0.0
 10
14.1589124031
 20
30.1884680858
 30
0.0
 10
13.8540705133
 20
30.7141717001
 30
0.0
 10
13.5172014706
 20
31.2166376033
 30
0.0
 10
13.2718083418
 20
31.5349465711
 30
0.0
 10
13.1446338251
 20
31.6885930827
 30
0.0
  0
SPLINE
  5
322
100
AcDbEntity
  8
0
100
AcDbSpline
 62
7
  6
BYLAYER
 70
0
 71
3
 72
9
 73
5
 74
0
 42
0.0000001
 43
0.0000001
 44
0.0000000001
 40
0.0
 40
0.0
 40
0.0
 40
0.0
 40
0.5170231463
 40
1.0
 40
1.0
 40
1.0
 40
1.0
 10
35.2852684365
 20
58.0211923882
 30
0.0
 10
36.0137754833
 20
58.1315909905
 30
0.0
 10
37.4249755309
 20
58.3313744789
 30
0.0
 10
38.8418324416
 20
58.4880757901
 30
0.0
 10
39.5274065689
 20
58.5493191118
 30
0.0
  0
SPLINE
  5
323
100
AcDbEntity
  8
0
100
AcDbSpline
 62
7
  6
BYLAYER
 70
0
 71
3
 72
10
 73
6
 74
0
 42
0.0000001
 43
0.0000001
 44
0.0000000001
 40
0.0
 40
0.0
 40
0.0
 40
0.0
 40
0.2518560403
 40
0.5024554583
 40
1.0
 40
1.0
 40
1.0
 40
1.0
 10
48.0127290328
 20
53.6504228618
 30
0.0
 10
48.3511835578
 20
53.2293833247
 30
0.0
 10
49.0135456418
 20
52.3789648567
 30
0.0
 10
50.2801035279
 20
50.6476345681
 30
0.0
 10
51.1731162586
 20
49.3133263746
 30
0.0
 10
51.7478935043
 20
48.4141468465
 30
0.0
  0
SPLINE
  5
324
100
AcDbEntity
  8
0
100
AcDbSpline
 62
7
  6
BYLAYER
 70
0
 71
3
 72
11
 73
7
 74
0
 42
0.0000001
 43
0.0000001
 44
0.0000000001
 40
0.0
 40
0.0
 40
0.0
 40
0.0
 40
0.2438900629
 40
0.4915597976
 40
0.7434928246
 40
1.0
 40
1.0
 40
1.0
 40
1.0
 10
51.9497141763
 20
47.7878108584
 30
0.0
 10
51.9977345024
 20
47.3772866033
 30
0.0
 10
52.0845975272
 20
46.5486703367
 30
0.0
 10
52.1817105659
 20
45.292240702
 30
0.0
 10
52.2419997718
 20
44.012073768
 30
0.0
 10
52.2553817678
 20
43.1503491722
 30
0.0
 10
52.2553817678
 20
42.7156435502
 30
0.0
  0
SPLINE
  5
325
100
AcDbEntity
  8
0
100
AcDbSpline
 62
7
  6
BYLAYER
 70
0
 71
3
 72
9
 73
5
 74
0
 42
0.0000001
 43
0.0000001
 44
0.0000000001
 40
0.0
 40
0.0
 40
0.0
 40
0.0
 40
0.5215756504
 40
1.0
 40
1.0
 40
1.0
 40
1.0
 10
39.5274065689
 20
58.5493191118
 30
0.0
 10
40.1570212152
 20
58.6055635068
 30
0.0
 10
41.3664624801
 20
58.6898347013
 30
0.0
 10
42.5783949938
 20
58.7211106547
 30
0.0
 10
43.1582099023
 20
58.7244936508
 30
0.0
  0
SPLINE
  5
326
100
AcDbEntity
  8
0
100
AcDbSpline
 62
7
  6
BYLAYER
 70
0
 71
3
 72
10
 73
6
 74
0
 42
0.0000001
 43
0.0000001
 44
0.0000000001
 40
0.0
 40
0.0
 40
0.0
 40
0.0
 40
0.5016826574
 40
0.7513563946
 40
1.0
 40
1.0
 40
1.0
 40
1.0
 10
43.6300018515
 20
58.512851669
 30
0.0
 10
44.4016721846
 20
57.7357809491
 30
0.0
 10
45.5350496949
 20
56.5491134446
 30
0.0
 10
46.9780121619
 20
54.9108189455
 30
0.0
 10
47.6726709139
 20
54.0734573204
 30
0.0
 10
48.0127290328
 20
53.6504228618
 30
0.0
  0
SPLINE
  5
327
100
AcDbEntity
  8
0
100
AcDbSpline
 62
7
  6
BYLAYER
 70
0
 71
3
 72
9
 73
5
 74
0
 42
0.0000001
 43
0.0000001
 44
0.0000000001
 40
0.0
 40
0.0
 40
0.0
 40
0.0
 40
0.4887982347
 40
1.0
 40
1.0
 40
1.0
 40
1.0
 10
47.0911012835
 20
35.5761830964
 30
0.0
 10
47.6111715106
 20
35.6344258423
 30
0.0
 10
48.6735957115
 20
35.7676169736
 30
0.0
 10
49.7331086086
 20
35.9218482155
 30
0.0
 10
50.2741334975
 20
36.0045360436
 30
0.0
  0
SPLINE
  5
328
100
AcDbEntity
  8
0
100
AcDbSpline
 62
7
  6
BYLAYER
 70
0
 71
3
 72
10
 73
6
 74
0
 42
0.0000001
 43
0.0000001
 44
0.0000000001
 40
0.0
 40
0.0
 40
0.0
 40
0.0
 40
0.244247664
 40
0.4926259528
 40
1.0
 40
1.0
 40
1.0
 40
1.0
 10
52.2553817678
 20
42.7156435502
 30
0.0
 10
52.2553817667
 20
42.2730812683
 30
0.0
 10
52.2412784271
 20
41.3804139386
 30
0.0
 10
52.1595560705
 20
39.5701285074
 30
0.0
 10
52.0439557531
 20
38.2050124432
 30
0.0
 10
51.9497141763
 20
37.2905239143
 30
0.0
  0
SPLINE
  5
329
100
AcDbEntity
  8
0
100
AcDbSpline
 62
7
  6
BYLAYER
 70
0
 71
3
 72
9
 73
5
 74
0
 42
0.0000001
 43
0.0000001
 44
0.0000000001
 40
0.0
 40
0.0
 40
0.0
 40
0.0
 40
0.5051227642
 40
1.0
 40
1.0
 40
1.0
 40
1.0
 10
37.5869901759
 20
56.1008790287
 30
0.0
 10
37.4269596084
 20
56.0756137856
 30
0.0
 10
37.1127972592
 20
56.0065774362
 30
0.0
 10
36.809867975
 20
55.8981119937
 30
0.0
 10
36.6642979093
 20
55.8348389672
 30
0.0
  0
SPLINE
  5
32A
100
AcDbEntity
  8
0
100
AcDbSpline
 62
7
  6
BYLAYER
 70
0
 71
3
 72
10
 73
6
 74
0
 42
0.0000001
 43
0.0000001
 44
0.0000000001
 40
0.0
 40
0.0
 40
0.0
 40
0.0
 40
0.2442476788
 40
0.492625961
 40
1.0
 40
1.0
 40
1.0
 40
1.0
 10
50.1340702544
 20
41.4909110388
 30
0.0
 10
50.1340702544
 20
41.933473359
 30
0.0
 10
50.1481739149
 20
42.8261407207
 30
0.0
 10
50.2298958858
 20
44.6364262112
 30
0.0
 10
50.3454962675
 20
46.0015422863
 30
0.0
 10
50.4397378452
 20
46.9160308242
 30
0.0
  0
SPLINE
  5
32B
100
AcDbEntity
  8
0
100
AcDbSpline
 62
7
  6
BYLAYER
 70
0
 71
3
 72
10
 73
6
 74
0
 42
0.0000001
 43
0.0000001
 44
0.0000000001
 40
0.0
 40
0.0
 40
0.0
 40
0.0
 40
0.501682654
 40
0.7513563919
 40
1.0
 40
1.0
 40
1.0
 40
1.0
 10
50.2741334976
 20
47.5632761371
 30
0.0
 10
49.502464185
 20
48.3403458284
 30
0.0
 10
48.3690881446
 20
49.5270117383
 30
0.0
 10
46.9261274217
 20
51.1653039432
 30
0.0
 10
46.2314694612
 20
52.0026643733
 30
0.0
 10
45.891411717
 20
52.4256982241
 30
0.0
  0
SPLINE
  5
32C
100
AcDbEntity
  8
0
100
AcDbSpline
 62
7
  6
BYLAYER
 70
0
 71
3
 72
11
 73
7
 74
0
 42
0.0000001
 43
0.0000001
 44
0.0000000001
 40
0.0
 40
0.0
 40
0.0
 40
0.0
 40
0.2438900341
 40
0.4915598598
 40
0.7434928912
 40
1.0
 40
1.0
 40
1.0
 40
1.0
 10
50.4397378452
 20
36.4187438737
 30
0.0
 10
50.3917175263
 20
36.829268067
 30
0.0
 10
50.3048537262
 20
37.6578843396
 30
0.0
 10
50.2077423265
 20
38.9143141807
 30
0.0
 10
50.147452782
 20
40.1944810821
 30
0.0
 10
50.1340702554
 20
41.0562055438
 30
0.0
 10
50.1340702544
 20
41.4909110388
 30
0.0
  0
SPLINE
  5
32D
100
AcDbEntity
  8
0
100
AcDbSpline
 62
7
  6
BYLAYER
 70
0
 71
3
 72
16
 73
12
 74
0
 42
0.0000001
 43
0.0000001
 44
0.0000000001
 40
0.0
 40
0.0
 40
0.0
 40
0.0
 40
0.1491232979
 40
0.2932350963
 40
0.4309609534
 40
0.5611954094
 40
0.6831905477
 40
0.7966605158
 40
0.8503030759
 40
0.9019889222
 40
1.0
 40
1.0
 40
1.0
 40
1.0
 10
45.8914117342
 20
52.4256978818
 30
0.0
 10
45.5750903136
 20
52.8192036293
 30
0.0
 10
44.9226306737
 20
53.5691842095
 30
0.0
 10
43.8754352535
 20
54.5877218459
 30
0.0
 10
42.7902390571
 20
55.4678245793
 30
0.0
 10
41.6850572705
 20
56.1946188755
 30
0.0
 10
40.5781788361
 20
56.7557494033
 30
0.0
 10
39.6519966091
 20
57.0832018565
 30
0.0
 10
38.929070408
 20
57.2484633583
 30
0.0
 10
38.2472770231
 20
57.3469476499
 30
0.0
 10
37.736612151
 20
57.3541123388
 30
0.0
 10
37.4060952121
 20
57.3245867459
 30
0.0
  0
SPLINE
  5
32E
100
AcDbEntity
  8
0
100
AcDbSpline
 62
7
  6
BYLAYER
 70
0
 71
3
 72
15
 73
11
 74
0
 42
0.0000001
 43
0.0000001
 44
0.0000000001
 40
0.0
 40
0.0
 40
0.0
 40
0.0
 40
0.1108410465
 40
0.2280578197
 40
0.3507094005
 40
0.4776259694
 40
0.6074737805
 40
0.7388131753
 40
0.8701524771
 40
1.0
 40
1.0
 40
1.0
 40
1.0
 10
50.1340702577
 20
41.4909110863
 30
0.0
 10
50.1340702576
 20
41.9318455976
 30
0.0
 10
50.0812558059
 20
42.8395927615
 30
0.0
 10
49.8616598061
 20
44.2192982431
 30
0.0
 10
49.5031366065
 20
45.6355811903
 30
0.0
 10
49.0117668852
 20
47.0644292144
 30
0.0
 10
48.3958572641
 20
48.4818341486
 30
0.0
 10
47.6657957721
 20
49.8638600917
 30
0.0
 10
46.8340105828
 20
51.1870368203
 30
0.0
 10
46.2150394988
 20
52.0231031041
 30
0.0
 10
45.8914117342
 20
52.4256978818
 30
0.0
  0
SPLINE
  5
32F
100
AcDbEntity
  8
0
100
AcDbSpline
 62
7
  6
BYLAYER
 70
0
 71
3
 72
17
 73
13
 74
0
 42
0.0000001
 43
0.0000001
 44
0.0000000001
 40
0.0
 40
0.0
 40
0.0
 40
0.0
 40
0.0558809068
 40
0.1115965704
 40
0.1674196158
 40
0.2236150826
 40
0.3380443129
 40
0.4568508605
 40
0.5815511945
 40
0.7132446638
 40
0.8526114134
 40
1.0
 40
1.0
 40
1.0
 40
1.0
 10
47.1543224374
 20
35.7556237575
 30
0.0
 10
47.259898889
 20
35.7986228011
 30
0.0
 10
47.4672432411
 20
35.8934023393
 30
0.0
 10
47.7649812634
 20
36.0615308358
 30
0.0
 10
48.0478528767
 20
36.2548308961
 30
0.0
 10
48.4062821192
 20
36.5469921869
 30
0.0
 10
48.8154786405
 20
36.9765907767
 30
0.0
 10
49.2317567866
 20
37.5797403402
 30
0.0
 10
49.5731883639
 20
38.267431516
 30
0.0
 10
49.8369343015
 20
39.0326016705
 30
0.0
 10
50.0210574
 20
39.8677981816
 30
0.0
 10
50.0878956091
 20
40.4500292207
 30
0.0
 10
50.1087909253
 20
40.7499747357
 30
0.0
  0
SPLINE
  5
330
100
AcDbEntity
  8
0
100
AcDbSpline
 62
7
  6
BYLAYER
 70
0
 71
3
 72
15
 73
11
 74
0
 42
0.0000001
 43
0.0000001
 44
0.0000000001
 40
0.0
 40
0.0
 40
0.0
 40
0.0
 40
0.128973625
 40
0.2552347874
 40
0.3794646265
 40
0.5024842585
 40
0.6251806701
 40
0.7484374045
 40
0.8731075269
 40
1.0
 40
1.0
 40
1.0
 40
1.0
 10
37.4060952121
 20
57.3245867459
 30
0.0
 10
37.2612139933
 20
57.3116443139
 30
0.0
 10
36.9754607584
 20
57.2730041295
 30
0.0
 10
36.5581687708
 20
57.1750951387
 30
0.0
 10
36.1590359968
 20
57.0381201196
 30
0.0
 10
35.7796860975
 20
56.8626320462
 30
0.0
 10
35.4215530665
 20
56.6492500729
 30
0.0
 10
35.0859541308
 20
56.3988141945
 30
0.0
 10
34.7741910578
 20
56.112315262
 30
0.0
 10
34.5849808498
 20
55.9002020728
 30
0.0
 10
34.4948316639
 20
55.7890540491
 30
0.0
  0
SPLINE
  5
331
100
AcDbEntity
  8
0
100
AcDbSpline
 62
7
  6
BYLAYER
 70
0
 71
3
 72
9
 73
5
 74
0
 42
0.0000001
 43
0.0000001
 44
0.0000000001
 40
0.0
 40
0.0
 40
0.0
 40
0.0
 40
0.5170231458
 40
1.0
 40
1.0
 40
1.0
 40
1.0
 10
41.6482336163
 20
57.8527135797
 30
0.0
 10
40.919726554
 20
57.7423149741
 30
0.0
 10
39.5085264743
 20
57.5425314829
 30
0.0
 10
38.0916695319
 20
57.3858301653
 30
0.0
 10
37.4060953884
 20
57.3245868415
 30
0.0
  0
SPLINE
  5
332
100
AcDbEntity
  8
0
100
AcDbSpline
 62
7
  6
BYLAYER
 70
0
 71
3
 72
10
 73
6
 74
0
 42
0.0000001
 43
0.0000001
 44
0.0000000001
 40
0.0
 40
0.0
 40
0.0
 40
0.0
 40
0.2518560428
 40
0.5024554617
 40
1.0
 40
1.0
 40
1.0
 40
1.0
 10
45.891411717
 20
52.4256982241
 30
0.0
 10
45.5529566618
 20
52.8467382799
 30
0.0
 10
44.8905935542
 20
53.6971578102
 30
0.0
 10
43.6240337868
 20
55.4284903213
 30
0.0
 10
42.731019807
 20
56.762800291
 30
0.0
 10
42.1562417877
 20
57.6619810305
 30
0.0
  0
SPLINE
  5
333
100
AcDbEntity
  8
0
100
AcDbSpline
 62
7
  6
BYLAYER
 70
0
 71
3
 72
9
 73
5
 74
0
 42
0.0000001
 43
0.0000001
 44
0.0000000001
 40
0.0
 40
0.0
 40
0.0
 40
0.0
 40
0.5215756502
 40
1.0
 40
1.0
 40
1.0
 40
1.0
 10
37.4060953884
 20
57.3245868415
 30
0.0
 10
36.7764807159
 20
57.2683424437
 30
0.0
 10
35.5670394003
 20
57.1840712475
 30
0.0
 10
34.3551068359
 20
57.1527952893
 30
0.0
 10
33.7752919027
 20
57.1494122944
 30
0.0
  0
SPLINE
  5
334
100
AcDbEntity
  8
0
100
AcDbSpline
 62
7
  6
BYLAYER
 70
0
 71
3
 72
10
 73
6
 74
0
 42
0.0000001
 43
0.0000001
 44
0.0000000001
 40
0.0
 40
0.0
 40
0.0
 40
0.0
 40
0.5065026238
 40
0.7550786724
 40
1.0
 40
1.0
 40
1.0
 40
1.0
 10
28.5374857374
 20
54.0298550239
 30
0.0
 10
28.4487873847
 20
53.1880701242
 30
0.0
 10
28.3370311629
 20
51.930722614
 30
0.0
 10
28.2467733315
 20
50.2618718949
 30
0.0
 10
28.2236104479
 20
49.4373613969
 30
0.0
 10
28.2179010827
 20
49.0280994019
 30
0.0
  0
SPLINE
  5
335
100
AcDbEntity
  8
0
100
AcDbSpline
 62
7
  6
BYLAYER
 70
0
 71
3
 72
10
 73
6
 74
0
 42
0.0000001
 43
0.0000001
 44
0.0000000001
 40
0.0
 40
0.0
 40
0.0
 40
0.0
 40
0.4826155407
 40
0.7375677089
 40
1.0
 40
1.0
 40
1.0
 40
1.0
 10
40.9416855617
 20
32.5973046881
 30
0.0
 10
41.6495377705
 20
32.6605381411
 30
0.0
 10
42.7292956744
 20
32.7806639462
 30
0.0
 10
44.188678163
 20
32.9771416652
 30
0.0
 10
44.9424002396
 20
33.0884428154
 30
0.0
 10
45.3244066037
 20
33.1468269611
 30
0.0
  0
SPLINE
  5
336
100
AcDbEntity
  8
0
100
AcDbSpline
 62
7
  6
BYLAYER
 70
0
 71
3
 72
9
 73
5
 74
0
 42
0.0000001
 43
0.0000001
 44
0.0000000001
 40
0.0
 40
0.0
 40
0.0
 40
0.0
 40
0.5011393494
 40
1.0
 40
1.0
 40
1.0
 40
1.0
 10
38.6802749616
 20
55.6551426269
 30
0.0
 10
39.2589973298
 20
55.0723701836
 30
0.0
 10
40.3969788733
 20
53.892557817
 30
0.0
 10
41.4898540365
 20
52.670531451
 30
0.0
 10
42.0211282342
 20
52.0491051658
 30
0.0
  0
SPLINE
  5
337
100
AcDbEntity
  8
0
100
AcDbSpline
 62
7
  6
BYLAYER
 70
0
 71
3
 72
9
 73
5
 74
0
 42
0.0000001
 43
0.0000001
 44
0.0000000001
 40
0.0
 40
0.0
 40
0.0
 40
0.0
 40
0.52157565
 40
1.0
 40
1.0
 40
1.0
 40
1.0
 10
34.5776797084
 20
55.6916100347
 30
0.0
 10
35.2072943735
 20
55.7478544313
 30
0.0
 10
36.4167356753
 20
55.8321256227
 30
0.0
 10
37.6286682257
 20
55.8634015888
 30
0.0
 10
38.2084831525
 20
55.8667845779
 30
0.0
  0
SPLINE
  5
338
100
AcDbEntity
  8
0
100
AcDbSpline
 62
7
  6
BYLAYER
 70
0
 71
3
 72
11
 73
7
 74
0
 42
0.0000001
 43
0.0000001
 44
0.0000000001
 40
0.0
 40
0.0
 40
0.0
 40
0.0
 40
0.2438900396
 40
0.4915597989
 40
0.7434928326
 40
1.0
 40
1.0
 40
1.0
 40
1.0
 10
46.9999873157
 20
44.9301017844
 30
0.0
 10
47.0480076365
 20
44.5195775637
 30
0.0
 10
47.1348710938
 20
43.6909613286
 30
0.0
 10
47.2319835923
 20
42.4345316197
 30
0.0
 10
47.2922728582
 20
41.1543646415
 30
0.0
 10
47.3056549065
 20
40.2926400371
 30
0.0
 10
47.3056549065
 20
39.8579344238
 30
0.0
  0
SPLINE
  5
339
100
AcDbEntity
  8
0
100
AcDbSpline
 62
7
  6
BYLAYER
 70
0
 71
3
 72
10
 73
6
 74
0
 42
0.0000001
 43
0.0000001
 44
0.0000000001
 40
0.0
 40
0.0
 40
0.0
 40
0.0
 40
0.2518560427
 40
0.5024554617
 40
1.0
 40
1.0
 40
1.0
 40
1.0
 10
43.062996797
 20
50.7927204717
 30
0.0
 10
43.401451847
 20
50.371680421
 30
0.0
 10
44.063814944
 20
49.5212609013
 30
0.0
 10
45.3303746938
 20
47.7899284133
 30
0.0
 10
46.223388655
 20
46.4556184577
 30
0.0
 10
46.7981666713
 20
45.5564377335
 30
0.0
  0
SPLINE
  5
33A
100
AcDbEntity
  8
0
100
AcDbSpline
 62
7
  6
BYLAYER
 70
0
 71
3
 72
10
 73
6
 74
0
 42
0.0000001
 43
0.0000001
 44
0.0000000001
 40
0.0
 40
0.0
 40
0.0
 40
0.0
 40
0.2442477096
 40
0.4926260134
 40
1.0
 40
1.0
 40
1.0
 40
1.0
 10
47.3056549065
 20
39.8579344238
 30
0.0
 10
47.3056549055
 20
39.415372066
 30
0.0
 10
47.2915507162
 20
38.522704652
 30
0.0
 10
47.2098286797
 20
36.7124192533
 30
0.0
 10
47.0942288886
 20
35.3473032386
 30
0.0
 10
46.9999873157
 20
34.4328148339
 30
0.0
  0
SPLINE
  5
33B
100
AcDbEntity
  8
0
100
AcDbSpline
 62
7
  6
BYLAYER
 70
0
 71
3
 72
11
 73
7
 74
0
 42
0.0000001
 43
0.0000001
 44
0.0000000001
 40
0.0
 40
0.0
 40
0.0
 40
0.0
 40
0.2339629564
 40
0.4778353918
 40
0.7329064063
 40
1.0
 40
1.0
 40
1.0
 40
1.0
 10
37.2065149498
 20
32.4216439431
 30
0.0
 10
37.4982182912
 20
32.4226607051
 30
0.0
 10
38.0939782312
 20
32.4305985865
 30
0.0
 10
39.0072928262
 20
32.4621381288
 30
0.0
 10
39.9609264279
 20
32.5163410483
 30
0.0
 10
40.6099939935
 20
32.567674194
 30
0.0
 10
40.9416855617
 20
32.5973046881
 30
0.0
  0
SPLINE
  5
33C
100
AcDbEntity
  8
0
100
AcDbSpline
 62
7
  6
BYLAYER
 70
0
 71
3
 72
9
 73
5
 74
0
 42
0.0000001
 43
0.0000001
 44
0.0000000001
 40
0.0
 40
0.0
 40
0.0
 40
0.0
 40
0.517023146
 40
1.0
 40
1.0
 40
1.0
 40
1.0
 10
30.3355414398
 20
55.1634832931
 30
0.0
 10
31.0640485095
 20
55.2738818988
 30
0.0
 10
32.4752486025
 20
55.4736653931
 30
0.0
 10
33.8921055586
 20
55.630366711
 30
0.0
 10
34.5776797084
 20
55.6916100347
 30
0.0
  0
SPLINE
  5
33D
100
AcDbEntity
  8
0
100
AcDbSpline
 62
7
  6
BYLAYER
 70
0
 71
3
 72
10
 73
6
 74
0
 42
0.0000001
 43
0.0000001
 44
0.0000000001
 40
0.0
 40
0.0
 40
0.0
 40
0.0
 40
0.5016826546
 40
0.7513563919
 40
1.0
 40
1.0
 40
1.0
 40
1.0
 10
45.3244066079
 20
44.705567095
 30
0.0
 10
44.5527370158
 20
45.4826370665
 30
0.0
 10
43.4193605699
 20
46.6693034078
 30
0.0
 10
41.9763993799
 20
48.3075962494
 30
0.0
 10
41.2817411865
 20
49.1449569931
 30
0.0
 10
40.941683315
 20
49.5679909923
 30
0.0
  0
SPLINE
  5
33E
100
AcDbEntity
  8
0
100
AcDbSpline
 62
7
  6
BYLAYER
 70
0
 71
3
 72
10
 73
6
 74
0
 42
0.0000001
 43
0.0000001
 44
0.0000000001
 40
0.0
 40
0.0
 40
0.0
 40
0.0
 40
0.2442476753
 40
0.4926259594
 40
1.0
 40
1.0
 40
1.0
 40
1.0
 10
45.1843433939
 20
38.6332019616
 30
0.0
 10
45.1843433939
 20
39.0757642756
 30
0.0
 10
45.1984469675
 20
39.9684316358
 30
0.0
 10
45.2801690607
 20
41.7787171215
 30
0.0
 10
45.3957693979
 20
43.1438332041
 30
0.0
 10
45.4900109846
 20
44.0583217438
 30
0.0
  0
SPLINE
  5
33F
100
AcDbEntity
  8
0
100
AcDbSpline
 62
7
  6
BYLAYER
 70
0
 71
3
 72
16
 73
12
 74
0
 42
0.0000001
 43
0.0000001
 44
0.0000000001
 40
0.0
 40
0.0
 40
0.0
 40
0.0
 40
0.1491232976
 40
0.2932350962
 40
0.4309609536
 40
0.5611954099
 40
0.6831905483
 40
0.7966605164
 40
0.8503030764
 40
0.9019889226
 40
1.0
 40
1.0
 40
1.0
 40
1.0
 10
40.941685071
 20
49.5679885785
 30
0.0
 10
40.6253634729
 20
49.9614942011
 30
0.0
 10
39.9729040653
 20
50.7114750053
 30
0.0
 10
38.9257085347
 20
51.7300126124
 30
0.0
 10
37.8405123389
 20
52.6101154063
 30
0.0
 10
36.7353305205
 20
53.3369097338
 30
0.0
 10
35.6284520596
 20
53.8980402917
 30
0.0
 10
34.7022698075
 20
54.2254927627
 30
0.0
 10
33.979343587
 20
54.3907542742
 30
0.0
 10
33.2975501845
 20
54.4892385721
 30
0.0
 10
32.786885299
 20
54.4964032624
 30
0.0
 10
32.4563683516
 20
54.4668776688
 30
0.0
  0
SPLINE
  5
340
100
AcDbEntity
  8
0
100
AcDbSpline
 62
7
  6
BYLAYER
 70
0
 71
3
 72
15
 73
11
 74
0
 42
0.0000001
 43
0.0000001
 44
0.0000000001
 40
0.0
 40
0.0
 40
0.0
 40
0.0
 40
0.1108410465
 40
0.2280578195
 40
0.3507094
 40
0.4776259687
 40
0.6074737796
 40
0.7388131744
 40
0.8701524764
 40
1.0
 40
1.0
 40
1.0
 40
1.0
 10
45.1843433972
 20
38.6332020092
 30
0.0
 10
45.1843433971
 20
39.0741365093
 30
0.0
 10
45.1315289481
 20
39.9818836496
 30
0.0
 10
44.9119329591
 20
41.3615890957
 30
0.0
 10
44.5534097768
 20
42.7778720067
 30
0.0
 10
44.0620400787
 20
44.2067199958
 30
0.0
 10
43.4461304859
 20
45.6241248979
 30
0.0
 10
42.7160690269
 20
47.006150814
 30
0.0
 10
41.8842838706
 20
48.3293275211
 30
0.0
 10
41.2653128167
 20
49.1653937985
 30
0.0
 10
40.941685071
 20
49.5679885785
 30
0.0
  0
SPLINE
  5
341
100
AcDbEntity
  8
0
100
AcDbSpline
 62
7
  6
BYLAYER
 70
0
 71
3
 72
11
 73
7
 74
0
 42
0.0000001
 43
0.0000001
 44
0.0000000001
 40
0.0
 40
0.0
 40
0.0
 40
0.0
 40
0.2744645876
 40
0.5318276174
 40
0.7730164755
 40
1.0
 40
1.0
 40
1.0
 40
1.0
 10
37.2957312945
 20
33.413828686
 30
0.0
 10
37.6055579018
 20
33.2601732639
 30
0.0
 10
38.2217499352
 20
32.992713533
 30
0.0
 10
39.1574687271
 20
32.7130415883
 30
0.0
 10
40.0637246103
 20
32.5717419792
 30
0.0
 10
40.6568116106
 20
32.5718563716
 30
0.0
 10
40.9416851989
 20
32.597304594
 30
0.0
  0
SPLINE
  5
342
100
AcDbEntity
  8
0
100
AcDbSpline
 62
7
  6
BYLAYER
 70
0
 71
3
 72
20
 73
16
 74
0
 42
0.0000001
 43
0.0000001
 44
0.0000000001
 40
0.0
 40
0.0
 40
0.0
 40
0.0
 40
0.0593673979
 40
0.1174681751
 40
0.174629593
 40
0.2312464451
 40
0.2877430756
 40
0.3445405731
 40
0.4020449074
 40
0.4606389177
 40
0.5206695805
 40
0.5824400089
 40
0.7120557378
 40
0.8510135927
 40
1.0
 40
1.0
 40
1.0
 40
1.0
 10
32.4563683516
 20
54.4668776688
 30
0.0
 10
32.3088070114
 20
54.453695818
 30
0.0
 10
32.0178261519
 20
54.4141004289
 30
0.0
 10
31.5931598066
 20
54.3132402673
 30
0.0
 10
31.1873999335
 20
54.1718366748
 30
0.0
 10
30.8022564278
 20
53.9904902409
 30
0.0
 10
30.4392466008
 20
53.7698549923
 30
0.0
 10
30.0997579692
 20
53.5108613389
 30
0.0
 10
29.7851442681
 20
53.2145124542
 30
0.0
 10
29.4965969798
 20
52.882034146
 30
0.0
 10
29.2351609177
 20
52.5147322833
 30
0.0
 10
28.9190039637
 20
51.9719610737
 30
0.0
 10
28.5988567136
 20
51.2079788612
 30
0.0
 10
28.3429546264
 20
50.1947081385
 30
0.0
 10
28.258229233
 20
49.4790766964
 30
0.0
 10
28.2347424599
 20
49.1080297247
 30
0.0
  0
SPLINE
  5
343
100
AcDbEntity
  8
0
100
AcDbSpline
 62
7
  6
BYLAYER
 70
0
 71
3
 72
9
 73
5
 74
0
 42
0.0000001
 43
0.0000001
 44
0.0000000001
 40
0.0
 40
0.0
 40
0.0
 40
0.0
 40
0.5170231461
 40
1.0
 40
1.0
 40
1.0
 40
1.0
 10
36.6985066217
 20
54.9950044849
 30
0.0
 10
35.9699995817
 20
54.8846058847
 30
0.0
 10
34.5587995471
 20
54.6848223962
 30
0.0
 10
33.1419426492
 20
54.5281210862
 30
0.0
 10
32.4563685279
 20
54.4668777644
 30
0.0
  0
SPLINE
  5
344
100
AcDbEntity
  8
0
100
AcDbSpline
 62
7
  6
BYLAYER
 70
0
 71
3
 72
10
 73
6
 74
0
 42
0.0000001
 43
0.0000001
 44
0.0000000001
 40
0.0
 40
0.0
 40
0.0
 40
0.0
 40
0.2518560413
 40
0.5024554603
 40
1.0
 40
1.0
 40
1.0
 40
1.0
 10
40.941683315
 20
49.5679909923
 30
0.0
 10
40.6032284565
 20
49.9890309387
 30
0.0
 10
39.9408656207
 20
50.8394501549
 30
0.0
 10
38.6743063871
 20
52.5707820465
 30
0.0
 10
37.7812927625
 20
53.9050915208
 30
0.0
 10
37.2065149548
 20
54.8042719173
 30
0.0
  0
SPLINE
  5
345
100
AcDbEntity
  8
0
100
AcDbSpline
 62
7
  6
BYLAYER
 70
0
 71
3
 72
9
 73
5
 74
0
 42
0.0000001
 43
0.0000001
 44
0.0000000001
 40
0.0
 40
0.0
 40
0.0
 40
0.0
 40
0.5215756506
 40
1.0
 40
1.0
 40
1.0
 40
1.0
 10
32.4563685279
 20
54.4668777644
 30
0.0
 10
31.8267538744
 20
54.4106333683
 30
0.0
 10
30.6173125963
 20
54.3263621752
 30
0.0
 10
29.4053800694
 20
54.2950862119
 30
0.0
 10
28.8255651546
 20
54.2917032215
 30
0.0
  0
SPLINE
  5
346
100
AcDbEntity
  8
0
100
AcDbSpline
 62
7
  6
BYLAYER
 70
0
 71
3
 72
11
 73
7
 74
0
 42
0.0000001
 43
0.0000001
 44
0.0000000001
 40
0.0
 40
0.0
 40
0.0
 40
0.0
 40
0.2438900649
 40
0.4915597899
 40
0.7434928038
 40
1.0
 40
1.0
 40
1.0
 40
1.0
 10
45.4900109846
 20
33.5610347997
 30
0.0
 10
45.4419906607
 20
33.9715590471
 30
0.0
 10
45.3551276765
 20
34.8001752818
 30
0.0
 10
45.2580145486
 20
36.0566048367
 30
0.0
 10
45.1977251523
 20
37.3367717271
 30
0.0
 10
45.1843433949
 20
38.1984963164
 30
0.0
 10
45.1843433939
 20
38.6332019616
 30
0.0
  0
SPLINE
  5
347
100
AcDbEntity
  8
0
100
AcDbSpline
 62
7
  6
BYLAYER
 70
0
 71
3
 72
23
 73
19
 74
0
 42
0.0000001
 43
0.0000001
 44
0.0000000001
 40
0.0
 40
0.0
 40
0.0
 40
0.0
 40
0.0735850171
 40
0.1481670811
 40
0.2230452313
 40
0.2975923646
 40
0.3711551824
 40
0.4431124995
 40
0.5128913017
 40
0.5799778093
 40
0.6439483883
 40
0.7044903251
 40
0.7614300272
 40
0.8147696389
 40
0.864719343
 40
0.911729678
 40
0.9565094502
 40
1.0
 40
1.0
 40
1.0
 40
1.0
 10
25.9451139177
 20
39.8266463491
 30
0.0
 10
26.129595065
 20
39.6037645526
 30
0.0
 10
26.485332088
 20
39.1417334895
 30
0.0
 10
26.9728044862
 20
38.4119766392
 30
0.0
 10
27.4128239547
 20
37.6482498625
 30
0.0
 10
27.7996170648
 20
36.8607031507
 30
0.0
 10
28.1281826258
 20
36.0595077872
 30
0.0
 10
28.3942308467
 20
35.2551171861
 30
0.0
 10
28.5942894004
 20
34.4579867306
 30
0.0
 10
28.7257261429
 20
33.6784431629
 30
0.0
 10
28.7868313852
 20
32.9265593051
 30
0.0
 10
28.7767111681
 20
32.2119790085
 30
0.0
 10
28.6952834707
 20
31.5438262509
 30
0.0
 10
28.5432983523
 20
30.9306091535
 30
0.0
 10
28.322174977
 20
30.3802508137
 30
0.0
 10
28.0339023313
 20
29.9001731525
 30
0.0
 10
27.6817831932
 20
29.4976135588
 30
0.0
 10
27.4051542685
 20
29.2836156061
 30
0.0
 10
27.2600725741
 20
29.1931065044
 30
0.0
  0
SPLINE
  5
348
100
AcDbEntity
  8
0
100
AcDbSpline
 62
7
  6
BYLAYER
 70
0
 71
3
 72
9
 73
5
 74
0
 42
0.0000001
 43
0.0000001
 44
0.0000000001
 40
0.0
 40
0.0
 40
0.0
 40
0.0
 40
0.4913603267
 40
1.0
 40
1.0
 40
1.0
 40
1.0
 10
47.1275090389
 20
54.7668609167
 30
0.0
 10
47.3876829482
 20
54.5410282846
 30
0.0
 10
47.8966197967
 20
54.0573473207
 30
0.0
 10
48.3643957334
 20
53.5339769417
 30
0.0
 10
48.5917918968
 20
53.2592471594
 30
0.0
  0
SPLINE
  5
349
100
AcDbEntity
  8
0
100
AcDbSpline
 62
7
  6
BYLAYER
 70
0
 71
3
 72
13
 73
9
 74
0
 42
0.0000001
 43
0.0000001
 44
0.0000000001
 40
0.0
 40
0.0
 40
0.0
 40
0.0
 40
0.1156783632
 40
0.2323601074
 40
0.3510090679
 40
0.4725037534
 40
0.7267213039
 40
1.0
 40
1.0
 40
1.0
 40
1.0
 10
22.2288853026
 20
45.5700843606
 30
0.0
 10
22.1294641616
 20
45.5126768062
 30
0.0
 10
21.9362205498
 20
45.3857446479
 30
0.0
 10
21.6681636009
 20
45.1621640134
 30
0.0
 10
21.4225981001
 20
44.9059985835
 30
0.0
 10
21.1221219919
 20
44.5171243021
 30
0.0
 10
20.8091027492
 20
43.9494068546
 30
0.0
 10
20.6400343282
 20
43.4512197523
 30
0.0
 10
20.5716961163
 20
43.1887550311
 30
0.0
  0
SPLINE
  5
34A
100
AcDbEntity
  8
0
100
AcDbSpline
 62
7
  6
BYLAYER
 70
0
 71
3
 72
9
 73
5
 74
0
 42
0.0000001
 43
0.0000001
 44
0.0000000001
 40
0.0
 40
0.0
 40
0.0
 40
0.0
 40
0.4974302165
 40
1.0
 40
1.0
 40
1.0
 40
1.0
 10
48.698254256
 20
53.1290461437
 30
0.0
 10
49.0216751939
 20
52.7286671004
 30
0.0
 10
49.6287409797
 20
51.8881476681
 30
0.0
 10
50.146794213
 20
50.990159499
 30
0.0
 10
50.3832104602
 20
50.5270026883
 30
0.0
  0
SPLINE
  5
34B
100
AcDbEntity
  8
0
100
AcDbSpline
 62
7
  6
BYLAYER
 70
0
 71
3
 72
21
 73
17
 74
0
 42
0.0000001
 43
0.0000001
 44
0.0000000001
 40
0.0
 40
0.0
 40
0.0
 40
0.0
 40
0.0474050784
 40
0.0955340618
 40
0.1449232932
 40
0.1960367541
 40
0.2492562713
 40
0.3048668635
 40
0.3630673754
 40
0.4239653246
 40
0.4875971884
 40
0.5539268112
 40
0.62286332
 40
0.6942534531
 40
0.8435660278
 40
1.0
 40
1.0
 40
1.0
 40
1.0
 10
19.5611035289
 20
42.5270261924
 30
0.0
 10
19.6648986816
 20
42.5823328928
 30
0.0
 10
19.8820485979
 20
42.6794722222
 30
0.0
 10
20.2279841103
 20
42.781087746
 30
0.0
 10
20.5932209388
 20
42.8385925127
 30
0.0
 10
20.9752386804
 20
42.8518676095
 30
0.0
 10
21.3716154514
 20
42.8208718283
 30
0.0
 10
21.7798900734
 20
42.7460718242
 30
0.0
 10
22.1975335175
 20
42.6279200506
 30
0.0
 10
22.6220372722
 20
42.4673455658
 30
0.0
 10
23.0507717562
 20
42.2652823559
 30
0.0
 10
23.4811672611
 20
42.0231040472
 30
0.0
 10
23.9105309365
 20
41.7422383421
 30
0.0
 10
24.486733462
 20
41.3122197285
 30
0.0
 10
25.1860577523
 20
40.6875751515
 30
0.0
 10
25.6976469494
 20
40.125624772
 30
0.0
 10
25.9451139177
 20
39.8266463491
 30
0.0
  0
SPLINE
  5
34C
100
AcDbEntity
  8
0
100
AcDbSpline
 62
7
  6
BYLAYER
 70
0
 71
3
 72
15
 73
11
 74
0
 42
0.0000001
 43
0.0000001
 44
0.0000000001
 40
0.0
 40
0.0
 40
0.0
 40
0.0
 40
0.1080045707
 40
0.2180544969
 40
0.3319942681
 40
0.4513523705
 40
0.5772741721
 40
0.7104969815
 40
0.851393203
 40
1.0
 40
1.0
 40
1.0
 40
1.0
 10
17.504890584
 20
41.3415986687
 30
0.0
 10
17.3786533252
 20
41.2687139518
 30
0.0
 10
17.1359310269
 20
41.0993480991
 30
0.0
 10
16.8152256163
 20
40.7837028643
 30
0.0
 10
16.5393805797
 20
40.409087601
 30
0.0
 10
16.3109788102
 20
39.9796908428
 30
0.0
 10
16.1318410812
 20
39.4998870716
 30
0.0
 10
16.0032599564
 20
38.9743670555
 30
0.0
 10
15.9262846906
 20
38.4081496958
 30
0.0
 10
15.9101311137
 20
38.0171550667
 30
0.0
 10
15.9101366637
 20
37.8165897433
 30
0.0
  0
SPLINE
  5
34D
100
AcDbEntity
  8
0
100
AcDbSpline
 62
7
  6
BYLAYER
 70
0
 71
3
 72
15
 73
11
 74
0
 42
0.0000001
 43
0.0000001
 44
0.0000000001
 40
0.0
 40
0.0
 40
0.0
 40
0.0
 40
0.1486049664
 40
0.2894988263
 40
0.4227223521
 40
0.5486415381
 40
0.6680009233
 40
0.78193791
 40
0.891987127
 40
1.0
 40
1.0
 40
1.0
 40
1.0
 10
21.3547339993
 20
28.3862047186
 30
0.0
 10
21.5284249264
 20
28.2859210843
 30
0.0
 10
21.8751105988
 20
28.1044213388
 30
0.0
 10
22.4039509727
 20
27.8879801544
 30
0.0
 10
22.9233417108
 20
27.7365440899
 30
0.0
 10
23.4284366362
 20
27.6518204237
 30
0.0
 10
23.9144978004
 20
27.6348743659
 30
0.0
 10
24.3768417996
 20
27.6864735267
 30
0.0
 10
24.8105624327
 20
27.8063727897
 30
0.0
 10
25.0786002473
 20
27.931913056
 30
0.0
 10
25.2048525005
 20
28.0047938038
 30
0.0
  0
SPLINE
  5
34E
100
AcDbEntity
  8
0
100
AcDbSpline
 62
7
  6
BYLAYER
 70
0
 71
3
 72
25
 73
21
 74
0
 42
0.0000001
 43
0.0000001
 44
0.0000000001
 40
0.0
 40
0.0
 40
0.0
 40
0.0
 40
0.0217138451
 40
0.043572531
 40
0.0657165586
 40
0.0882769535
 40
0.1350626827
 40
0.1847429027
 40
0.2378161031
 40
0.2945265643
 40
0.3548970195
 40
0.4187675373
 40
0.485830032
 40
0.5556575053
 40
0.6277309844
 40
0.7014651309
 40
0.7762257878
 40
0.8513429663
 40
0.9261693569
 40
1.0
 40
1.0
 40
1.0
 40
1.0
 10
31.2288398732
 20
29.9816127281
 30
0.0
 10
31.3159088919
 20
30.0318879449
 30
0.0
 10
31.4856641199
 20
30.1416594487
 30
0.0
 10
31.7237910104
 20
30.3318535893
 30
0.0
 10
31.9449409064
 20
30.5472429643
 30
0.0
 10
32.2194210851
 20
30.8706289163
 30
0.0
 10
32.5163497647
 20
31.3385599226
 30
0.0
 10
32.7883424782
 20
31.9781283353
 30
0.0
 10
32.9780844234
 20
32.6939955931
 30
0.0
 10
33.0836632033
 20
33.4765521804
 30
0.0
 10
33.1042010711
 20
34.3156431634
 30
0.0
 10
33.0396528868
 20
35.2003349229
 30
0.0
 10
32.8909690599
 20
36.1190451278
 30
0.0
 10
32.6601778486
 20
37.0596684103
 30
0.0
 10
32.3503831985
 20
38.0097652808
 30
0.0
 10
31.9656951062
 20
38.9567261838
 30
0.0
 10
31.5112211203
 20
39.8879102144
 30
0.0
 10
30.9930263962
 20
40.7910378983
 30
0.0
 10
30.4180190609
 20
41.6538756191
 30
0.0
 10
29.9978974257
 20
42.1999440991
 30
0.0
 10
29.7799207354
 20
42.4632936989
 30
0.0
  0
SPLINE
  5
34F
100
AcDbEntity
  8
0
100
AcDbSpline
 62
7
  6
BYLAYER
 70
0
 71
3
 72
15
 73
11
 74
0
 42
0.0000001
 43
0.0000001
 44
0.0000000001
 40
0.0
 40
0.0
 40
0.0
 40
0.0
 40
0.0999778004
 40
0.2069553588
 40
0.321564857
 40
0.4439270483
 40
0.5737359889
 40
0.7103224386
 40
0.8528108555
 40
1.0
 40
1.0
 40
1.0
 40
1.0
 10
20.9798746261
 20
42.8405652671
 30
0.0
 10
21.1795433599
 20
42.8409577423
 30
0.0
 10
21.5934720075
 20
42.8046325641
 30
0.0
 10
22.2192149679
 20
42.6515359698
 30
0.0
 10
22.8607751256
 20
42.4011328468
 30
0.0
 10
23.5091751838
 20
42.0572951959
 30
0.0
 10
24.1555538555
 20
41.6250324136
 30
0.0
 10
24.7910114616
 20
41.1105290732
 30
0.0
 10
25.4064613836
 20
40.5211008406
 30
0.0
 10
25.7926262217
 20
40.089469586
 30
0.0
 10
25.9805928387
 20
39.8634629711
 30
0.0
  0
SPLINE
  5
350
100
AcDbEntity
  8
0
100
AcDbSpline
 62
7
  6
BYLAYER
 70
0
 71
3
 72
9
 73
5
 74
0
 42
0.0000001
 43
0.0000001
 44
0.0000000001
 40
0.0
 40
0.0
 40
0.0
 40
0.0
 40
0.4973878491
 40
1.0
 40
1.0
 40
1.0
 40
1.0
 10
48.6614285354
 20
53.105885375
 30
0.0
 10
48.9568917391
 20
52.7372798143
 30
0.0
 10
49.5153617797
 20
51.9670960766
 30
0.0
 10
50.0006356897
 20
51.1489160123
 30
0.0
 10
50.2250576126
 20
50.7275894443
 30
0.0
  0
SPLINE
  5
351
100
AcDbEntity
  8
0
100
AcDbSpline
 62
7
  6
BYLAYER
 70
0
 71
3
 72
25
 73
21
 74
0
 42
0.0000001
 43
0.0000001
 44
0.0000000001
 40
0.0
 40
0.0
 40
0.0
 40
0.0
 40
0.073827647
 40
0.1486579623
 40
0.2237745475
 40
0.2985344572
 40
0.3722690326
 40
0.4443425931
 40
0.514170125
 40
0.5812321434
 40
0.6451028714
 40
0.7054738883
 40
0.7621837651
 40
0.8152566447
 40
0.8649374768
 40
0.9117232674
 40
0.9342835251
 40
0.956427388
 40
0.9782862794
 40
1.0
 40
1.0
 40
1.0
 40
1.0
 10
28.4199773479
 20
41.2555008877
 30
0.0
 10
28.606460937
 20
41.0301998314
 30
0.0
 10
28.9658948509
 20
40.5630007679
 30
0.0
 10
29.4578546052
 20
39.8247999873
 30
0.0
 10
29.9012074633
 20
39.0521166787
 30
0.0
 10
30.2900219982
 20
38.2554346703
 30
0.0
 10
30.6191466794
 20
37.4452595525
 30
0.0
 10
30.88420214
 20
36.6323994614
 30
0.0
 10
31.0816559993
 20
35.8276446499
 30
0.0
 10
31.2088468828
 20
35.0416354243
 30
0.0
 10
31.2640817681
 20
34.2847330439
 30
0.0
 10
31.2465272531
 20
33.5668421304
 30
0.0
 10
31.1561763633
 20
32.8973247186
 30
0.0
 10
30.9938333846
 20
32.2848667394
 30
0.0
 10
30.7611587679
 20
31.7376643439
 30
0.0
 10
30.5071040316
 20
31.3373316348
 30
0.0
 10
30.2722801484
 20
31.0606487225
 30
0.0
 10
30.083046928
 20
30.8764011618
 30
0.0
 10
29.8793479811
 20
30.7136416708
 30
0.0
 10
29.7341036266
 20
30.6197363031
 30
0.0
 10
29.6596066749
 20
30.5767319732
 30
0.0
  0
SPLINE
  5
352
100
AcDbEntity
  8
0
100
AcDbSpline
 62
7
  6
BYLAYER
 70
0
 71
3
 72
21
 73
17
 74
0
 42
0.0000001
 43
0.0000001
 44
0.0000000001
 40
0.0
 40
0.0
 40
0.0
 40
0.0
 40
0.1569713573
 40
0.3066474287
 40
0.3781401973
 40
0.4471175137
 40
0.5134265379
 40
0.5769787377
 40
0.6377450999
 40
0.695772085
 40
0.7511849313
 40
0.8042032606
 40
0.8551406056
 40
0.904408877
 40
0.9525064203
 40
1.0
 40
1.0
 40
1.0
 40
1.0
 10
29.7799207354
 20
42.4632936989
 30
0.0
 10
29.4862830602
 20
42.8180534862
 30
0.0
 10
28.8790377944
 20
43.4841363702
 30
0.0
 10
28.0480104195
 20
44.2227864995
 30
0.0
 10
27.3633333098
 20
44.7293595446
 30
0.0
 10
26.853482246
 20
45.05891597
 30
0.0
 10
26.3426867013
 20
45.3416709155
 30
0.0
 10
25.8342232583
 20
45.5758886828
 30
0.0
 10
25.3312458873
 20
45.7599468341
 30
0.0
 10
24.8369487052
 20
45.8927017264
 30
0.0
 10
24.3544080411
 20
45.9730988332
 30
0.0
 10
23.8866968747
 20
46.000574809
 30
0.0
 10
23.436830419
 20
45.974667834
 30
0.0
 10
23.0077705479
 20
45.8954161532
 30
0.0
 10
22.6025949549
 20
45.7631190835
 30
0.0
 10
22.3495498754
 20
45.6397582544
 30
0.0
 10
22.2288853026
 20
45.5700843606
 30
0.0
  0
SPLINE
  5
353
100
AcDbEntity
  8
0
100
AcDbSpline
 62
7
  6
BYLAYER
 70
0
 71
3
 72
9
 73
5
 74
0
 42
0.0000001
 43
0.0000001
 44
0.0000000001
 40
0.0
 40
0.0
 40
0.0
 40
0.0
 40
0.5108615632
 40
1.0
 40
1.0
 40
1.0
 40
1.0
 10
21.1183847353
 20
42.8830142652
 30
0.0
 10
20.9540405069
 20
42.8900628704
 30
0.0
 10
20.6308172075
 20
42.8813731966
 30
0.0
 10
20.3127140652
 20
42.821564398
 30
0.0
 10
20.1610235848
 20
42.7791801616
 30
0.0
  0
SPLINE
  5
354
100
AcDbEntity
  8
0
100
AcDbSpline
 62
7
  6
BYLAYER
 70
0
 71
3
 72
9
 73
5
 74
0
 42
0.0000001
 43
0.0000001
 44
0.0000000001
 40
0.0
 40
0.0
 40
0.0
 40
0.0
 40
0.5026518442
 40
1.0
 40
1.0
 40
1.0
 40
1.0
 10
20.1610235848
 20
42.7791801616
 30
0.0
 10
20.0557376423
 20
42.7497619392
 30
0.0
 10
19.8495932814
 20
42.6785328564
 30
0.0
 10
19.6539512267
 20
42.582057759
 30
0.0
 10
19.560160872
 20
42.5281776079
 30
0.0
  0
SPLINE
  5
355
100
AcDbEntity
  8
0
100
AcDbSpline
 62
7
  6
BYLAYER
 70
0
 71
3
 72
9
 73
5
 74
0
 42
0.0000001
 43
0.0000001
 44
0.0000000001
 40
0.0
 40
0.0
 40
0.0
 40
0.0
 40
0.2458410526
 40
1.0
 40
1.0
 40
1.0
 40
1.0
 10
47.2149278848
 20
54.6511883611
 30
0.0
 10
47.2922006374
 20
54.5810909696
 30
0.0
 10
47.6028149943
 20
54.2918903842
 30
0.0
 10
47.8986718739
 20
53.9869136777
 30
0.0
 10
48.1133959942
 20
53.7495842871
 30
0.0
  0
SPLINE
  5
356
100
AcDbEntity
  8
0
100
AcDbSpline
 62
7
  6
BYLAYER
 70
0
 71
3
 72
25
 73
21
 74
0
 42
0.0000001
 43
0.0000001
 44
0.0000000001
 40
0.0
 40
0.0
 40
0.0
 40
0.0
 40
0.0217093207
 40
0.0435682151
 40
0.0657159209
 40
0.0882832035
 40
0.1350900371
 40
0.1847964049
 40
0.2378946893
 40
0.2946264112
 40
0.3550135111
 40
0.4188933422
 40
0.4859573773
 40
0.5557800515
 40
0.6278409334
 40
0.7015572052
 40
0.7762957801
 40
0.851389097
 40
0.9261959074
 40
1.0
 40
1.0
 40
1.0
 40
1.0
 10
27.2628999564
 20
29.193026268
 30
0.0
 10
27.3371833534
 20
29.2362402646
 30
0.0
 10
27.4819962751
 20
29.3305470335
 30
0.0
 10
27.6850302643
 20
29.4938287826
 30
0.0
 10
27.8736074867
 20
29.6785337711
 30
0.0
 10
28.1075764888
 20
29.9557592331
 30
0.0
 10
28.3605802262
 20
30.3565878033
 30
0.0
 10
28.5921094194
 20
30.9041057383
 30
0.0
 10
28.7534316962
 20
31.5166478876
 30
0.0
 10
28.84290003
 20
32.1860366319
 30
0.0
 10
28.859720102
 20
32.9036064373
 30
0.0
 10
28.803905908
 20
33.6600197474
 30
0.0
 10
28.676294479
 20
34.4453991845
 30
0.0
 10
28.4785817012
 20
35.2494071701
 30
0.0
 10
28.2134307988
 20
36.061434081
 30
0.0
 10
27.8843596787
 20
36.87072253
 30
0.0
 10
27.4957458231
 20
37.6665097937
 30
0.0
 10
27.0527159779
 20
38.4383228584
 30
0.0
 10
26.5611893141
 20
39.1757046764
 30
0.0
 10
26.2021135285
 20
39.6424045276
 30
0.0
 10
26.0158243014
 20
39.8674707645
 30
0.0
  0
SPLINE
  5
357
100
AcDbEntity
  8
0
100
AcDbSpline
 62
7
  6
BYLAYER
 70
0
 71
3
 72
19
 73
15
 74
0
 42
0.0000001
 43
0.0000001
 44
0.0000000001
 40
0.0
 40
0.0
 40
0.0
 40
0.0
 40
0.0691763305
 40
0.1392296447
 40
0.2801083852
 40
0.4194125888
 40
0.5539560552
 40
0.6185760981
 40
0.6809937503
 40
0.7409596286
 40
0.7982833506
 40
0.852845703
 40
0.90461593
 40
1.0
 40
1.0
 40
1.0
 40
1.0
 10
25.9988739784
 20
39.8414294026
 30
0.0
 10
26.1485629591
 20
39.6605819316
 30
0.0
 10
26.4394017683
 20
39.2878091265
 30
0.0
 10
26.9820378913
 20
38.5068718951
 30
0.0
 10
27.579755147
 20
37.4765459729
 30
0.0
 10
28.1519263046
 20
36.1877755435
 30
0.0
 10
28.4976603734
 20
35.0892432621
 30
0.0
 10
28.6832657866
 20
34.2205964825
 30
0.0
 10
28.7743426602
 20
33.5920203531
 30
0.0
 10
28.8184083253
 20
32.9831736544
 30
0.0
 10
28.8150438111
 20
32.3993712108
 30
0.0
 10
28.7641121512
 20
31.8454047668
 30
0.0
 10
28.6371378497
 20
31.1722965669
 30
0.0
 10
28.4681515732
 20
30.6959111708
 30
0.0
 10
28.3193039168
 20
30.4084627694
 30
0.0
  0
SPLINE
  5
358
100
AcDbEntity
  8
0
100
AcDbSpline
 62
7
  6
BYLAYER
 70
0
 71
3
 72
15
 73
11
 74
0
 42
0.0000001
 43
0.0000001
 44
0.0000000001
 40
0.0
 40
0.0
 40
0.0
 40
0.0
 40
0.1498605652
 40
0.2944069766
 40
0.432262509
 40
0.5623898204
 40
0.6841016211
 40
0.7972037172
 40
0.9021267764
 40
1.0
 40
1.0
 40
1.0
 40
1.0
 10
23.9652231735
 20
38.6835627183
 30
0.0
 10
23.7597610079
 20
38.9317928342
 30
0.0
 10
23.3367726107
 20
39.4038776967
 30
0.0
 10
22.6596054429
 20
40.0421989202
 30
0.0
 10
21.9600757275
 20
40.5898456112
 30
0.0
 10
21.2498805011
 20
41.0375846891
 30
0.0
 10
20.540574977
 20
41.3777838608
 30
0.0
 10
19.8434549465
 20
41.6044749822
 30
0.0
 10
19.1699795412
 20
41.7130598957
 30
0.0
 10
18.7307865406
 20
41.7041318709
 30
0.0
 10
18.5219943147
 20
41.6777879198
 30
0.0
  0
SPLINE
  5
359
100
AcDbEntity
  8
0
100
AcDbSpline
 62
7
  6
BYLAYER
 70
0
 71
3
 72
15
 73
11
 74
0
 42
0.0000001
 43
0.0000001
 44
0.0000000001
 40
0.0
 40
0.0
 40
0.0
 40
0.0
 40
0.1498605238
 40
0.2944068541
 40
0.4322623128
 40
0.5623895932
 40
0.6841014265
 40
0.7972036056
 40
0.9021267479
 40
1.0
 40
1.0
 40
1.0
 40
1.0
 10
23.7560011139
 20
38.4977484396
 30
0.0
 10
23.5558757337
 20
38.7395308923
 30
0.0
 10
23.1438740326
 20
39.1993532669
 30
0.0
 10
22.484295382
 20
39.8210935355
 30
0.0
 10
21.8029351977
 20
40.3545145441
 30
0.0
 10
21.1111867083
 20
40.7906234937
 30
0.0
 10
20.4203048917
 20
41.1219866013
 30
0.0
 10
19.7412920023
 20
41.3427906992
 30
0.0
 10
19.0853094755
 20
41.4485566932
 30
0.0
 10
18.6575238819
 20
41.4398612516
 30
0.0
 10
18.4541548229
 20
41.414201558
 30
0.0
  0
SPLINE
  5
35A
100
AcDbEntity
  8
0
100
AcDbSpline
 62
7
  6
BYLAYER
 70
0
 71
3
 72
25
 73
21
 74
0
 42
0.0000001
 43
0.0000001
 44
0.0000000001
 40
0.0
 40
0.0
 40
0.0
 40
0.0
 40
0.0217137206
 40
0.043572612
 40
0.0657164749
 40
0.0882767326
 40
0.1350625232
 40
0.1847433553
 40
0.2378162349
 40
0.2945261117
 40
0.3548971286
 40
0.4187678566
 40
0.485829875
 40
0.5556574069
 40
0.6277309674
 40
0.7014655428
 40
0.7762254525
 40
0.8513420377
 40
0.926172353
 40
1.0
 40
1.0
 40
1.0
 40
1.0
 10
25.2048525005
 20
28.0047938038
 30
0.0
 10
25.2793494522
 20
28.0477981337
 30
0.0
 10
25.4245938067
 20
28.1417035014
 30
0.0
 10
25.6282927536
 20
28.3044629924
 30
0.0
 10
25.8175259739
 20
28.4887105531
 30
0.0
 10
26.0523498572
 20
28.7653934654
 30
0.0
 10
26.3064045935
 20
29.1657261745
 30
0.0
 10
26.5390792101
 20
29.71292857
 30
0.0
 10
26.7014221888
 20
30.3253865492
 30
0.0
 10
26.7917730786
 20
30.994903961
 30
0.0
 10
26.8093275936
 20
31.7127948745
 30
0.0
 10
26.7540927083
 20
32.4696972549
 30
0.0
 10
26.6269018249
 20
33.2557064805
 30
0.0
 10
26.4294479655
 20
34.060461292
 30
0.0
 10
26.164392505
 20
34.8733213832
 30
0.0
 10
25.8352678238
 20
35.6834965009
 30
0.0
 10
25.4464532889
 20
36.4801785093
 30
0.0
 10
25.0031004307
 20
37.2528618179
 30
0.0
 10
24.5111406765
 20
37.9910625985
 30
0.0
 10
24.1517067625
 20
38.458261662
 30
0.0
 10
23.9652231735
 20
38.6835627183
 30
0.0
  0
SPLINE
  5
35B
100
AcDbEntity
  8
0
100
AcDbSpline
 62
7
  6
BYLAYER
 70
0
 71
3
 72
33
 73
29
 74
0
 42
0.0000001
 43
0.0000001
 44
0.0000000001
 40
0.0
 40
0.0
 40
0.0
 40
0.0
 40
0.061430719
 40
0.0901180399
 40
0.1174871977
 40
0.1436299776
 40
0.1686879806
 40
0.1928515104
 40
0.2163582414
 40
0.2394836026
 40
0.2625272001
 40
0.2857941644
 40
0.3095745659
 40
0.3341283332
 40
0.3596707978
 40
0.3863706537
 40
0.4143447096
 40
0.4436654473
 40
0.4743597759
 40
0.5064196932
 40
0.5398012314
 40
0.574435052
 40
0.6102249244
 40
0.684768678
 40
0.7623502214
 40
0.841678952
 40
0.9213659938
 40
1.0
 40
1.0
 40
1.0
 40
1.0
 10
21.3658125488
 20
28.3823454065
 30
0.0
 10
21.641812197
 20
28.2321698174
 30
0.0
 10
22.0632842596
 20
28.0391342825
 30
0.0
 10
22.638589238
 20
27.8631938005
 30
0.0
 10
23.0512431519
 20
27.7789334626
 30
0.0
 10
23.4520453399
 20
27.7401469611
 30
0.0
 10
23.8383825017
 20
27.7471635501
 30
0.0
 10
24.2076160404
 20
27.8002127169
 30
0.0
 10
24.5571543443
 20
27.899017672
 30
0.0
 10
24.8843982019
 20
28.0431162325
 30
0.0
 10
25.1869410811
 20
28.23141136
 30
0.0
 10
25.4624808934
 20
28.4625783882
 30
0.0
 10
25.7091532269
 20
28.7347400792
 30
0.0
 10
25.9252432473
 20
29.0459188447
 30
0.0
 10
26.1095233352
 20
29.3937918283
 30
0.0
 10
26.2608054442
 20
29.7759939863
 30
0.0
 10
26.3783366605
 20
30.1899082223
 30
0.0
 10
26.4613384368
 20
30.6328205337
 30
0.0
 10
26.5094555605
 20
31.101805422
 30
0.0
 10
26.5223151453
 20
31.593795563
 30
0.0
 10
26.4999738706
 20
32.1055629879
 30
0.0
 10
26.4425013271
 20
32.6337513418
 30
0.0
 10
26.3179695848
 20
33.3650871754
 30
0.0
 10
26.0753591268
 20
34.2972664256
 30
0.0
 10
25.6611553281
 20
35.4082648381
 30
0.0
 10
25.1306315652
 20
36.4980092867
 30
0.0
 10
24.4977851961
 20
37.5377898608
 30
0.0
 10
24.0124557114
 20
38.1879115688
 30
0.0
 10
23.7560011139
 20
38.4977484396
 30
0.0
  0
SPLINE
  5
35C
100
AcDbEntity
  8
0
100
AcDbSpline
 62
7
  6
BYLAYER
 70
0
 71
3
 72
19
 73
15
 74
0
 42
0.0000001
 43
0.0000001
 44
0.0000000001
 40
0.0
 40
0.0
 40
0.0
 40
0.0
 40
0.0581249738
 40
0.1151323162
 40
0.1713687202
 40
0.2272342908
 40
0.2831693551
 40
0.3396113761
 40
0.3969695615
 40
0.4556170438
 40
0.577937868
 40
0.7087679318
 40
0.8493108368
 40
1.0
 40
1.0
 40
1.0
 40
1.0
 10
18.4541548229
 20
41.414201558
 30
0.0
 10
18.3613283863
 20
41.4024893638
 30
0.0
 10
18.1784357052
 20
41.3704052518
 30
0.0
 10
17.9125199744
 20
41.2952929372
 30
0.0
 10
17.659310683
 20
41.1939529541
 30
0.0
 10
17.4200066752
 20
41.066749662
 30
0.0
 10
17.1955464024
 20
40.9142889367
 30
0.0
 10
16.9868712145
 20
40.7371416151
 30
0.0
 10
16.7947518738
 20
40.5360964782
 30
0.0
 10
16.5584568183
 20
40.2331788461
 30
0.0
 10
16.3088207827
 20
39.7942904739
 30
0.0
 10
16.0914803724
 20
39.1963520322
 30
0.0
 10
15.9540069654
 20
38.5289521471
 30
0.0
 10
15.9178277285
 20
38.0603006062
 30
0.0
 10
15.9120766885
 20
37.8178079982
 30
0.0
  0
SPLINE
  5
35D
100
AcDbEntity
  8
0
100
AcDbSpline
 62
7
  6
BYLAYER
 70
0
 71
3
 72
21
 73
17
 74
0
 42
0.0000001
 43
0.0000001
 44
0.0000000001
 40
0.0
 40
0.0
 40
0.0
 40
0.0
 40
0.0474937594
 40
0.0955911404
 40
0.1448595599
 40
0.1957967317
 40
0.2488152288
 40
0.3042279469
 40
0.3622551225
 40
0.4230210505
 40
0.4865734884
 40
0.5528829295
 40
0.6218605143
 40
0.6933512284
 40
0.8430310187
 40
1.0
 40
1.0
 40
1.0
 40
1.0
 10
21.9596485241
 20
43.9135303154
 30
0.0
 10
22.0628910655
 20
43.9731284091
 30
0.0
 10
22.2793732253
 20
44.0786920598
 30
0.0
 10
22.6260297666
 20
44.1918670655
 30
0.0
 10
22.9931117066
 20
44.2596771222
 30
0.0
 10
23.3779983585
 20
44.2818388628
 30
0.0
 10
23.7781506707
 20
44.2583332107
 30
0.0
 10
24.1909915008
 20
44.1895480746
 30
0.0
 10
24.6138888095
 20
44.0759682415
 30
0.0
 10
25.0442149057
 20
43.9184992877
 30
0.0
 10
25.4792330412
 20
43.7181105412
 30
0.0
 10
25.916249146
 20
43.4761972251
 30
0.0
 10
26.3524497121
 20
43.1942419307
 30
0.0
 10
26.9382397982
 20
42.7608472589
 30
0.0
 10
27.6492200121
 20
42.1288820828
 30
0.0
 10
28.1687578678
 20
41.559012926
 30
0.0
 10
28.4199773479
 20
41.2555008877
 30
0.0
  0
ELLIPSE
  5
35E
100
AcDbEntity
  8
0
100
AcDbEllipse
 62
7
  6
BYLAYER
 10
40.8472354579
 20
45.2462014092
 30
0.0
 11
-4.5993473308
 21
10.7054699316
 31
0.0
 40
0.2453720136
 41
-0.2030844227
 42
-0.1601810225
  0
ELLIPSE
  5
35F
100
AcDbEntity
  8
0
100
AcDbEllipse
 62
7
  6
BYLAYER
 10
41.4800303603
 20
42.1538901947
 30
0.0
 11
0.7105842277
 21
14.3772296272
 31
0.0
 40
0.0556094299
 41
-0.5847800921
 42
-0.5418766919
  0
ELLIPSE
  5
360
100
AcDbEntity
  8
0
100
AcDbEllipse
 62
7
  6
BYLAYER
 10
41.3985108928
 20
41.727726657
 30
0.0
 11
1.3944074935
 21
14.8559642096
 31
0.0
 40
0.1089869747
 41
-0.6705840501
 42
-0.6276806499
  0
ELLIPSE
  5
361
100
AcDbEntity
  8
0
100
AcDbEllipse
 62
7
  6
BYLAYER
 10
41.2641958033
 20
41.3483790673
 30
0.0
 11
2.0645859978
 21
15.2773036601
 31
0.0
 40
0.1599359076
 41
-0.7499846339
 42
-0.7070812337
  0
ELLIPSE
  5
362
100
AcDbEntity
  8
0
100
AcDbEllipse
 62
7
  6
BYLAYER
 10
41.0793832604
 20
41.022338168
 30
0.0
 11
2.7313823227
 21
15.6331910311
 31
0.0
 40
0.2085393773
 41
-0.8238974611
 42
-0.7809940609
  0
ELLIPSE
  5
363
100
AcDbEntity
  8
0
100
AcDbEllipse
 62
7
  6
BYLAYER
 10
40.8472354579
 20
40.7551826093
 30
0.0
 11
3.4029696759
 21
15.9159306896
 31
0.0
 40
0.2550159655
 41
-0.8929214246
 42
-0.8500180243
  0
ELLIPSE
  5
364
100
AcDbEntity
  8
0
100
AcDbEllipse
 62
7
  6
BYLAYER
 10
40.5717245089
 20
40.5514834968
 30
0.0
 11
4.0861547111
 21
16.1181605504
 31
0.0
 40
0.2996310152
 41
-0.9573984287
 42
-0.9144950285
  0
ELLIPSE
  5
365
100
AcDbEntity
  8
0
100
AcDbEllipse
 62
7
  6
BYLAYER
 10
40.2575644823
 20
40.414726179
 30
0.0
 11
4.7869975738
 21
16.232695402
 31
0.0
 40
0.3426419623
 41
-1.0174507841
 42
-0.9745473839
  0
ELLIPSE
  5
366
100
AcDbEntity
  8
0
100
AcDbEllipse
 62
7
  6
BYLAYER
 10
39.9101307432
 20
40.3472506113
 30
0.0
 11
5.5113537151
 21
16.2522438573
 31
0.0
 40
0.384261262
 41
-1.072998449
 42
-1.0300950488
  0
ELLIPSE
  5
367
100
AcDbEntity
  8
0
100
AcDbEllipse
 62
7
  6
BYLAYER
 10
39.5353679792
 20
40.3502113194
 30
0.0
 11
6.2653488879
 21
16.1689766296
 31
0.0
 40
0.4246262441
 41
-1.1237593255
 42
-1.0808559253
  0
ELLIPSE
  5
368
100
AcDbEntity
  8
0
100
AcDbEllipse
 62
7
  6
BYLAYER
 10
39.1396884851
 20
40.4235576449
 30
0.0
 11
7.0557565582
 21
15.9739119374
 31
0.0
 40
0.4637684418
 41
-1.1692364255
 42
-1.1263330252
  0
ELLIPSE
  5
369
100
AcDbEntity
  8
0
100
AcDbEllipse
 62
7
  6
BYLAYER
 10
38.7298624468
 20
40.5660346118
 30
0.0
 11
7.8901650961
 21
15.656095127
 31
0.0
 40
0.5015766464
 41
-1.2086983537
 42
-1.1657949534
  0
ELLIPSE
  5
36A
100
AcDbEntity
  8
0
100
AcDbEllipse
 62
7
  6
BYLAYER
 10
37.8959417558
 20
48.3616792956
 30
0.0
 11
12.8064077823
 21
-6.5732509067
 31
0.0
 40
0.0556166323
 41
0.5418884945
 42
0.5847918947
  0
ELLIPSE
  5
36B
100
AcDbEntity
  8
0
100
AcDbEllipse
 62
7
  6
BYLAYER
 10
37.4861157175
 20
48.5041562624
 30
0.0
 11
13.5629101603
 21
-6.2204125217
 31
0.0
 40
0.1089938613
 41
0.6276915302
 42
0.6705949305
  0
ELLIPSE
  5
36C
100
AcDbEntity
  8
0
100
AcDbEllipse
 62
7
  6
BYLAYER
 10
37.0904362234
 20
48.5775025879
 30
0.0
 11
14.2628844282
 21
-5.8506911235
 31
0.0
 40
0.1599424749
 41
0.707091337
 42
0.7499947372
  0
ELLIPSE
  5
36D
100
AcDbEntity
  8
0
100
AcDbEllipse
 62
7
  6
BYLAYER
 10
36.7156734593
 20
48.5804632961
 30
0.0
 11
14.9044842955
 21
-5.4511708777
 31
0.0
 40
0.2085456475
 41
0.7810034854
 42
0.8239068856
  0
ELLIPSE
  5
36E
100
AcDbEntity
  8
0
100
AcDbEllipse
 62
7
  6
BYLAYER
 10
36.3682397202
 20
48.5129877284
 30
0.0
 11
15.4851317383
 21
-5.010925969
 31
0.0
 40
0.2550219721
 41
0.8500268312
 42
0.8929302314
  0
ELLIPSE
  5
36F
100
AcDbEntity
  8
0
100
AcDbEllipse
 62
7
  6
BYLAYER
 10
36.0540796936
 20
48.3762304105
 30
0.0
 11
16.0018543428
 21
-4.5203807413
 31
0.0
 40
0.2996367937
 41
0.9145032477
 42
0.9574066479
  0
ELLIPSE
  5
370
100
AcDbEntity
  8
0
100
AcDbEllipse
 62
7
  6
BYLAYER
 10
35.7785687447
 20
48.1725312981
 30
0.0
 11
16.451459628
 21
-3.9706943896
 31
0.0
 40
0.3426475445
 41
0.9745550181
 42
1.0174584183
  0
ELLIPSE
  5
371
100
AcDbEntity
  8
0
100
AcDbEllipse
 62
7
  6
BYLAYER
 10
35.5464209421
 20
47.9053757393
 30
0.0
 11
16.8305608071
 21
-3.3531502089
 31
0.0
 40
0.3842666715
 41
1.0301020743
 42
1.0730054745
  0
ELLIPSE
  5
372
100
AcDbEntity
  8
0
100
AcDbEllipse
 62
7
  6
BYLAYER
 10
35.3616083992
 20
47.57933484
 30
0.0
 11
17.1354403821
 21
-2.6585283702
 31
0.0
 40
0.4246314928
 41
1.080862291
 42
1.1237656912
  0
ELLIPSE
  5
373
100
AcDbEntity
  8
0
100
AcDbEllipse
 62
7
  6
BYLAYER
 10
35.2272933098
 20
47.1999872503
 30
0.0
 11
17.3617065652
 21
-1.8764717763
 31
0.0
 40
0.4637735253
 41
1.1263386505
 42
1.1692420507
  0
ELLIPSE
  5
374
100
AcDbEntity
  8
0
100
AcDbEllipse
 62
7
  6
BYLAYER
 10
35.1457738423
 20
46.7738237126
 30
0.0
 11
17.503666367
 21
-0.9949310997
 31
0.0
 40
0.5015815387
 41
1.1657997255
 42
1.2087031257
  0
ELLIPSE
  5
375
100
AcDbEntity
  8
0
100
AcDbEllipse
 62
7
  6
BYLAYER
 10
35.1184448174
 20
46.3081360033
 30
0.0
 11
17.5533254283
 21
0.0000593582
 31
0.0
 40
0.5377539929
 41
1.1982675425
 42
1.2411709427
  0
ELLIPSE
  5
376
100
AcDbEntity
  8
0
100
AcDbEllipse
 62
7
  6
BYLAYER
 10
35.1457738423
 20
45.810892168
 30
0.0
 11
17.498989042
 21
1.1236987568
 31
0.0
 40
0.5717395885
 41
1.2246875545
 42
1.2654474075
  0
ELLIPSE
  5
377
100
AcDbEntity
  8
0
100
AcDbEllipse
 62
7
  6
BYLAYER
 10
35.2272933098
 20
45.2906001868
 30
0.0
 11
17.3237397697
 21
2.3897259889
 31
0.0
 40
0.6026731265
 41
1.2417358811
 42
1.2802415961
  0
ELLIPSE
  5
378
100
AcDbEntity
  8
0
100
AcDbEllipse
 62
7
  6
BYLAYER
 10
35.3616083992
 20
44.7561623996
 30
0.0
 11
17.0048884769
 21
3.8041075754
 31
0.0
 40
0.6293336111
 41
1.2473323187
 42
1.2844985745
  0
ELLIPSE
  5
379
100
AcDbEntity
  8
0
100
AcDbEllipse
 62
7
  6
BYLAYER
 10
38.3129021013
 20
40.7752043995
 30
0.0
 11
8.7766718886
 21
15.2016204442
 31
0.0
 40
0.5377493467
 41
-1.2411671689
 42
-1.1982637687
  0
ELLIPSE
  5
37A
100
AcDbEntity
  8
0
100
AcDbEllipse
 62
7
  6
BYLAYER
 10
37.8959417558
 20
41.0474880552
 30
0.0
 11
9.7225926059
 21
14.5927608945
 31
0.0
 40
0.5717352805
 41
-1.2654448007
 42
-1.2246846617
  0
ELLIPSE
  5
37B
100
AcDbEntity
  8
0
100
AcDbEllipse
 62
7
  6
BYLAYER
 10
37.4861157175
 20
41.37822673
 30
0.0
 11
10.731367474
 21
13.8079964915
 31
0.0
 40
0.6026692941
 41
-1.2802403214
 42
-1.2417342506
  0
ELLIPSE
  5
37C
100
AcDbEntity
  8
0
100
AcDbEllipse
 62
7
  6
BYLAYER
 10
37.0904362234
 20
41.7617613933
 30
0.0
 11
11.7968207377
 21
12.824694405
 31
0.0
 40
0.6293304387
 41
4.9986865758
 42
5.035852932
  0
ELLIPSE
  5
37D
100
AcDbEntity
  8
0
100
AcDbEllipse
 62
7
  6
BYLAYER
 10
40.2575644823
 20
46.2675358289
 30
0.0
 11
-6.9716422486
 21
9.3358362255
 31
0.0
 40
0.2453690706
 41
-2.981433545
 42
-2.9385301448
  0
ELLIPSE
  5
37E
100
AcDbEntity
  8
0
100
AcDbEllipse
 62
7
  6
BYLAYER
 10
42.4058689574
 20
46.3373523921
 30
0.0
 11
-7.0094014415
 21
9.4420458096
 31
0.0
 40
0.237653632
 41
-3.6192027064
 42
-3.5761173952
  0
ELLIPSE
  5
37F
100
AcDbEntity
  8
0
100
AcDbEllipse
 62
7
  6
BYLAYER
 10
42.6556606836
 20
46.0004118938
 30
0.0
 11
-8.1333566222
 21
8.8093463973
 31
0.0
 40
0.2080881539
 41
-3.7741331704
 42
-3.7310478592
  0
ELLIPSE
  5
380
100
AcDbEntity
  8
0
100
AcDbEllipse
 62
7
  6
BYLAYER
 10
42.9251009457
 20
45.6914247536
 30
0.0
 11
9.1850623136
 21
-8.2387016436
 31
0.0
 40
0.1645667058
 41
-0.7741667937
 42
-0.7310814825
  0
ELLIPSE
  5
381
100
AcDbEntity
  8
0
100
AcDbEllipse
 62
7
  6
BYLAYER
 10
43.2095795462
 20
45.4156778274
 30
0.0
 11
10.1599965266
 21
-7.7338981168
 31
0.0
 40
0.1126524607
 41
-0.9013736267
 42
-0.8582883155
  0
ELLIPSE
  5
382
100
AcDbEntity
  8
0
100
AcDbEllipse
 62
7
  6
BYLAYER
 10
43.5042289773
 20
45.1778892215
 30
0.0
 11
11.0634864679
 21
-7.2839966179
 31
0.0
 40
0.0568047358
 41
-1.0154183803
 42
-0.9723330691
  0
ELLIPSE
  5
383
100
AcDbEntity
  8
0
100
AcDbEllipse
 62
7
  6
BYLAYER
 10
41.5269621976
 20
48.6025967327
 30
0.0
 11
-0.7764208886
 21
13.2231914361
 31
0.0
 40
0.0568122221
 41
0.9723187931
 42
1.0154041043
  0
ELLIPSE
  5
384
100
AcDbEntity
  8
0
100
AcDbEllipse
 62
7
  6
BYLAYER
 10
41.5855716135
 20
48.228526464
 30
0.0
 11
-1.6178046943
 21
12.6656966103
 31
0.0
 40
0.1126596549
 41
0.8582724333
 42
0.9013577445
  0
ELLIPSE
  5
385
100
AcDbEntity
  8
0
100
AcDbEllipse
 62
7
  6
BYLAYER
 10
41.682139086
 20
47.8442858956
 30
0.0
 11
-2.5424595769
 21
12.0737809014
 31
0.0
 40
0.1645731193
 41
0.7310637474
 42
0.7741490586
  0
ELLIPSE
  5
386
100
AcDbEntity
  8
0
100
AcDbEllipse
 62
7
  6
BYLAYER
 10
41.8150123188
 20
47.45644949
 30
0.0
 11
-3.562521272
 21
11.4483003125
 31
0.0
 40
0.2080931049
 41
0.5894355681
 42
0.6325208793
  0
ELLIPSE
  5
387
100
AcDbEntity
  8
0
100
AcDbEllipse
 62
7
  6
BYLAYER
 10
41.9819178142
 20
47.0716532358
 30
0.0
 11
-4.6724463433
 21
10.7912782822
 31
0.0
 40
0.2376563695
 41
0.4345035838
 42
0.477588895
  0
ELLIPSE
  5
388
100
AcDbEntity
  8
0
100
AcDbEllipse
 62
7
  6
BYLAYER
 10
42.1799997728
 20
46.6964811034
 30
0.0
 11
-5.8392794844
 21
10.1138095469
 31
0.0
 40
0.2482115024
 41
0.2712528773
 42
0.3143381885
  0
ELLIPSE
  5
389
100
AcDbEntity
  8
0
100
AcDbEllipse
 62
7
  6
BYLAYER
 10
45.6260975968
 20
44.9677326543
 30
0.0
 11
16.1171236179
 21
-3.7894603808
 31
0.0
 40
0.3532012654
 41
1.6088361109
 42
1.6519214222
  0
ELLIPSE
  5
38A
100
AcDbEntity
  8
0
100
AcDbEllipse
 62
7
  6
BYLAYER
 10
36.7156734593
 20
42.1915296609
 30
0.0
 11
12.8951879633
 21
11.6271421264
 31
0.0
 40
0.6501830562
 41
-1.2780266695
 42
-1.2416162823
  0
ELLIPSE
  5
38B
100
AcDbEntity
  8
0
100
AcDbEllipse
 62
7
  6
BYLAYER
 10
36.3682397202
 20
42.6601780784
 30
0.0
 11
13.9791570076
 21
10.221290499
 31
0.0
 40
0.6635889006
 41
-1.2496307679
 42
-1.2194297652
  0
ELLIPSE
  5
38C
100
AcDbEntity
  8
0
100
AcDbEllipse
 62
7
  6
BYLAYER
 10
45.7930030922
 20
45.1598074032
 30
0.0
 11
16.4701088518
 21
-3.1914787721
 31
0.0
 40
0.3966914607
 41
1.666141167
 42
1.7092264782
  0
ELLIPSE
  5
38D
100
AcDbEntity
  8
0
100
AcDbEllipse
 62
7
  6
BYLAYER
 10
45.2021464537
 20
48.9309062648
 30
0.0
 11
13.6338029597
 21
10.0076677849
 31
0.0
 40
0.686380748
 41
-1.9066914297
 42
-1.8652219499
  0
ELLIPSE
  5
38E
100
AcDbEntity
  8
0
100
AcDbEllipse
 62
7
  6
BYLAYER
 10
44.9523547275
 20
49.2678467632
 30
0.0
 11
12.5593833502
 21
11.3941477912
 31
0.0
 40
0.6724694506
 41
-1.9253205431
 42
-1.8822352318
  0
ELLIPSE
  5
38F
100
AcDbEntity
  8
0
100
AcDbEllipse
 62
7
  6
BYLAYER
 10
44.6829144653
 20
49.5768339033
 30
0.0
 11
11.4801892476
 21
12.5635396407
 31
0.0
 40
0.6508777042
 41
-1.932109678
 42
-1.8890243667
  0
ELLIPSE
  5
390
100
AcDbEntity
  8
0
100
AcDbEllipse
 62
7
  6
BYLAYER
 10
44.3984358648
 20
49.8525808295
 30
0.0
 11
10.444585747
 21
13.5138705042
 31
0.0
 40
0.6233201663
 41
-1.927231508
 42
-1.8841461968
  0
ELLIPSE
  5
391
100
AcDbEntity
  8
0
100
AcDbEllipse
 62
7
  6
BYLAYER
 10
44.1037864338
 20
50.0903694354
 30
0.0
 11
9.4740732521
 21
14.2658352852
 31
0.0
 40
0.5913666693
 41
-1.9111338645
 42
-1.8680485533
  0
ELLIPSE
  5
392
100
AcDbEntity
  8
0
100
AcDbEllipse
 62
7
  6
BYLAYER
 10
43.8040077055
 20
50.2861310922
 30
0.0
 11
8.5713566567
 21
14.8459940844
 31
0.0
 40
0.5562374973
 41
-1.8851394378
 42
-1.8420541266
  0
ELLIPSE
  5
393
100
AcDbEntity
  8
0
100
AcDbEllipse
 62
7
  6
BYLAYER
 10
44.1037864338
 20
44.8317423935
 30
0.0
 11
12.6806118161
 21
-6.4792526434
 31
0.0
 40
0.0560681352
 41
1.1691665273
 42
1.2122518385
  0
ELLIPSE
  5
394
100
AcDbEntity
  8
0
100
AcDbEllipse
 62
7
  6
BYLAYER
 10
45.9258763251
 20
45.3942184862
 30
0.0
 11
16.7536802554
 21
-2.5260040583
 31
0.0
 40
0.43880298
 41
1.7187795629
 42
1.7618648741
  0
ELLIPSE
  5
395
100
AcDbEntity
  8
0
100
AcDbEllipse
 62
7
  6
BYLAYER
 10
46.0224437976
 20
45.6669550647
 30
0.0
 11
16.9641275618
 21
-1.7817127181
 31
0.0
 40
0.4795417348
 41
1.7662177942
 42
1.8093031054
  0
ELLIPSE
  5
396
100
AcDbEntity
  8
0
100
AcDbEllipse
 62
7
  6
BYLAYER
 10
46.0810532135
 20
45.9733505403
 30
0.0
 11
17.0963267391
 21
-0.9450683136
 31
0.0
 40
0.5187870566
 41
1.807666998
 42
1.8507523093
  0
ELLIPSE
  5
397
100
AcDbEntity
  8
0
100
AcDbEllipse
 62
7
  6
BYLAYER
 10
44.3984358648
 20
44.7293068396
 30
0.0
 11
13.4011703333
 21
-6.0905573322
 31
0.0
 40
0.1104854318
 41
1.2556308579
 42
1.2987161692
  0
ELLIPSE
  5
398
100
AcDbEntity
  8
0
100
AcDbEllipse
 62
7
  6
BYLAYER
 10
46.1007017494
 20
46.3081624014
 30
0.0
 11
17.1426863504
 21
0.0000596674
 31
0.0
 40
0.5562423032
 41
1.8420581444
 42
1.8851434557
  0
ELLIPSE
  5
399
100
AcDbEntity
  8
0
100
AcDbEllipse
 62
7
  6
BYLAYER
 10
46.0810532135
 20
46.6656619242
 30
0.0
 11
17.0916040634
 21
1.0719328044
 31
0.0
 40
0.5913711198
 41
1.8680513647
 42
1.9111366759
  0
ELLIPSE
  5
39A
100
AcDbEntity
  8
0
100
AcDbEllipse
 62
7
  6
BYLAYER
 10
44.6829144653
 20
44.6765736039
 30
0.0
 11
14.0642682846
 21
-5.6920389432
 31
0.0
 40
0.1629030364
 41
1.3359258553
 42
1.3790111666
  0
ELLIPSE
  5
39B
100
AcDbEntity
  8
0
100
AcDbEllipse
 62
7
  6
BYLAYER
 10
46.0224437976
 20
47.0397321929
 30
0.0
 11
16.9256293702
 21
2.2884246025
 31
0.0
 40
0.6233241255
 41
1.8841476047
 42
1.9272329159
  0
ELLIPSE
  5
39C
100
AcDbEntity
  8
0
100
AcDbEllipse
 62
7
  6
BYLAYER
 10
45.9258763251
 20
47.4239727613
 30
0.0
 11
16.6204072918
 21
3.6604711353
 31
0.0
 40
0.6508809859
 41
1.8890242343
 42
1.9321095455
  0
ELLIPSE
  5
39D
100
AcDbEntity
  8
0
100
AcDbEllipse
 62
7
  6
BYLAYER
 10
44.9523547274
 20
44.6744449667
 30
0.0
 11
14.669134885
 21
-5.2721933263
 31
0.0
 40
0.2132593463
 41
1.410935015
 42
1.4540203263
  0
ELLIPSE
  5
39E
100
AcDbEntity
  8
0
100
AcDbEllipse
 62
7
  6
BYLAYER
 10
35.5464209421
 20
44.2167231852
 30
0.0
 11
16.5169455487
 21
5.3541159591
 31
0.0
 40
0.6501853522
 41
1.2416150376
 42
1.2780251491
  0
ELLIPSE
  5
39F
100
AcDbEntity
  8
0
100
AcDbEllipse
 62
7
  6
BYLAYER
 10
45.7930030922
 20
47.8118091669
 30
0.0
 11
16.147265179
 21
5.1797965377
 31
0.0
 40
0.6724718307
 41
1.8822336013
 42
1.9253189125
  0
ELLIPSE
  5
3A0
100
AcDbEntity
  8
0
100
AcDbEllipse
 62
7
  6
BYLAYER
 10
35.7785687447
 20
43.6815124981
 30
0.0
 11
15.8414101751
 21
6.9957975783
 31
0.0
 40
0.6635901138
 41
1.2194272257
 42
1.2623306259
  0
ELLIPSE
  5
3A1
100
AcDbEntity
  8
0
100
AcDbEllipse
 62
7
  6
BYLAYER
 10
45.6260975968
 20
48.1966054211
 30
0.0
 11
15.4837307246
 21
6.803523729
 31
0.0
 40
0.6863820082
 41
1.8652191791
 42
1.9083044904
  0
ELLIPSE
  5
3A2
100
AcDbEntity
  8
0
100
AcDbEllipse
 62
7
  6
BYLAYER
 10
45.4280156382
 20
48.5717775535
 30
0.0
 11
14.6321782521
 21
8.4479841641
 31
0.0
 40
0.6912034287
 41
1.8420584786
 42
1.8688868343
  0
ELLIPSE
  5
3A3
100
AcDbEntity
  8
0
100
AcDbEllipse
 62
7
  6
BYLAYER
 10
45.2021464537
 20
44.7229573494
 30
0.0
 11
15.2142532152
 21
-4.8210758358
 31
0.0
 40
0.2616495724
 41
1.4812398951
 42
1.5243252064
  0
ELLIPSE
  5
3A4
100
AcDbEntity
  8
0
100
AcDbEllipse
 62
7
  6
BYLAYER
 10
43.5042289773
 20
50.4365162634
 30
0.0
 11
7.7296816689
 21
15.2783956945
 31
0.0
 40
0.518781985
 41
-1.8507472766
 42
-1.8076619654
  0
ELLIPSE
  5
3A5
100
AcDbEntity
  8
0
100
AcDbEllipse
 62
7
  6
BYLAYER
 10
43.2095795462
 20
50.5389518173
 30
0.0
 11
6.9390343922
 21
15.5822182188
 31
0.0
 40
0.479536451
 41
-1.8092972179
 42
-1.7662119067
  0
ELLIPSE
  5
3A6
100
AcDbEntity
  8
0
100
AcDbEllipse
 62
7
  6
BYLAYER
 10
42.9251009457
 20
50.591685053
 30
0.0
 11
6.1892412737
 21
15.7721008121
 31
0.0
 40
0.4387975103
 41
-1.761858254
 42
-1.7187729428
  0
ELLIPSE
  5
3A7
100
AcDbEntity
  8
0
100
AcDbEllipse
 62
7
  6
BYLAYER
 10
42.6556606836
 20
50.5938136902
 30
0.0
 11
5.4711416488
 21
15.8592489059
 31
0.0
 40
0.3966858117
 41
-1.7092192121
 42
-1.6661339009
  0
ELLIPSE
  5
3A8
100
AcDbEntity
  8
0
100
AcDbEllipse
 62
7
  6
BYLAYER
 10
42.4058689574
 20
50.5453013075
 30
0.0
 11
4.7767843895
 21
15.8525372432
 31
0.0
 40
0.3531954297
 41
-1.6519135649
 42
-1.6088282537
  0
ELLIPSE
  5
3A9
100
AcDbEntity
  8
0
100
AcDbEllipse
 62
7
  6
BYLAYER
 10
42.1799997728
 20
50.4469779651
 30
0.0
 11
4.0991912813
 21
15.7593897677
 31
0.0
 40
0.3082317889
 41
-1.5902471575
 42
-1.5471618463
  0
ELLIPSE
  5
3AA
100
AcDbEntity
  8
0
100
AcDbEllipse
 62
7
  6
BYLAYER
 10
41.9819178142
 20
50.3005260026
 30
0.0
 11
3.4319453554
 21
15.5864221355
 31
0.0
 40
0.2616433071
 41
-1.5243162187
 42
-1.4812309074
  0
ELLIPSE
  5
3AB
100
AcDbEntity
  8
0
100
AcDbEllipse
 62
7
  6
BYLAYER
 10
41.8150123188
 20
50.1084512537
 30
0.0
 11
2.7687058055
 21
15.3398886832
 31
0.0
 40
0.2132528315
 41
-1.4540107444
 42
-1.4109254332
  0
ELLIPSE
  5
3AC
100
AcDbEntity
  8
0
100
AcDbEllipse
 62
7
  6
BYLAYER
 10
41.682139086
 20
49.8740401707
 30
0.0
 11
2.1026730558
 21
15.0259766096
 31
0.0
 40
0.1628962535
 41
-1.3790009313
 42
-1.3359156201
  0
ELLIPSE
  5
3AD
100
AcDbEntity
  8
0
100
AcDbEllipse
 62
7
  6
BYLAYER
 10
41.5855716135
 20
49.6013035922
 30
0.0
 11
1.4259931009
 21
14.6509719875
 31
0.0
 40
0.1104783762
 41
-1.2987051851
 42
-1.2556198739
  0
ELLIPSE
  5
3AE
100
AcDbEntity
  8
0
100
AcDbEllipse
 62
7
  6
BYLAYER
 10
41.5269621976
 20
49.2949081166
 30
0.0
 11
0.7290882058
 21
14.2212944738
 31
0.0
 40
0.0560608308
 41
-1.2122399664
 42
-1.1691546551
  0
ELLIPSE
  5
3AF
100
AcDbEntity
  8
0
100
AcDbEllipse
 62
7
  6
BYLAYER
 10
45.4280156382
 20
44.8212806918
 30
0.0
 11
15.6976647931
 21
-4.3297043443
 31
0.0
 40
0.3082378281
 41
1.5471702683
 42
1.5902555796
  0
ELLIPSE
  5
3B0
100
AcDbEntity
  8
0
100
AcDbEllipse
 62
7
  6
BYLAYER
 10
34.5432154323
 20
45.7524052804
 30
0.0
 11
16.7536802554
 21
-2.5260040583
 31
0.0
 40
0.43880298
 41
1.1331667442
 42
1.1382908726
  0
ELLIPSE
  5
3B1
100
AcDbEntity
  8
0
100
AcDbEllipse
 62
7
  6
BYLAYER
 10
34.6760886652
 20
45.9868163634
 30
0.0
 11
16.4701088518
 21
-3.1914787721
 31
0.0
 40
0.3966914607
 41
1.0805283483
 42
1.0869790632
  0
ELLIPSE
  5
3B2
100
AcDbEntity
  8
0
100
AcDbEllipse
 62
7
  6
BYLAYER
 10
38.6540794386
 20
41.0381725129
 30
0.0
 11
2.7687058055
 21
15.3398886832
 31
0.0
 40
0.2132528315
 41
-0.8312056116
 42
-0.8253126145
  0
ELLIPSE
  5
3B3
100
AcDbEntity
  8
0
100
AcDbEllipse
 62
7
  6
BYLAYER
 10
38.4871739432
 20
40.846097764
 30
0.0
 11
3.4319453554
 21
15.5864221355
 31
0.0
 40
0.2616433071
 41
-0.9002799068
 42
-0.8956180888
  0
ENDSEC
  0
SECTION
  2
OBJECTS
  0
DICTIONARY
  5
C
100
AcDbDictionary
280
0
281
1
  3
ACAD_GROUP
350
D
  3
ACAD_MLINESTYLE
350
17
  3
ACAD_LAYOUT
350
1A
  3
ACAD_PLOTSETTINGS
350
19
  3
ACAD_PLOTSTYLENAME
350
E
  0
DICTIONARY
  5
D
102
{ACAD_REACTORS
330
C
102
}
100
AcDbDictionary
280
0
281
1
  0
ACDBDICTIONARYWDFLT
  5
E
102
{ACAD_REACTORS
330
C
102
}
100
AcDbDictionary
281
1
  3
Normal
350
F
100
AcDbDictionaryWithDefault
340
F
  0
DICTIONARY
  5
17
102
{ACAD_REACTORS
330
C
102
}
100
AcDbDictionary
280
0
281
1
  3
Standard
350
18
  0
DICTIONARY
  5
19
102
{ACAD_REACTORS
330
C
102
}
100
AcDbDictionary
281
1
  0
DICTIONARY
  5
1A
102
{ACAD_REACTORS
330
C
102
}
100
AcDbDictionary
281
1
  3
Model
350
3B4
  3
Layout1
350
3B5
  0
ACDBPLACEHOLDER
  5
F
102
{ACAD_REACTORS
330
E
102
}
  0
MLINESTYLE
  5
18
102
{ACAD_REACTORS
330
17
102
}
100
AcDbMlineStyle
  2
STANDARD
 70
0
  3

 62
256
 51
90.0
 52
90.0
 71
2
 49
0.5
 62
256
  6
BYLAYER
 49
-0.5
 62
256
  6
BYLAYER
  0
LAYOUT
  5
3B4
102
{ACAD_REACTORS
330
1A
102
}
100
AcDbPlotSettings
  1

  2
none_device
  4

  6

 40
0.0
 41
0.0
 42
0.0
 43
0.0
 44
210.0
 45
297.0
 46
0.0
 47
0.0
 48
0.0
 49
0.0
140
0.0
141
0.0
142
1.0
143
1.0
 70
1024
 72
1
 73
0
 74
0
  7

 75
0
147
1.0
148
0.0
149
0.0
100
AcDbLayout
  1
Model
 70
0
 71
0
 10
0.0
 20
0.0
 11
210.0
 21
297.0
 12
0.0
 22
0.0
 32
0.0
 14
0.0
 24
0.0
 34
0.0
 15
0.0
 25
0.0
 35
0.0
146
0.0
 13
0.0
 23
0.0
 33
0.0
 16
1.0
 26
0.0
 36
0.0
 17
0.0
 27
1.0
 37
0.0
 76
0
330
210
345
0
346
0
  0
LAYOUT
  5
3B5
102
{ACAD_REACTORS
330
1A
102
}
100
AcDbPlotSettings
  1

  2
none_device
  4

  6

 40
0.0
 41
0.0
 42
0.0
 43
0.0
 44
210.0
 45
297.0
 46
0.0
 47
0.0
 48
0.0
 49
0.0
140
0.0
141
0.0
142
1.0
143
1.0
 70
0
 72
1
 73
0
 74
0
  7

 75
0
147
1.0
148
0.0
149
0.0
100
AcDbLayout
  1
Layout1
 70
0
 71
1
 10
0.0
 20
0.0
 11
210.0
 21
297.0
 12
0.0
 22
0.0
 32
0.0
 14
0.0
 24
0.0
 34
0.0
 15
0.0
 25
0.0
 35
0.0
146
0.0
 13
0.0
 23
0.0
 33
0.0
 16
1.0
 26
0.0
 36
0.0
 17
0.0
 27
1.0
 37
0.0
 76
0
330
211
345
0
346
0
  0
ENDSEC
  0
EOF
