999
DXF file: C:\Users\sesa63760\Dev\_Creo\CAD\MCADID0003964_3D-CAD\drw0001_1.dxf
999
Pro/ENGINEER 2019471 by Parametric Technology Corporation
  0
SECTION
  2
HEADER
  9
$ACADVER
  1
AC1024
  9
$DWGCODEPAGE
  3
ANSI_1252
  9
$EXTMAX
 10
60.7966152144
 20
85.9837843747
 30
0.0
  9
$EXTMIN
 10
0.0
 20
0.0
 30
0.0
  9
$LIMMIN
 10
0.0
 20
0.0
  9
$LIMMAX
 10
60.7966152144
 20
85.9837843747
  9
$VIEWCTR
 10
30.3983076072
 20
42.9918921873
  9
$VIEWSIZE
 40
85.9837843747
  9
$CLAYER
  8
0
  9
$LTSCALE
 40
5.6048689074
  9
$CELTYPE
  6
BYLAYER
  9
$DIMSCALE
 40
1.0
  9
$DIMASZ
 40
0.7237692287
  9
$DIMEXO
 40
1.0
  9
$DIMDLI
 40
3.8724548815
  9
$DIMEXE
 40
1.0
  9
$DIMCEN
 40
0.9171603667
  9
$DIMLFAC
 40
1.0
  9
$DIMBLK
  1
_FILLED
  9
$DIMALT
 70
0
  9
$DIMALTF
 40
0.0393700787
  9
$DIMTXT
 40
1.0132769202
  9
$DIMTOL
 70
1
  9
$DIMLIM
 70
0
  9
$DIMTFAC
 40
1.0
  9
$DIMTP
 40
0.01
  9
$DIMTM
 40
0.01
  9
$DIMGAP
 40
0.625
  9
$DIMDSEP
 70
46
  9
$AUNITS
 70
0
  9
$PDMODE
 70
3
  9
$PDSIZE
 40
0.3125
  9
$HANDSEED
  5
2D3
  9
$TILEMODE
 70
1
  9
$MEASUREMENT
 70
1
  9
$INSUNITS
 70
4
  0
ENDSEC
  0
SECTION
  2
CLASSES
  0
CLASS
  1
ACDBDICTIONARYWDFLT
  2
AcDbDictionaryWithDefault
  3
AutoCAD 2000
 90
0
 91
1
280
0
281
0
  0
CLASS
  1
ACDBPLACEHOLDER
  2
AcDbPlaceHolder
  3
AutoCAD 2000
 90
0
 91
1
280
0
281
0
  0
CLASS
  1
LAYOUT
  2
AcDbLayout
  3
AutoCAD 2000
 90
0
 91
0
280
0
281
0
  0
ENDSEC
  0
SECTION
  2
TABLES
  0
TABLE
  2
VPORT
  5
8
100
AcDbSymbolTable
 70
2
  0
VPORT
  5
1F4
100
AcDbSymbolTableRecord
100
AcDbViewportTableRecord
  2
*ACTIVE
 70
0
 10
0.0
 20
0.0
 11
1.0
 21
1.0
 12
30.3983076072
 22
42.9918921873
 13
0.0
 23
0.0
 14
1.0
 24
1.0
 15
0.0
 25
0.0
 16
0.0
 26
0.0
 36
1.0
 17
0.0
 27
0.0
 37
0.0
 40
85.9837843747
 41
0.7070707071
 42
50.0
 43
0.0
 44
0.0
 50
0.0
 51
0.0
 71
0
 72
100
 73
1
 74
1
 75
0
 76
0
 77
0
 78
0
  0
ENDTAB
  0
TABLE
  2
LTYPE
  5
5
100
AcDbSymbolTable
 70
6
  0
LTYPE
  5
14
100
AcDbSymbolTableRecord
100
AcDbLinetypeTableRecord
  2
BYBLOCK
 70
0
  3

 72
65
 73
0
 40
0.0
  0
LTYPE
  5
15
100
AcDbSymbolTableRecord
100
AcDbLinetypeTableRecord
  2
BYLAYER
 70
0
  3

 72
65
 73
0
 40
0.0
  0
LTYPE
  5
16
100
AcDbSymbolTableRecord
100
AcDbLinetypeTableRecord
  2
CONTINUOUS
 70
64
  3
Solid line
 72
65
 73
0
 40
0.0
  0
LTYPE
  5
1F5
100
AcDbSymbolTableRecord
100
AcDbLinetypeTableRecord
  2
CENTER
 70
64
  3
____ _ ____ _ ____ _ ____ _ ____ _ ____ _ ____
 72
65
 73
4
 40
0.6
 49
0.375
 74
0
 49
-0.075
 74
0
 49
0.075
 74
0
 49
-0.075
 74
0
  0
LTYPE
  5
1F6
100
AcDbSymbolTableRecord
100
AcDbLinetypeTableRecord
  2
HIDDEN
 70
64
  3
- - - - - - - - - - - - - - - - - - - -
 72
65
 73
2
 40
0.2
 49
0.1
 74
0
 49
-0.1
 74
0
  0
LTYPE
  5
1F7
100
AcDbSymbolTableRecord
100
AcDbLinetypeTableRecord
  2
PHANTOM
 70
64
  3
_____ _ _ _____ _ _ _____ _ _ _____
 72
65
 73
6
 40
0.8
 49
0.45
 74
0
 49
-0.05
 74
0
 49
0.1
 74
0
 49
-0.05
 74
0
 49
0.1
 74
0
 49
-0.05
 74
0
  0
LTYPE
  5
1F8
100
AcDbSymbolTableRecord
100
AcDbLinetypeTableRecord
  2
DOT
 70
64
  3
. . . . . . . . . . . . . . . . . . . .
 72
65
 73
2
 40
0.2
 49
0.1
 74
0
 49
-0.1
 74
0
  0
LTYPE
  5
1F9
100
AcDbSymbolTableRecord
100
AcDbLinetypeTableRecord
  2
DASHED
 70
64
  3
- - - - - - - - - - - - - - - - - - - -
 72
65
 73
2
 40
0.2
 49
0.1
 74
0
 49
-0.1
 74
0
  0
ENDTAB
  0
TABLE
  2
LAYER
  5
2
100
AcDbSymbolTable
 70
36
  0
LAYER
  5
10
100
AcDbSymbolTableRecord
100
AcDbLayerTableRecord
  2
0
 70
0
 62
7
  6
CONTINUOUS
370
-3
390
F
  0
LAYER
  5
1FA
100
AcDbSymbolTableRecord
100
AcDbLayerTableRecord
  2
DEFAULT_1
 70
0
 62
7
  6
CENTER
370
-3
390
F
  0
LAYER
  5
1FB
100
AcDbSymbolTableRecord
100
AcDbLayerTableRecord
  2
DEFAULT_2
 70
0
 62
7
  6
HIDDEN
370
-3
390
F
  0
LAYER
  5
1FC
100
AcDbSymbolTableRecord
100
AcDbLayerTableRecord
  2
DEFAULT_3
 70
0
 62
7
  6
PHANTOM
370
-3
390
F
  0
LAYER
  5
1FD
100
AcDbSymbolTableRecord
100
AcDbLayerTableRecord
  2
00_COMPONENTS
 70
0
 62
7
  6
CONTINUOUS
370
-3
390
F
  0
LAYER
  5
1FE
100
AcDbSymbolTableRecord
100
AcDbLayerTableRecord
  2
01_1_DEFAULT_DATUMS
 70
0
 62
7
  6
CONTINUOUS
370
-3
390
F
  0
LAYER
  5
1FF
100
AcDbSymbolTableRecord
100
AcDbLayerTableRecord
  2
01_PLANES
 70
0
 62
7
  6
CONTINUOUS
370
-3
390
F
  0
LAYER
  5
200
100
AcDbSymbolTableRecord
100
AcDbLayerTableRecord
  2
02_COORD_SYS
 70
0
 62
7
  6
CONTINUOUS
370
-3
390
F
  0
LAYER
  5
201
100
AcDbSymbolTableRecord
100
AcDbLayerTableRecord
  2
03_AXES
 70
0
 62
7
  6
CONTINUOUS
370
-3
390
F
  0
LAYER
  5
202
100
AcDbSymbolTableRecord
100
AcDbLayerTableRecord
  2
04_POINTS
 70
0
 62
7
  6
CONTINUOUS
370
-3
390
F
  0
LAYER
  5
203
100
AcDbSymbolTableRecord
100
AcDbLayerTableRecord
  2
05_CURVES
 70
0
 62
7
  6
CONTINUOUS
370
-3
390
F
  0
LAYER
  5
204
100
AcDbSymbolTableRecord
100
AcDbLayerTableRecord
  2
06_SURFS
 70
0
 62
7
  6
CONTINUOUS
370
-3
390
F
  0
LAYER
  5
205
100
AcDbSymbolTableRecord
100
AcDbLayerTableRecord
  2
07_COSMETICS
 70
0
 62
7
  6
CONTINUOUS
370
-3
390
F
  0
LAYER
  5
206
100
AcDbSymbolTableRecord
100
AcDbLayerTableRecord
  2
10_NOTES
 70
0
 62
7
  6
CONTINUOUS
370
-3
390
F
  0
LAYER
  5
207
100
AcDbSymbolTableRecord
100
AcDbLayerTableRecord
  2
11_NOTES_PUB
 70
0
 62
7
  6
CONTINUOUS
370
-3
390
F
  0
LAYER
  5
208
100
AcDbSymbolTableRecord
100
AcDbLayerTableRecord
  2
13_REF_GTOL
 70
0
 62
7
  6
CONTINUOUS
370
-3
390
F
  0
LAYER
  5
209
100
AcDbSymbolTableRecord
100
AcDbLayerTableRecord
  2
16_MISC
 70
0
 62
7
  6
CONTINUOUS
370
-3
390
F
  0
LAYER
  5
20A
100
AcDbSymbolTableRecord
100
AcDbLayerTableRecord
  2
17_NO_PRINT
 70
0
 62
7
  6
CONTINUOUS
370
-3
390
F
  0
LAYER
  5
20B
100
AcDbSymbolTableRecord
100
AcDbLayerTableRecord
  2
18_DATUM_CAMS_JOINTS
 70
0
 62
7
  6
CONTINUOUS
370
-3
390
F
  0
LAYER
  5
20C
100
AcDbSymbolTableRecord
100
AcDbLayerTableRecord
  2
19_DATUM_FUNCTIONAL
 70
0
 62
7
  6
CONTINUOUS
370
-3
390
F
  0
LAYER
  5
20D
100
AcDbSymbolTableRecord
100
AcDbLayerTableRecord
  2
20_DATUM_KINEMATIC_SCHEME
 70
0
 62
7
  6
CONTINUOUS
370
-3
390
F
  0
ENDTAB
  0
TABLE
  2
STYLE
  5
3
100
AcDbSymbolTable
 70
1
  0
STYLE
  5
11
100
AcDbSymbolTableRecord
100
AcDbTextStyleTableRecord
  2
STANDARD
 70
0
 40
0.0
 41
1.0
 50
0.0
 71
0
 42
0.2
  3
ARIAL.TTF
  4

  0
STYLE
  5
20E
100
AcDbSymbolTableRecord
100
AcDbTextStyleTableRecord
  2
TEXTSTYLE_1
 70
0
 40
0.0
 41
0.8
 50
0.0
 71
0
 42
0.2
  3
gdt
  4

  0
ENDTAB
  0
TABLE
  2
VIEW
  5
6
100
AcDbSymbolTable
 70
0
  0
ENDTAB
  0
TABLE
  2
UCS
  5
7
100
AcDbSymbolTable
 70
0
  0
ENDTAB
  0
TABLE
  2
APPID
  5
9
100
AcDbSymbolTable
 70
1
  0
APPID
  5
20F
100
AcDbSymbolTableRecord
100
AcDbRegAppTableRecord
  2
ACAD
 70
0
  0
ENDTAB
  0
TABLE
  2
BLOCK_RECORD
  5
1
100
AcDbSymbolTable
 70
0
  0
BLOCK_RECORD
  5
210
100
AcDbSymbolTableRecord
100
AcDbBlockTableRecord
  2
*Model_Space
  0
BLOCK_RECORD
  5
211
100
AcDbSymbolTableRecord
100
AcDbBlockTableRecord
  2
*Paper_Space
  0
BLOCK_RECORD
  5
212
100
AcDbSymbolTableRecord
100
AcDbBlockTableRecord
  2
_FILLED
  0
ENDTAB
  0
TABLE
  2
DIMSTYLE
  5
A
100
AcDbSymbolTable
 70
1
100
AcDbDimStyleTable
 71
0
  0
DIMSTYLE
105
213
100
AcDbSymbolTableRecord
100
AcDbDimStyleTableRecord
  2
STANDARD
 70
0
  3

  4

 40
1.0
 41
0.7237692287
 42
1.0
 43
0.38
 44
1.0
 45
0.0
 46
0.0
 47
0.01
 48
0.01
140
1.0132769202
141
0.09
142
0.0
143
25.4
144
1.0
145
0.0
146
1.0
147
0.625
 71
1
 72
0
 73
0
 74
0
 75
0
 76
0
 77
1
 78
8
 79
2
170
0
171
1
172
0
173
0
174
0
175
0
176
0
177
0
178
0
270
2
179
2
271
2
272
2
273
2
274
2
275
0
280
0
281
0
282
0
283
1
284
8
285
0
286
0
287
3
288
0
340
11
278
46
341
212
342
212
343
212
344
212
  0
ENDTAB
  0
ENDSEC
  0
SECTION
  2
BLOCKS
  0
BLOCK
  5
20
100
AcDbEntity
  8
0
100
AcDbBlockBegin
  2
*Model_Space
 70
0
 10
0.0
 20
0.0
 30
0.0
  3
*Model_Space
  1

  0
ENDBLK
  5
21
100
AcDbEntity
  8
0
100
AcDbBlockEnd
  0
BLOCK
  5
1C
100
AcDbEntity
  8
0
100
AcDbBlockBegin
  2
*Paper_Space
 70
0
 10
0.0
 20
0.0
 30
0.0
  3
*Paper_Space
  1

  0
ENDBLK
  5
1D
100
AcDbEntity
  8
0
100
AcDbBlockEnd
  0
BLOCK
  5
214
100
AcDbEntity
  8
0
100
AcDbBlockBegin
  2
_FILLED
 70
64
 10
0.0
 20
0.0
  3
_FILLED
  1

  0
SOLID
  5
215
100
AcDbEntity
  8
0
  6
BYBLOCK
 62
0
100
AcDbTrace
 10
0.0
 20
0.0
 11
-1.0
 21
0.25
 12
-1.0
 22
-0.25
 13
-1.0
 23
-0.25
  0
ENDBLK
  5
216
100
AcDbEntity
  8
0
  6
BYBLOCK
 62
0
100
AcDbBlockEnd
  0
ENDSEC
  0
SECTION
  2
ENTITIES
  0
LWPOLYLINE
  5
217
100
AcDbEntity
  8
0
100
AcDbPolyline
 62
7
  6
BYLAYER
 90
5
 70
0
 10
7.1921935758
 20
41.2969902446
 10
7.259716387
 20
37.9532014253
 10
8.1959769034
 20
34.174196945
 10
9.9199731515
 20
30.3974507219
 10
11.7728757426
 20
27.7012625926
  0
LWPOLYLINE
  5
218
100
AcDbEntity
  8
0
100
AcDbPolyline
 62
7
  6
BYLAYER
 90
4
 70
0
 10
13.0898983977
 20
26.1522438078
 10
15.0631502306
 20
24.1800049092
 10
18.0169433073
 20
22.298581082
 10
20.7732971086
 20
21.5146314722
  0
LWPOLYLINE
  5
219
100
AcDbEntity
  8
0
100
AcDbPolyline
 62
7
  6
BYLAYER
 90
7
 70
0
 10
11.74379242
 20
27.6844714287
 10
9.8126773051
 20
30.5134115293
 10
8.0498371668
 20
34.4767826219
 10
7.1495364857
 20
38.4318177248
 10
7.2027644206
 20
42.0070080649
 10
8.2101679864
 20
44.8550567586
 10
10.0630303826
 20
46.6983432955
  0
LWPOLYLINE
  5
21A
100
AcDbEntity
  8
0
100
AcDbPolyline
 62
7
  6
BYLAYER
 90
3
 70
0
 10
11.6168360062
 20
31.4387241559
 10
12.9140319778
 20
29.5746340104
 10
13.7415553709
 20
28.8378735213
  0
LINE
  5
21B
100
AcDbEntity
  8
0
100
AcDbLine
 62
7
  6
BYLAYER
 10
22.0325877426
 20
60.1274087718
 11
19.4230360083
 21
58.6207923688
  0
LINE
  5
21C
100
AcDbEntity
  8
0
100
AcDbLine
 62
7
  6
BYLAYER
 10
25.7869705374
 20
62.2949897503
 11
28.3965222834
 21
63.80160616
  0
LWPOLYLINE
  5
21D
100
AcDbEntity
  8
0
100
AcDbPolyline
 62
7
  6
BYLAYER
 90
3
 70
0
 10
31.259311854
 20
62.5578987517
 10
28.6232964957
 20
61.7441705809
 10
27.6484865062
 20
60.8400358967
  0
LWPOLYLINE
  5
21E
100
AcDbEntity
  8
0
100
AcDbPolyline
 62
7
  6
BYLAYER
 90
3
 70
0
 10
27.4232465806
 20
23.8122927279
 10
29.1921831467
 20
24.0354848421
 10
29.8851781118
 20
24.3676569642
  0
LINE
  5
21F
100
AcDbEntity
  8
0
100
AcDbLine
 62
7
  6
BYLAYER
 10
12.1137071655
 20
47.8821202801
 11
12.0930467716
 21
47.8645721032
  0
LINE
  5
220
100
AcDbEntity
  8
0
100
AcDbLine
 62
7
  6
BYLAYER
 10
12.869270423
 20
39.4620836553
 11
13.0990915773
 21
39.7949261591
  0
LINE
  5
221
100
AcDbEntity
  8
0
100
AcDbLine
 62
7
  6
BYLAYER
 10
33.9032378641
 20
61.187831162
 11
31.2936860335
 21
59.6812147035
  0
LINE
  5
222
100
AcDbEntity
  8
0
100
AcDbLine
 62
7
  6
BYLAYER
 10
37.6576206035
 20
63.3554121085
 11
40.2671723639
 21
64.8620285266
  0
LINE
  5
223
100
AcDbEntity
  8
0
100
AcDbLine
 62
7
  6
BYLAYER
 10
14.7299157082
 20
49.392754711
 11
12.0905798481
 21
47.8688266387
  0
LINE
  5
224
100
AcDbEntity
  8
0
100
AcDbLine
 62
7
  6
BYLAYER
 10
12.0429211268
 20
47.8414269263
 11
10.0630303826
 21
46.6983432955
  0
LINE
  5
225
100
AcDbEntity
  8
0
100
AcDbLine
 62
7
  6
BYLAYER
 10
34.6199794324
 20
60.8347703313
 11
32.0466444298
 21
59.3490635433
  0
LINE
  5
226
100
AcDbEntity
  8
0
100
AcDbLine
 62
7
  6
BYLAYER
 10
38.410578961
 20
63.023260926
 11
40.983913971
 21
64.5089677183
  0
LINE
  5
227
100
AcDbEntity
  8
0
100
AcDbLine
 62
7
  6
BYLAYER
 10
12.1171521687
 20
47.8837711961
 11
12.1137071655
 21
47.8821202801
  0
LINE
  5
228
100
AcDbEntity
  8
0
100
AcDbLine
 62
7
  6
BYLAYER
 10
11.4300695797
 20
38.1534725432
 11
13.1765257795
 21
39.7414593767
  0
LINE
  5
229
100
AcDbEntity
  8
0
100
AcDbLine
 62
7
  6
BYLAYER
 10
24.0694416796
 20
42.9631590831
 11
24.0544706923
 21
42.97811822
  0
LINE
  5
22A
100
AcDbEntity
  8
0
100
AcDbLine
 62
7
  6
BYLAYER
 10
24.0330398096
 20
42.9565960349
 11
24.0524913566
 21
42.9371177211
  0
LINE
  5
22B
100
AcDbEntity
  8
0
100
AcDbLine
 62
7
  6
BYLAYER
 10
24.0344898239
 20
42.9588387236
 11
24.0524913566
 21
42.9371177211
  0
LINE
  5
22C
100
AcDbEntity
  8
0
100
AcDbLine
 62
7
  6
BYLAYER
 10
24.0694416796
 20
42.9631590831
 11
24.0556012871
 21
42.9798641355
  0
LINE
  5
22D
100
AcDbEntity
  8
0
100
AcDbLine
 62
7
  6
BYLAYER
 10
23.9987312959
 20
42.9223346677
 11
24.0100111493
 21
42.908696024
  0
LINE
  5
22E
100
AcDbEntity
  8
0
100
AcDbLine
 62
7
  6
BYLAYER
 10
23.9987312959
 20
42.9223346677
 11
24.0090832414
 21
42.9072764035
  0
LINE
  5
22F
100
AcDbEntity
  8
0
100
AcDbLine
 62
7
  6
BYLAYER
 10
14.2604784553
 20
29.604146278
 11
15.3626278844
 21
30.3384925395
  0
LINE
  5
230
100
AcDbEntity
  8
0
100
AcDbLine
 62
7
  6
BYLAYER
 10
7.283532053
 20
25.1093542766
 11
14.3545704252
 21
29.1917958153
  0
LINE
  5
231
100
AcDbEntity
  8
0
100
AcDbLine
 62
7
  6
BYLAYER
 10
46.7355795252
 20
45.7628928117
 11
44.1622444718
 21
44.2771859943
  0
LINE
  5
232
100
AcDbEntity
  8
0
100
AcDbLine
 62
7
  6
BYLAYER
 10
50.5261790271
 20
47.951383391
 11
53.0995140397
 21
49.4370901847
  0
LINE
  5
233
100
AcDbEntity
  8
0
100
AcDbLine
 62
7
  6
BYLAYER
 10
8.2835275761
 20
23.3773008843
 11
15.3545659483
 21
27.459742423
  0
LINE
  5
234
100
AcDbEntity
  8
0
100
AcDbLine
 62
7
  6
BYLAYER
 10
47.0598753636
 20
44.8208968791
 11
44.4503236186
 21
43.31428047
  0
LINE
  5
235
100
AcDbEntity
  8
0
100
AcDbLine
 62
7
  6
BYLAYER
 10
50.8142581381
 20
46.988477846
 11
53.4238099139
 21
48.4950942729
  0
LINE
  5
236
100
AcDbEntity
  8
0
100
AcDbLine
 62
7
  6
BYLAYER
 10
15.6646244247
 20
27.1720796004
 11
16.8516646929
 21
27.7593897376
  0
LINE
  5
237
100
AcDbEntity
  8
0
100
AcDbLine
 62
7
  6
BYLAYER
 10
17.5964392484
 20
27.4729432249
 11
19.8449080011
 21
28.1914136205
  0
LINE
  5
238
100
AcDbEntity
  8
0
100
AcDbLine
 62
7
  6
BYLAYER
 10
26.3607879052
 20
23.2176795748
 11
26.3539372468
 21
23.2118500467
  0
LINE
  5
239
100
AcDbEntity
  8
0
100
AcDbLine
 62
7
  6
BYLAYER
 10
26.3114128088
 20
23.1756641215
 11
26.2927766747
 21
23.1598058108
  0
LINE
  5
23A
100
AcDbEntity
  8
0
100
AcDbLine
 62
7
  6
BYLAYER
 10
26.3634920601
 20
23.2006215631
 11
26.370313766
 21
23.2064156687
  0
LINE
  5
23B
100
AcDbEntity
  8
0
100
AcDbLine
 62
7
  6
BYLAYER
 10
26.3685892813
 20
23.204357299
 11
26.3609894409
 21
23.1997899455
  0
LINE
  5
23C
100
AcDbEntity
  8
0
100
AcDbLine
 62
7
  6
BYLAYER
 10
26.313664358
 20
23.1717794
 11
24.3129665871
 21
22.0165824553
  0
LINE
  5
23D
100
AcDbEntity
  8
0
100
AcDbLine
 62
7
  6
BYLAYER
 10
26.3602551413
 20
23.1986100037
 11
28.9798519127
 21
24.7109938709
  0
LINE
  5
23E
100
AcDbEntity
  8
0
100
AcDbLine
 62
7
  6
BYLAYER
 10
32.1334086413
 20
25.6656657175
 11
29.8851781118
 21
24.3676569642
  0
LINE
  5
23F
100
AcDbEntity
  8
0
100
AcDbLine
 62
7
  6
BYLAYER
 10
26.3600470569
 20
23.1989706472
 11
26.3634920601
 21
23.2006215631
  0
LWPOLYLINE
  5
240
100
AcDbEntity
  8
0
100
AcDbPolyline
 62
7
  6
BYLAYER
 90
6
 70
0
 10
24.3129665871
 20
22.0165824553
 10
21.999014477
 20
21.3424746477
 10
19.2820753648
 20
21.7240794304
 10
17.8446391851
 20
22.3083643168
 10
14.9646672955
 20
24.1996844605
 10
13.0490800689
 20
26.1286774753
  0
LWPOLYLINE
  5
241
100
AcDbEntity
  8
0
100
AcDbPolyline
 62
7
  6
BYLAYER
 90
4
 70
0
 10
47.235931113
 20
31.135479211
 10
48.6460462541
 20
32.4433594579
 10
49.9175891234
 20
35.2539467793
 10
50.351274433
 20
38.8073853409
  0
LINE
  5
242
100
AcDbEntity
  8
0
100
AcDbLine
 62
7
  6
BYLAYER
 10
47.059875379
 20
28.9933162204
 11
44.4503236032
 21
27.4866997935
  0
LINE
  5
243
100
AcDbEntity
  8
0
100
AcDbLine
 62
7
  6
BYLAYER
 10
50.8142581536
 20
31.1608971872
 11
53.4238098985
 21
32.6675135963
  0
LINE
  5
244
100
AcDbEntity
  8
0
100
AcDbLine
 62
7
  6
BYLAYER
 10
46.7355794998
 20
28.3839575368
 11
44.1622444971
 21
26.8982507488
  0
LINE
  5
245
100
AcDbEntity
  8
0
100
AcDbLine
 62
7
  6
BYLAYER
 10
50.5261790284
 20
30.5724481315
 11
53.0995140384
 21
32.0581549238
  0
LINE
  5
246
100
AcDbEntity
  8
0
100
AcDbLine
 62
7
  6
BYLAYER
 10
44.480064453
 20
61.8991362573
 11
44.472587527
 21
61.9032846642
  0
LWPOLYLINE
  5
247
100
AcDbEntity
  8
0
100
AcDbPolyline
 62
7
  6
BYLAYER
 90
3
 70
0
 10
44.4762521988
 20
61.901784186
 10
47.0576883437
 20
60.0767613832
 10
49.3877987022
 20
57.6860271282
  0
LINE
  5
248
100
AcDbEntity
  8
0
100
AcDbLine
 62
7
  6
BYLAYER
 10
49.3837590519
 20
57.5782997917
 11
49.4049367266
 21
57.5526756977
  0
LINE
  5
249
100
AcDbEntity
  8
0
100
AcDbLine
 62
7
  6
BYLAYER
 10
49.3837590519
 20
57.5782997917
 11
50.5268839932
 21
56.0772714222
  0
LWPOLYLINE
  5
24A
100
AcDbEntity
  8
0
100
AcDbPolyline
 62
7
  6
BYLAYER
 90
4
 70
0
 10
49.4700273724
 20
57.6016590647
 10
51.6148726728
 20
54.545599207
 10
53.2694490077
 20
51.1851961008
 10
54.3188666018
 20
47.75198867
  0
LINE
  5
24B
100
AcDbEntity
  8
0
100
AcDbLine
 62
7
  6
BYLAYER
 10
50.5268839932
 20
56.0772714222
 11
52.470100039
 21
52.782898958
  0
LWPOLYLINE
  5
24C
100
AcDbEntity
  8
0
100
AcDbPolyline
 62
7
  6
BYLAYER
 90
3
 70
0
 10
52.470100039
 20
52.782898958
 10
53.8428489683
 20
49.2992839822
 10
54.2286706498
 20
47.4222855396
  0
LWPOLYLINE
  5
24D
100
AcDbEntity
  8
0
100
AcDbPolyline
 62
7
  6
BYLAYER
 90
3
 70
0
 10
54.3188666018
 20
47.75198867
 10
54.6876678737
 20
44.4823329271
 10
54.6586012054
 20
44.2382362111
  0
ARC
  5
24E
100
AcDbEntity
  8
0
100
AcDbCircle
 62
7
  6
BYLAYER
 10
134.1479146497
 20
50.4324393688
 40
109.3700271435
100
AcDbArc
 50
174.0030656742
 51
174.6814502185
  0
ARC
  5
24F
100
AcDbEntity
  8
0
100
AcDbCircle
 62
7
  6
BYLAYER
 10
104.4843810833
 20
-12.2055778986
 40
108.3679703908
100
AcDbArc
 50
136.5692195245
 51
136.885888346
  0
ARC
  5
250
100
AcDbEntity
  8
0
100
AcDbCircle
 62
7
  6
BYLAYER
 10
97.5096724595
 20
-15.3047652116
 40
107.5291163186
100
AcDbArc
 50
136.5679843251
 51
136.8871235437
  0
ARC
  5
251
100
AcDbEntity
  8
0
100
AcDbCircle
 62
7
  6
BYLAYER
 10
130.5750101004
 20
69.6053467551
 40
90.0482192557
100
AcDbArc
 50
196.3362145758
 51
196.9757261679
  0
ARC
  5
252
100
AcDbEntity
  8
0
100
AcDbCircle
 62
7
  6
BYLAYER
 10
136.6989831178
 20
73.2077531917
 40
89.7977526694
100
AcDbArc
 50
196.3353226967
 51
196.9766180524
  0
ARC
  5
253
100
AcDbEntity
  8
0
100
AcDbCircle
 62
7
  6
BYLAYER
 10
-29.62078372
 20
20.4325998736
 40
87.6579039433
100
AcDbArc
 50
18.6711799099
 51
19.3223649625
  0
ARC
  5
254
100
AcDbEntity
  8
0
100
AcDbCircle
 62
7
  6
BYLAYER
 10
-35.9723356484
 20
16.7626653774
 40
87.6448083094
100
AcDbArc
 50
18.671131263
 51
19.3224136149
  0
ARC
  5
255
100
AcDbEntity
  8
0
100
AcDbCircle
 62
7
  6
BYLAYER
 10
-22.1865933638
 20
65.4547665488
 40
78.2592537237
100
AcDbArc
 50
331.7257574952
 51
332.2311319983
  0
ARC
  5
256
100
AcDbEntity
  8
0
100
AcDbCircle
 62
7
  6
BYLAYER
 10
-15.2341580304
 20
68.8157684575
 40
77.5926084824
100
AcDbArc
 50
331.723586492
 51
332.233303003
  0
ARC
  5
257
100
AcDbEntity
  8
0
100
AcDbCircle
 62
7
  6
BYLAYER
 10
67.4760875339
 20
129.9318149415
 40
72.9490122554
100
AcDbArc
 50
245.8731836943
 51
246.5195618556
  0
ARC
  5
258
100
AcDbEntity
  8
0
100
AcDbCircle
 62
7
  6
BYLAYER
 10
60.9537046165
 20
125.898428567
 40
72.5564339958
100
AcDbArc
 50
245.8714350081
 51
246.5213105399
  0
ARC
  5
259
100
AcDbEntity
  8
0
100
AcDbCircle
 62
7
  6
BYLAYER
 10
104.3844819696
 20
-2.2192025411
 40
66.8920322056
100
AcDbArc
 50
153.6350403948
 51
154.1962319495
  0
ARC
  5
25A
100
AcDbEntity
  8
0
100
AcDbCircle
 62
7
  6
BYLAYER
 10
11.1946935245
 20
4.9385317613
 40
66.6035621789
100
AcDbArc
 50
63.4318691965
 51
64.1191973923
  0
ARC
  5
25B
100
AcDbEntity
  8
0
100
AcDbCircle
 62
7
  6
BYLAYER
 10
110.3860319067
 20
1.6324026114
 40
66.4885570706
100
AcDbArc
 50
153.6333376298
 51
154.1979347129
  0
ARC
  5
25C
100
AcDbEntity
  8
0
100
AcDbCircle
 62
7
  6
BYLAYER
 10
4.9058397665
 20
1.4167543246
 40
66.433656551
100
AcDbArc
 50
63.430990258
 51
64.1200763328
  0
ARC
  5
25D
100
AcDbEntity
  8
0
100
AcDbCircle
 62
7
  6
BYLAYER
 10
30.6985384223
 20
42.416588355
 40
23.9430066333
100
AcDbArc
 50
39.2646996026
 51
39.6146424106
  0
ARC
  5
25E
100
AcDbEntity
  8
0
100
AcDbCircle
 62
7
  6
BYLAYER
 10
31.5161267955
 20
42.8846252287
 40
23.1206363887
100
AcDbArc
 50
39.3702090264
 51
39.6147454229
  0
ARC
  5
25F
100
AcDbEntity
  8
0
100
AcDbCircle
 62
7
  6
BYLAYER
 10
31.6078231054
 20
42.9605768136
 40
23.0015697907
100
AcDbArc
 50
39.6146417203
 51
40.0485290167
  0
ARC
  5
260
100
AcDbEntity
  8
0
100
AcDbCircle
 62
7
  6
BYLAYER
 10
31.9110290153
 20
43.115995064
 40
22.6815906181
100
AcDbArc
 50
39.6148029535
 51
39.8056625033
  0
ARC
  5
261
100
AcDbEntity
  8
0
100
AcDbCircle
 62
7
  6
BYLAYER
 10
32.1310479793
 20
43.2501769785
 40
22.5078928268
100
AcDbArc
 50
39.7276591715
 51
39.9210024147
  0
ARC
  5
262
100
AcDbEntity
  8
0
100
AcDbCircle
 62
7
  6
BYLAYER
 10
40.147471078
 20
43.7452034258
 40
14.5171153311
100
AcDbArc
 50
0.0080128246
 51
1.5602200402
  0
ARC
  5
263
100
AcDbEntity
  8
0
100
AcDbCircle
 62
7
  6
BYLAYER
 10
36.8459460906
 20
49.6274689483
 40
14.4233472106
100
AcDbArc
 50
58.4473251809
 51
59.9972651574
  0
ARC
  5
264
100
AcDbEntity
  8
0
100
AcDbCircle
 62
7
  6
BYLAYER
 10
42.0237157224
 20
44.4083264809
 40
12.6639661326
100
AcDbArc
 50
356.8513221488
 51
358.7701717712
  0
ARC
  5
265
100
AcDbEntity
  8
0
100
AcDbCircle
 62
7
  6
BYLAYER
 10
38.3903405322
 20
50.9933840942
 40
12.4911984383
100
AcDbArc
 50
61.6093141282
 51
63.1080584813
  0
ARC
  5
266
100
AcDbEntity
  8
0
100
AcDbCircle
 62
7
  6
BYLAYER
 10
39.0516348845
 20
52.12427786
 40
11.1810421817
100
AcDbArc
 50
60.5981292623
 51
60.9545668737
  0
ARC
  5
267
100
AcDbEntity
  8
0
100
AcDbCircle
 62
7
  6
BYLAYER
 10
18.0231401053
 20
40.1391211162
 40
10.9067220654
100
AcDbArc
 50
173.2575348283
 51
173.8564823177
  0
ARC
  5
268
100
AcDbEntity
  8
0
100
AcDbCircle
 62
7
  6
BYLAYER
 10
39.3259639464
 20
52.6202589683
 40
10.6142498723
100
AcDbArc
 50
60.995475141
 51
61.869471328
  0
ARC
  5
269
100
AcDbEntity
  8
0
100
AcDbCircle
 62
7
  6
BYLAYER
 10
21.5238643381
 20
28.303475314
 40
6.8546112274
100
AcDbArc
 50
263.7758920997
 51
265.4703954838
  0
ARC
  5
26A
100
AcDbEntity
  8
0
100
AcDbCircle
 62
7
  6
BYLAYER
 10
16.5299466409
 20
35.5093373809
 40
6.0600257467
100
AcDbArc
 50
180.6540483675
 51
181.7404289062
  0
ARC
  5
26B
100
AcDbEntity
  8
0
100
AcDbCircle
 62
7
  6
BYLAYER
 10
23.9157882203
 20
27.2770837345
 40
4.754296336
100
AcDbArc
 50
300.2888663092
 51
300.9516135781
  0
ARC
  5
26C
100
AcDbEntity
  8
0
100
AcDbCircle
 62
7
  6
BYLAYER
 10
14.4193305084
 20
43.7249633002
 40
4.7531463107
100
AcDbArc
 50
119.020783539
 51
119.9975782709
  0
ARC
  5
26D
100
AcDbEntity
  8
0
100
AcDbCircle
 62
7
  6
BYLAYER
 10
19.2902756304
 20
30.4600268539
 40
2.495100679
100
AcDbArc
 50
282.6552800866
 51
284.7983271417
  0
ARC
  5
26E
100
AcDbEntity
  8
0
100
AcDbCircle
 62
7
  6
BYLAYER
 10
16.0897848544
 20
29.9045180743
 40
1.0095323646
100
AcDbArc
 50
164.1961017053
 51
164.718042374
  0
LINE
  5
26F
100
AcDbEntity
  8
0
100
AcDbLine
 62
7
  6
BYLAYER
 10
49.4416681295
 20
57.6358528236
 11
49.4700273724
 21
57.6016590647
  0
SPLINE
  5
270
100
AcDbEntity
  8
0
100
AcDbSpline
 62
7
  6
BYLAYER
 70
0
 71
3
 72
29
 73
25
 74
0
 42
0.0000001
 43
0.0000001
 44
0.0000000001
 40
0.0
 40
0.0
 40
0.0
 40
0.0
 40
0.0069257812
 40
0.0128718884
 40
0.0187647892
 40
0.0249000494
 40
0.0312502684
 40
0.0377996251
 40
0.0513115779
 40
0.0651965683
 40
0.0793796624
 40
0.0937957193
 40
0.1084016634
 40
0.1380281614
 40
0.1680923864
 40
0.1984967104
 40
0.2291770463
 40
0.2911723141
 40
0.3538502618
 40
0.4806718061
 40
0.6089448992
 40
0.7383643086
 40
0.8687306862
 40
1.0
 40
1.0
 40
1.0
 40
1.0
 10
45.3962768859
 20
61.2639429029
 30
0.0
 10
45.3984044547
 20
61.265171248
 30
0.0
 10
45.4017985591
 20
61.2688021444
 30
0.0
 10
45.4025851765
 20
61.2757144309
 30
0.0
 10
45.4007477364
 20
61.2818864522
 30
0.0
 10
45.3980568865
 20
61.2878289167
 30
0.0
 10
45.3946393478
 20
61.2936677271
 30
0.0
 10
45.3892151148
 20
61.3013140906
 30
0.0
 10
45.3815223777
 20
61.3105940929
 30
0.0
 10
45.3715214588
 20
61.321440004
 30
0.0
 10
45.3608265417
 20
61.332062627
 30
0.0
 10
45.3496247332
 20
61.3425243737
 30
0.0
 10
45.334063317
 20
61.3563338368
 30
0.0
 10
45.3138865566
 20
61.3732954309
 30
0.0
 10
45.288884347
 20
61.3932049168
 30
0.0
 10
45.2631956627
 20
61.4128409869
 30
0.0
 10
45.228082926
 20
61.4387888719
 30
0.0
 10
45.18315829
 20
61.4707119416
 30
0.0
 10
45.1094549537
 20
61.5209795745
 30
0.0
 10
45.0150060575
 20
61.5825240855
 30
0.0
 10
44.8993459021
 20
61.6548261352
 30
0.0
 10
44.7815110117
 20
61.7259888916
 30
0.0
 10
44.6619055923
 20
61.7962527113
 30
0.0
 10
44.5813348574
 20
61.8423178241
 30
0.0
 10
44.5407685092
 20
61.8651770134
 30
0.0
  0
SPLINE
  5
271
100
AcDbEntity
  8
0
100
AcDbSpline
 62
7
  6
BYLAYER
 70
0
 71
3
 72
9
 73
5
 74
0
 42
0.0000001
 43
0.0000001
 44
0.0000000001
 40
0.0
 40
0.0
 40
0.0
 40
0.0
 40
0.248478939
 40
1.0
 40
1.0
 40
1.0
 40
1.0
 10
44.3303899462
 20
61.9807087847
 30
0.0
 10
44.3142568206
 20
61.9893244473
 30
0.0
 10
44.2492239235
 20
62.0237994921
 30
0.0
 10
44.1837443975
 20
62.057439428
 30
0.0
 10
44.1341962063
 20
62.0820339022
 30
0.0
  0
SPLINE
  5
272
100
AcDbEntity
  8
0
100
AcDbSpline
 62
7
  6
BYLAYER
 70
0
 71
3
 72
11
 73
7
 74
0
 42
0.0000001
 43
0.0000001
 44
0.0000000001
 40
0.0
 40
0.0
 40
0.0
 40
0.0
 40
0.2438668952
 40
0.4915241304
 40
0.7434624398
 40
1.0
 40
1.0
 40
1.0
 40
1.0
 10
53.4238098985
 20
48.495094264
 30
0.0
 10
53.4965037836
 20
47.8762942979
 30
0.0
 10
53.6280163572
 20
46.6272455932
 30
0.0
 10
53.7751419017
 20
44.7332200425
 30
0.0
 10
53.8665285246
 20
42.8032376468
 30
0.0
 10
53.8867936191
 20
41.5040335891
 30
0.0
 10
53.8867936191
 20
40.8486061103
 30
0.0
  0
SPLINE
  5
273
100
AcDbEntity
  8
0
100
AcDbSpline
 62
7
  6
BYLAYER
 70
0
 71
3
 72
10
 73
6
 74
0
 42
0.0000001
 43
0.0000001
 44
0.0000000001
 40
0.0
 40
0.0
 40
0.0
 40
0.0
 40
0.2518493708
 40
0.5024476483
 40
1.0
 40
1.0
 40
1.0
 40
1.0
 10
47.5228030165
 20
57.2507897331
 30
0.0
 10
48.0279300367
 20
56.6224088591
 30
0.0
 10
49.0165793734
 20
55.3532649211
 30
0.0
 10
50.9074748908
 20
52.7696919331
 30
0.0
 10
52.2410847495
 20
50.7787663817
 30
0.0
 10
53.0995140397
 20
49.4370901847
 30
0.0
  0
SPLINE
  5
274
100
AcDbEntity
  8
0
100
AcDbSpline
 62
7
  6
BYLAYER
 70
0
 71
3
 72
9
 73
5
 74
0
 42
0.0000001
 43
0.0000001
 44
0.0000000001
 40
0.0
 40
0.0
 40
0.0
 40
0.0
 40
0.5170818264
 40
1.0
 40
1.0
 40
1.0
 40
1.0
 10
28.3965222775
 20
63.8016061566
 30
0.0
 10
29.4954204546
 20
63.9683739533
 30
0.0
 10
31.6238740741
 20
64.2701545741
 30
0.0
 10
33.7609004177
 20
64.5067569615
 30
0.0
 10
34.7948279638
 20
64.5991192373
 30
0.0
  0
SPLINE
  5
275
100
AcDbEntity
  8
0
100
AcDbSpline
 62
7
  6
BYLAYER
 70
0
 71
3
 72
9
 73
5
 74
0
 42
0.0000001
 43
0.0000001
 44
0.0000000001
 40
0.0
 40
0.0
 40
0.0
 40
0.0
 40
0.5216732059
 40
1.0
 40
1.0
 40
1.0
 40
1.0
 10
34.7948279638
 20
64.5991192373
 30
0.0
 10
35.743953012
 20
64.6839060037
 30
0.0
 10
37.5668285657
 20
64.8107293755
 30
0.0
 10
39.3934586202
 20
64.8572746276
 30
0.0
 10
40.2671723639
 20
64.8620285266
 30
0.0
  0
SPLINE
  5
276
100
AcDbEntity
  8
0
100
AcDbSpline
 62
7
  6
BYLAYER
 70
0
 71
3
 72
11
 73
7
 74
0
 42
0.0000001
 43
0.0000001
 44
0.0000000001
 40
0.0
 40
0.0
 40
0.0
 40
0.0
 40
0.2442164204
 40
0.4925837148
 40
0.7446867162
 40
1.0
 40
1.0
 40
1.0
 40
1.0
 10
53.8867936191
 20
40.8486061103
 30
0.0
 10
53.8867936191
 20
40.1812740632
 30
0.0
 10
53.8654270545
 20
38.8351866453
 30
0.0
 10
53.7731808396
 20
36.8021384735
 30
0.0
 10
53.6255641766
 20
34.7420076717
 30
0.0
 10
53.4955947844
 20
33.3614653429
 30
0.0
 10
53.4238098985
 20
32.6675135963
 30
0.0
  0
SPLINE
  5
277
100
AcDbEntity
  8
0
100
AcDbSpline
 62
7
  6
BYLAYER
 70
0
 71
3
 72
9
 73
5
 74
0
 42
0.0000001
 43
0.0000001
 44
0.0000000001
 40
0.0
 40
0.0
 40
0.0
 40
0.0
 40
0.2444366294
 40
1.0
 40
1.0
 40
1.0
 40
1.0
 10
47.1503114511
 20
30.0980766171
 30
0.0
 10
47.4258882025
 20
30.1329042096
 30
0.0
 10
48.5527201439
 20
30.2798439863
 30
0.0
 10
49.6774130612
 20
30.4429076155
 30
0.0
 10
50.5261790321
 20
30.5724481336
 30
0.0
  0
SPLINE
  5
278
100
AcDbEntity
  8
0
100
AcDbSpline
 62
7
  6
BYLAYER
 70
0
 71
3
 72
10
 73
6
 74
0
 42
0.0000001
 43
0.0000001
 44
0.0000000001
 40
0.0
 40
0.0
 40
0.0
 40
0.0
 40
0.5016775205
 40
0.7513518
 40
1.0
 40
1.0
 40
1.0
 40
1.0
 10
40.9839139673
 20
64.5089677162
 30
0.0
 10
42.135061952
 20
63.3488470575
 30
0.0
 10
43.8257962964
 20
61.5772755219
 30
0.0
 10
45.9787001723
 20
59.1318701632
 30
0.0
 10
47.015300739
 20
57.8821254857
 30
0.0
 10
47.5228030165
 20
57.2507897331
 30
0.0
  0
SPLINE
  5
279
100
AcDbEntity
  8
0
100
AcDbSpline
 62
7
  6
BYLAYER
 70
0
 71
3
 72
16
 73
12
 74
0
 42
0.0000001
 43
0.0000001
 44
0.0000000001
 40
0.0
 40
0.0
 40
0.0
 40
0.0
 40
0.1491232975
 40
0.2932350943
 40
0.4309609492
 40
0.5611954033
 40
0.6831905407
 40
0.7966605095
 40
0.8503030695
 40
0.9019889181
 40
1.0
 40
1.0
 40
1.0
 40
1.0
 10
43.9872839342
 20
55.2095688681
 30
0.0
 10
43.5128018358
 20
55.7998272359
 30
0.0
 10
42.5341125031
 20
56.9247976381
 30
0.0
 10
40.963319631
 20
58.4526034321
 30
0.0
 10
39.3355256592
 20
59.7727569349
 30
0.0
 10
37.67775335
 20
60.8629478671
 30
0.0
 10
36.0174360937
 20
61.7046432354
 30
0.0
 10
34.6281631175
 20
62.1958216791
 30
0.0
 10
33.5437740802
 20
62.4437137471
 30
0.0
 10
32.5210842699
 20
62.5914400934
 30
0.0
 10
31.7550871222
 20
62.6021873476
 30
0.0
 10
31.259311854
 20
62.5578987517
 30
0.0
  0
SPLINE
  5
27A
100
AcDbEntity
  8
0
100
AcDbSpline
 62
7
  6
BYLAYER
 70
0
 71
3
 72
11
 73
7
 74
0
 42
0.0000001
 43
0.0000001
 44
0.0000000001
 40
0.0
 40
0.0
 40
0.0
 40
0.0
 40
0.2442164204
 40
0.4925837148
 40
0.7446867162
 40
1.0
 40
1.0
 40
1.0
 40
1.0
 10
50.351274433
 20
38.8073853409
 30
0.0
 10
50.351274433
 20
39.474717388
 30
0.0
 10
50.3726409975
 20
40.8208048059
 30
0.0
 10
50.4648872125
 20
42.8538529777
 30
0.0
 10
50.6125038754
 20
44.9139837795
 30
0.0
 10
50.7424732676
 20
46.2945261083
 30
0.0
 10
50.8142581536
 20
46.9884778549
 30
0.0
  0
SPLINE
  5
27B
100
AcDbEntity
  8
0
100
AcDbSpline
 62
7
  6
BYLAYER
 70
0
 71
3
 72
10
 73
6
 74
0
 42
0.0000001
 43
0.0000001
 44
0.0000000001
 40
0.0
 40
0.0
 40
0.0
 40
0.0
 40
0.5016775218
 40
0.7513517917
 40
1.0
 40
1.0
 40
1.0
 40
1.0
 10
50.5261790271
 20
47.951383391
 30
0.0
 10
49.3750298949
 20
49.111505209
 30
0.0
 10
47.6842934571
 20
50.8830781346
 30
0.0
 10
45.5313891362
 20
53.3284873979
 30
0.0
 10
44.4947865895
 20
54.5782325203
 30
0.0
 10
43.9872838671
 20
55.2095689849
 30
0.0
  0
SPLINE
  5
27C
100
AcDbEntity
  8
0
100
AcDbSpline
 62
7
  6
BYLAYER
 70
0
 71
3
 72
10
 73
6
 74
0
 42
0.0000001
 43
0.0000001
 44
0.0000000001
 40
0.0
 40
0.0
 40
0.0
 40
0.0
 40
0.2518493845
 40
0.5024476491
 40
1.0
 40
1.0
 40
1.0
 40
1.0
 10
43.9872838671
 20
55.2095689849
 30
0.0
 10
43.4821574084
 20
55.8379493185
 30
0.0
 10
42.4935080831
 20
57.1070912102
 30
0.0
 10
40.6026162909
 20
59.6906629283
 30
0.0
 10
39.269007382
 20
61.6815860914
 30
0.0
 10
38.4105789647
 20
63.0232609282
 30
0.0
  0
SPLINE
  5
27D
100
AcDbEntity
  8
0
100
AcDbSpline
 62
7
  6
BYLAYER
 70
0
 71
3
 72
11
 73
7
 74
0
 42
0.0000001
 43
0.0000001
 44
0.0000000001
 40
0.0
 40
0.0
 40
0.0
 40
0.0
 40
0.2438668952
 40
0.4915241304
 40
0.7434624398
 40
1.0
 40
1.0
 40
1.0
 40
1.0
 10
50.8142581536
 20
31.1608971872
 30
0.0
 10
50.7415642685
 20
31.7796971533
 30
0.0
 10
50.6100516949
 20
33.028745858
 30
0.0
 10
50.4629261504
 20
34.9227714087
 30
0.0
 10
50.3715395275
 20
36.8527538044
 30
0.0
 10
50.351274433
 20
38.1519578621
 30
0.0
 10
50.351274433
 20
38.8073853409
 30
0.0
  0
SPLINE
  5
27E
100
AcDbEntity
  8
0
100
AcDbSpline
 62
7
  6
BYLAYER
 70
0
 71
3
 72
9
 73
5
 74
0
 42
0.0000001
 43
0.0000001
 44
0.0000000001
 40
0.0
 40
0.0
 40
0.0
 40
0.0
 40
0.5170818251
 40
1.0
 40
1.0
 40
1.0
 40
1.0
 10
37.6576206035
 20
63.3554121085
 30
0.0
 10
36.5587213855
 20
63.1886441558
 30
0.0
 10
34.430265724
 20
62.8868634031
 30
0.0
 10
32.2932373528
 20
62.650260767
 30
0.0
 10
31.2593088145
 20
62.5578984891
 30
0.0
  0
SPLINE
  5
27F
100
AcDbEntity
  8
0
100
AcDbSpline
 62
7
  6
BYLAYER
 70
0
 71
3
 72
15
 73
11
 74
0
 42
0.0000001
 43
0.0000001
 44
0.0000000001
 40
0.0
 40
0.0
 40
0.0
 40
0.0
 40
0.1108410466
 40
0.2280578212
 40
0.3507094039
 40
0.4776259749
 40
0.6074737875
 40
0.7388131822
 40
0.8701524818
 40
1.0
 40
1.0
 40
1.0
 40
1.0
 10
50.351274433
 20
38.8073853409
 30
0.0
 10
50.351274433
 20
39.4687872663
 30
0.0
 10
50.2720527133
 20
40.8304083464
 30
0.0
 10
49.9426585531
 20
42.8999670729
 30
0.0
 10
49.4048735021
 20
45.0243920056
 30
0.0
 10
48.6678185848
 20
47.1676645357
 30
0.0
 10
47.7439537457
 20
49.2937723874
 30
0.0
 10
46.6488610441
 20
51.3668116872
 30
0.0
 10
45.4011827461
 20
53.351577071
 30
0.0
 10
44.4727257661
 20
54.6056766486
 30
0.0
 10
43.9872839342
 20
55.2095688681
 30
0.0
  0
SPLINE
  5
280
100
AcDbEntity
  8
0
100
AcDbSpline
 62
7
  6
BYLAYER
 70
0
 71
3
 72
9
 73
5
 74
0
 42
0.0000001
 43
0.0000001
 44
0.0000000001
 40
0.0
 40
0.0
 40
0.0
 40
0.0
 40
0.521673212
 40
1.0
 40
1.0
 40
1.0
 40
1.0
 10
31.2593088145
 20
62.5578984891
 30
0.0
 10
30.310184813
 20
62.4731118958
 30
0.0
 10
28.4873113056
 20
62.3462886388
 30
0.0
 10
26.6606832953
 20
62.2997436446
 30
0.0
 10
25.7869705432
 20
62.2949897537
 30
0.0
  0
SPLINE
  5
281
100
AcDbEntity
  8
0
100
AcDbSpline
 62
7
  6
BYLAYER
 70
0
 71
3
 72
11
 73
7
 74
0
 42
0.0000001
 43
0.0000001
 44
0.0000000001
 40
0.0
 40
0.0
 40
0.0
 40
0.0
 40
0.2442164204
 40
0.4925837148
 40
0.7446867162
 40
1.0
 40
1.0
 40
1.0
 40
1.0
 10
47.5228590841
 20
37.1744087254
 30
0.0
 10
47.5228590841
 20
36.5070766784
 30
0.0
 10
47.5014925196
 20
35.1609892605
 30
0.0
 10
47.4092463046
 20
33.1279410887
 30
0.0
 10
47.2616296417
 20
31.0678102868
 30
0.0
 10
47.1316602495
 20
29.6872679581
 30
0.0
 10
47.0598753636
 20
28.9933162115
 30
0.0
  0
SPLINE
  5
282
100
AcDbEntity
  8
0
100
AcDbSpline
 62
7
  6
BYLAYER
 70
0
 71
3
 72
10
 73
6
 74
0
 42
0.0000001
 43
0.0000001
 44
0.0000000001
 40
0.0
 40
0.0
 40
0.0
 40
0.0
 40
0.4826779604
 40
0.7376079165
 40
1.0
 40
1.0
 40
1.0
 40
1.0
 10
37.623355448
 20
26.0793419918
 30
0.0
 10
38.679566352
 20
26.1736948732
 30
0.0
 10
40.2906060118
 20
26.3527456448
 30
0.0
 10
42.4679740046
 20
26.6454776449
 30
0.0
 10
43.5923823982
 20
26.8112771494
 30
0.0
 10
44.1622444971
 20
26.8982507488
 30
0.0
  0
SPLINE
  5
283
100
AcDbEntity
  8
0
100
AcDbSpline
 62
7
  6
BYLAYER
 70
0
 71
3
 72
11
 73
7
 74
0
 42
0.0000001
 43
0.0000001
 44
0.0000000001
 40
0.0
 40
0.0
 40
0.0
 40
0.0
 40
0.2438668952
 40
0.4915241304
 40
0.7434624398
 40
1.0
 40
1.0
 40
1.0
 40
1.0
 10
47.0598753636
 20
44.8208968791
 30
0.0
 10
47.1325692487
 20
44.202096913
 30
0.0
 10
47.2640818222
 20
42.9530482083
 30
0.0
 10
47.4112073667
 20
41.0590226576
 30
0.0
 10
47.5025939896
 20
39.1290402619
 30
0.0
 10
47.5228590841
 20
37.8298362043
 30
0.0
 10
47.5228590841
 20
37.1744087254
 30
0.0
  0
SPLINE
  5
284
100
AcDbEntity
  8
0
100
AcDbSpline
 62
7
  6
BYLAYER
 70
0
 71
3
 72
10
 73
6
 74
0
 42
0.0000001
 43
0.0000001
 44
0.0000000001
 40
0.0
 40
0.0
 40
0.0
 40
0.0
 40
0.2518493708
 40
0.5024476483
 40
1.0
 40
1.0
 40
1.0
 40
1.0
 10
41.1588684816
 20
53.5765923482
 30
0.0
 10
41.6639955018
 20
52.9482114742
 30
0.0
 10
42.6526448385
 20
51.6790675363
 30
0.0
 10
44.5435403558
 20
49.0954945482
 30
0.0
 10
45.8771502146
 20
47.1045689968
 30
0.0
 10
46.7355795047
 20
45.7628927999
 30
0.0
  0
SPLINE
  5
285
100
AcDbEntity
  8
0
100
AcDbSpline
 62
7
  6
BYLAYER
 70
0
 71
3
 72
10
 73
6
 74
0
 42
0.0000001
 43
0.0000001
 44
0.0000000001
 40
0.0
 40
0.0
 40
0.0
 40
0.0
 40
0.5016775205
 40
0.7513518
 40
1.0
 40
1.0
 40
1.0
 40
1.0
 10
34.6199794324
 20
60.8347703313
 30
0.0
 10
35.7711274171
 20
59.6746496727
 30
0.0
 10
37.4618617614
 20
57.9030781371
 30
0.0
 10
39.6147656374
 20
55.4576727783
 30
0.0
 10
40.6513662041
 20
54.2079281008
 30
0.0
 10
41.1588684816
 20
53.5765923482
 30
0.0
  0
SPLINE
  5
286
100
AcDbEntity
  8
0
100
AcDbSpline
 62
7
  6
BYLAYER
 70
0
 71
3
 72
9
 73
5
 74
0
 42
0.0000001
 43
0.0000001
 44
0.0000000001
 40
0.0
 40
0.0
 40
0.0
 40
0.0
 40
0.5216732059
 40
1.0
 40
1.0
 40
1.0
 40
1.0
 10
28.4308934289
 20
60.9249218524
 30
0.0
 10
29.3800184771
 20
61.0097086188
 30
0.0
 10
31.2028940308
 20
61.1365319906
 30
0.0
 10
33.0295240853
 20
61.1830772427
 30
0.0
 10
33.903237829
 20
61.1878311418
 30
0.0
  0
SPLINE
  5
287
100
AcDbEntity
  8
0
100
AcDbSpline
 62
7
  6
BYLAYER
 70
0
 71
3
 72
9
 73
5
 74
0
 42
0.0000001
 43
0.0000001
 44
0.0000000001
 40
0.0
 40
0.0
 40
0.0
 40
0.0
 40
0.5170818264
 40
1.0
 40
1.0
 40
1.0
 40
1.0
 10
22.0325877426
 20
60.1274087718
 30
0.0
 10
23.1314859196
 20
60.2941765685
 30
0.0
 10
25.2599395391
 20
60.5959571893
 30
0.0
 10
27.3969658828
 20
60.8325595766
 30
0.0
 10
28.4308934289
 20
60.9249218524
 30
0.0
  0
SPLINE
  5
288
100
AcDbEntity
  8
0
100
AcDbSpline
 62
7
  6
BYLAYER
 70
0
 71
3
 72
9
 73
5
 74
0
 42
0.0000001
 43
0.0000001
 44
0.0000000001
 40
0.0
 40
0.0
 40
0.0
 40
0.0
 40
0.2533384167
 40
1.0
 40
1.0
 40
1.0
 40
1.0
 10
19.0124818823
 20
58.1847029255
 30
0.0
 10
18.9620912495
 20
57.7047340315
 30
0.0
 10
18.7750534226
 20
55.8089820555
 30
0.0
 10
18.6420527414
 20
53.9074947926
 30
0.0
 10
18.5853777541
 20
52.4862424383
 30
0.0
  0
SPLINE
  5
289
100
AcDbEntity
  8
0
100
AcDbSpline
 62
7
  6
BYLAYER
 70
0
 71
3
 72
9
 73
5
 74
0
 42
0.0000001
 43
0.0000001
 44
0.0000000001
 40
0.0
 40
0.0
 40
0.0
 40
0.0
 40
0.4792599959
 40
1.0
 40
1.0
 40
1.0
 40
1.0
 10
32.3966363861
 20
25.8182251563
 30
0.0
 10
33.2328003402
 20
25.8258858901
 30
0.0
 10
34.9773811595
 20
25.8757216558
 30
0.0
 10
36.7183869795
 20
25.9984997993
 30
0.0
 10
37.623355448
 20
26.0793419918
 30
0.0
  0
SPLINE
  5
28A
100
AcDbEntity
  8
0
100
AcDbSpline
 62
7
  6
BYLAYER
 70
0
 71
3
 72
11
 73
7
 74
0
 42
0.0000001
 43
0.0000001
 44
0.0000000001
 40
0.0
 40
0.0
 40
0.0
 40
0.0
 40
0.2442164204
 40
0.4925837148
 40
0.7446867162
 40
1.0
 40
1.0
 40
1.0
 40
1.0
 10
43.9873398981
 20
35.1331879561
 30
0.0
 10
43.9873398981
 20
35.8005200031
 30
0.0
 10
44.0087064626
 20
37.146607421
 30
0.0
 10
44.1009526775
 20
39.1796555929
 30
0.0
 10
44.2485693405
 20
41.2397863947
 30
0.0
 10
44.3785387327
 20
42.6203287234
 30
0.0
 10
44.4503236186
 20
43.31428047
 30
0.0
  0
SPLINE
  5
28B
100
AcDbEntity
  8
0
100
AcDbSpline
 62
7
  6
BYLAYER
 70
0
 71
3
 72
10
 73
6
 74
0
 42
0.0000001
 43
0.0000001
 44
0.0000000001
 40
0.0
 40
0.0
 40
0.0
 40
0.0
 40
0.5016775218
 40
0.7513517917
 40
1.0
 40
1.0
 40
1.0
 40
1.0
 10
44.1622444922
 20
44.2771860061
 30
0.0
 10
43.01109536
 20
45.4373078242
 30
0.0
 10
41.3203589222
 20
47.2088807497
 30
0.0
 10
39.1674546013
 20
49.6542900131
 30
0.0
 10
38.1308520546
 20
50.9040351355
 30
0.0
 10
37.6233493322
 20
51.5353716001
 30
0.0
  0
SPLINE
  5
28C
100
AcDbEntity
  8
0
100
AcDbSpline
 62
7
  6
BYLAYER
 70
0
 71
3
 72
11
 73
7
 74
0
 42
0.0000001
 43
0.0000001
 44
0.0000000001
 40
0.0
 40
0.0
 40
0.0
 40
0.0
 40
0.2438668952
 40
0.4915241304
 40
0.7434624398
 40
1.0
 40
1.0
 40
1.0
 40
1.0
 10
44.4503236186
 20
27.4866998024
 30
0.0
 10
44.3776297335
 20
28.1054997685
 30
0.0
 10
44.2461171599
 20
29.3545484732
 30
0.0
 10
44.0989916154
 20
31.2485740239
 30
0.0
 10
44.0076049925
 20
33.1785564196
 30
0.0
 10
43.9873398981
 20
34.4777604772
 30
0.0
 10
43.9873398981
 20
35.1331879561
 30
0.0
  0
SPLINE
  5
28D
100
AcDbEntity
  8
0
100
AcDbSpline
 62
7
  6
BYLAYER
 70
0
 71
3
 72
9
 73
5
 74
0
 42
0.0000001
 43
0.0000001
 44
0.0000000001
 40
0.0
 40
0.0
 40
0.0
 40
0.0
 40
0.5170818251
 40
1.0
 40
1.0
 40
1.0
 40
1.0
 10
31.2936860686
 20
59.6812147237
 30
0.0
 10
30.1947868506
 20
59.5144467709
 30
0.0
 10
28.066331189
 20
59.2126660183
 30
0.0
 10
25.9293028179
 20
58.9760633821
 30
0.0
 10
24.8953742796
 20
58.8837011043
 30
0.0
  0
SPLINE
  5
28E
100
AcDbEntity
  8
0
100
AcDbSpline
 62
7
  6
BYLAYER
 70
0
 71
3
 72
15
 73
11
 74
0
 42
0.0000001
 43
0.0000001
 44
0.0000000001
 40
0.0
 40
0.0
 40
0.0
 40
0.0
 40
0.1108410466
 40
0.2280578212
 40
0.3507094039
 40
0.4776259749
 40
0.6074737875
 40
0.7388131822
 40
0.8701524818
 40
1.0
 40
1.0
 40
1.0
 40
1.0
 10
43.9873398981
 20
35.1331879561
 30
0.0
 10
43.9873398981
 20
35.7945898814
 30
0.0
 10
43.9081181784
 20
37.1562109616
 30
0.0
 10
43.5787240181
 20
39.225769688
 30
0.0
 10
43.0409389672
 20
41.3501946208
 30
0.0
 10
42.3038840499
 20
43.4934671508
 30
0.0
 10
41.3800192107
 20
45.6195750026
 30
0.0
 10
40.2849265091
 20
47.6926143024
 30
0.0
 10
39.0372482111
 20
49.6773796861
 30
0.0
 10
38.1087912311
 20
50.9314792638
 30
0.0
 10
37.6233493993
 20
51.5353714833
 30
0.0
  0
SPLINE
  5
28F
100
AcDbEntity
  8
0
100
AcDbSpline
 62
7
  6
BYLAYER
 70
0
 71
3
 72
10
 73
6
 74
0
 42
0.0000001
 43
0.0000001
 44
0.0000000001
 40
0.0
 40
0.0
 40
0.0
 40
0.0
 40
0.2518493845
 40
0.5024476491
 40
1.0
 40
1.0
 40
1.0
 40
1.0
 10
37.6233493322
 20
51.5353716001
 30
0.0
 10
37.1182228734
 20
52.1637519336
 30
0.0
 10
36.1295735482
 20
53.4328938254
 30
0.0
 10
34.238681756
 20
56.0164655434
 30
0.0
 10
32.905072847
 20
58.0073887066
 30
0.0
 10
32.0466444298
 20
59.3490635433
 30
0.0
  0
SPLINE
  5
290
100
AcDbEntity
  8
0
100
AcDbSpline
 62
7
  6
BYLAYER
 70
0
 71
3
 72
21
 73
17
 74
0
 42
0.0000001
 43
0.0000001
 44
0.0000000001
 40
0.0
 40
0.0
 40
0.0
 40
0.0
 40
0.0583121921
 40
0.1153127622
 40
0.1713798324
 40
0.2269688075
 40
0.2825603234
 40
0.3386249533
 40
0.3956129235
 40
0.4539386282
 40
0.5139689898
 40
0.5760109487
 40
0.6403122206
 40
0.7070523767
 40
0.8482230207
 40
1.0
 40
1.0
 40
1.0
 40
1.0
 10
37.6233553442
 20
26.0793419736
 30
0.0
 10
37.8604432907
 20
26.1005214557
 30
0.0
 10
38.3276077508
 20
26.1656525887
 30
0.0
 10
39.0077436337
 20
26.3349049466
 30
0.0
 10
39.6548773825
 20
26.5740458121
 30
0.0
 10
40.2658803968
 20
26.8818897733
 30
0.0
 10
40.8379484817
 20
27.257151469
 30
0.0
 10
41.3685729355
 20
27.6979629942
 30
0.0
 10
41.8552637395
 20
28.2023784483
 30
0.0
 10
42.2960444891
 20
28.7679166055
 30
0.0
 10
42.6889789748
 20
29.3920795614
 30
0.0
 10
43.0326082735
 20
30.0720014034
 30
0.0
 10
43.3254543169
 20
30.8047779281
 30
0.0
 10
43.652911644
 20
31.8677087355
 30
0.0
 10
43.922191166
 20
33.3163945987
 30
0.0
 10
43.9873398981
 20
34.5136299055
 30
0.0
 10
43.9873398981
 20
35.1331879561
 30
0.0
  0
SPLINE
  5
291
100
AcDbEntity
  8
0
100
AcDbSpline
 62
7
  6
BYLAYER
 70
0
 71
3
 72
9
 73
5
 74
0
 42
0.0000001
 43
0.0000001
 44
0.0000000001
 40
0.0
 40
0.0
 40
0.0
 40
0.0
 40
0.521673212
 40
1.0
 40
1.0
 40
1.0
 40
1.0
 10
24.8953742796
 20
58.8837011043
 30
0.0
 10
23.9462502781
 20
58.7989145109
 30
0.0
 10
22.1233767707
 20
58.6720912539
 30
0.0
 10
20.2967487604
 20
58.6255462597
 30
0.0
 10
19.4230360083
 20
58.6207923688
 30
0.0
  0
SPLINE
  5
292
100
AcDbEntity
  8
0
100
AcDbSpline
 62
7
  6
BYLAYER
 70
0
 71
3
 72
11
 73
7
 74
0
 42
0.0000001
 43
0.0000001
 44
0.0000000001
 40
0.0
 40
0.0
 40
0.0
 40
0.0
 40
0.2667712482
 40
0.521710753
 40
0.765736541
 40
1.0
 40
1.0
 40
1.0
 40
1.0
 10
33.8905307155
 20
26.5828910584
 30
0.0
 10
34.2103796295
 20
26.4762617149
 30
0.0
 10
34.8450235002
 20
26.2937167362
 30
0.0
 10
35.7975096653
 20
26.1140370513
 30
0.0
 10
36.7225943239
 20
26.0362199892
 30
0.0
 10
37.3284596265
 20
26.0529983503
 30
0.0
 10
37.6233553442
 20
26.0793419736
 30
0.0
  0
SPLINE
  5
293
100
AcDbEntity
  8
0
100
AcDbSpline
 62
7
  6
BYLAYER
 70
0
 71
3
 72
18
 73
14
 74
0
 42
0.0000001
 43
0.0000001
 44
0.0000000001
 40
0.0
 40
0.0
 40
0.0
 40
0.0
 40
0.1214548344
 40
0.1807342077
 40
0.2393759261
 40
0.2976977376
 40
0.3560244103
 40
0.4146739153
 40
0.4739543638
 40
0.5954512601
 40
0.7226784979
 40
0.8571907891
 40
1.0
 40
1.0
 40
1.0
 40
1.0
 10
24.8953773191
 20
58.8837013669
 30
0.0
 10
24.5184238135
 20
58.85002745
 30
0.0
 10
23.9597263316
 20
58.7553624035
 30
0.0
 10
23.2462772677
 20
58.535309934
 30
0.0
 10
22.7372424895
 20
58.327123073
 30
0.0
 10
22.2517843744
 20
58.0751649203
 30
0.0
 10
21.791233578
 20
57.7800717708
 30
0.0
 10
21.3568461991
 20
57.442752389
 30
0.0
 10
20.8099740377
 20
56.9340437966
 30
0.0
 10
20.1957944992
 20
56.1901062126
 30
0.0
 10
19.5905319484
 20
55.1554555829
 30
0.0
 10
19.115681555
 20
53.9836408853
 30
0.0
 10
18.8955629432
 20
53.1454942134
 30
0.0
 10
18.8063607359
 20
52.7095314033
 30
0.0
  0
SPLINE
  5
294
100
AcDbEntity
  8
0
100
AcDbSpline
 62
7
  6
BYLAYER
 70
0
 71
3
 72
16
 73
12
 74
0
 42
0.0000001
 43
0.0000001
 44
0.0000000001
 40
0.0
 40
0.0
 40
0.0
 40
0.0
 40
0.1491232975
 40
0.2932350943
 40
0.4309609492
 40
0.5611954033
 40
0.6831905407
 40
0.7966605095
 40
0.8503030695
 40
0.9019889181
 40
1.0
 40
1.0
 40
1.0
 40
1.0
 10
37.6233493993
 20
51.5353714833
 30
0.0
 10
37.1488673009
 20
52.125629851
 30
0.0
 10
36.1701779682
 20
53.2506002533
 30
0.0
 10
34.5993850961
 20
54.7784060473
 30
0.0
 10
32.9715911243
 20
56.09855955
 30
0.0
 10
31.313818815
 20
57.1887504822
 30
0.0
 10
29.6535015588
 20
58.0304458506
 30
0.0
 10
28.2642285826
 20
58.5216242943
 30
0.0
 10
27.1798395452
 20
58.7695163622
 30
0.0
 10
26.157149735
 20
58.9172427086
 30
0.0
 10
25.3911525873
 20
58.9279899627
 30
0.0
 10
24.8953773191
 20
58.8837013669
 30
0.0
  0
SPLINE
  5
295
100
AcDbEntity
  8
0
100
AcDbSpline
 62
7
  6
BYLAYER
 70
0
 71
3
 72
11
 73
7
 74
0
 42
0.0000001
 43
0.0000001
 44
0.0000000001
 40
0.0
 40
0.0
 40
0.0
 40
0.0
 40
0.2328537627
 40
0.4783027708
 40
0.7347189831
 40
1.0
 40
1.0
 40
1.0
 40
1.0
 10
44.411758776
 20
61.9139819673
 30
0.0
 10
44.8406020428
 20
61.6663897839
 30
0.0
 10
45.6943792652
 20
61.1098350004
 30
0.0
 10
46.9193050891
 20
60.1367780112
 30
0.0
 10
48.1071683221
 20
59.015933634
 30
0.0
 10
48.8525258776
 20
58.1924711712
 30
0.0
 10
49.2155186389
 20
57.7606197472
 30
0.0
  0
SPLINE
  5
296
100
AcDbEntity
  8
0
100
AcDbSpline
 62
7
  6
BYLAYER
 70
0
 71
3
 72
25
 73
21
 74
0
 42
0.0000001
 43
0.0000001
 44
0.0000000001
 40
0.0
 40
0.0
 40
0.0
 40
0.0
 40
0.0737218403
 40
0.148422186
 40
0.2234163001
 40
0.2980614768
 40
0.3716972091
 40
0.4436993008
 40
0.5134885548
 40
0.5805514824
 40
0.6444636216
 40
0.7049146905
 40
0.7617391129
 40
0.8149489721
 40
0.8647700938
 40
0.9116746176
 40
0.9342761717
 40
0.9564443612
 40
0.9783067613
 40
1.0
 40
1.0
 40
1.0
 40
1.0
 10
24.0100111493
 20
42.908696024
 30
0.0
 10
24.3526571394
 20
42.4940681953
 30
0.0
 10
25.0131627401
 20
41.6346316487
 30
0.0
 10
25.9176391875
 20
40.2771187206
 30
0.0
 10
26.7333323199
 20
38.8566202354
 30
0.0
 10
27.4495153212
 20
37.3920914395
 30
0.0
 10
28.0567446713
 20
35.9026221142
 30
0.0
 10
28.5470470815
 20
34.4078332293
 30
0.0
 10
28.9140000066
 20
32.9273086625
 30
0.0
 10
29.1527607864
 20
31.4803923891
 30
0.0
 10
29.2601221163
 20
30.0859112401
 30
0.0
 10
29.2344866366
 20
28.7618995567
 30
0.0
 10
29.0758735441
 20
27.5254038117
 30
0.0
 10
28.7856233548
 20
26.3922521211
 30
0.0
 10
28.3666404798
 20
25.3774173727
 30
0.0
 10
27.9073163405
 20
24.6322886648
 30
0.0
 10
27.4816666932
 20
24.1152526435
 30
0.0
 10
27.1383501449
 20
23.7699536608
 30
0.0
 10
26.7683876991
 20
23.4637223645
 30
0.0
 10
26.504176388
 20
23.2860146429
 30
0.0
 10
26.3685892813
 20
23.204357299
 30
0.0
  0
SPLINE
  5
297
100
AcDbEntity
  8
0
100
AcDbSpline
 62
7
  6
BYLAYER
 70
0
 71
3
 72
10
 73
6
 74
0
 42
0.0000001
 43
0.0000001
 44
0.0000000001
 40
0.0
 40
0.0
 40
0.0
 40
0.0
 40
0.2703286696
 40
0.5271119474
 40
1.0
 40
1.0
 40
1.0
 40
1.0
 10
54.6645862672
 20
43.7472336469
 30
0.0
 10
54.6645806573
 20
43.3691868076
 30
0.0
 10
54.6350484789
 20
42.6313184267
 30
0.0
 10
54.4532627322
 20
41.2440428477
 30
0.0
 10
54.1714368151
 20
40.2515712439
 30
0.0
 10
53.9093709912
 20
39.6443924999
 30
0.0
  0
SPLINE
  5
298
100
AcDbEntity
  8
0
100
AcDbSpline
 62
7
  6
BYLAYER
 70
0
 71
3
 72
11
 73
7
 74
0
 42
0.0000001
 43
0.0000001
 44
0.0000000001
 40
0.0
 40
0.0
 40
0.0
 40
0.0
 40
0.2430496155
 40
0.4889771166
 40
0.7404897346
 40
1.0
 40
1.0
 40
1.0
 40
1.0
 10
14.8852544477
 20
50.3484419432
 30
0.0
 10
14.6913520803
 20
50.2364986295
 30
0.0
 10
14.3159682206
 20
49.9846524576
 30
0.0
 10
13.8036733618
 20
49.5314096583
 30
0.0
 10
13.3437037704
 20
49.004970992
 30
0.0
 10
13.0786068756
 20
48.6144311456
 30
0.0
 10
12.9555102714
 20
48.4095002565
 30
0.0
  0
SPLINE
  5
299
100
AcDbEntity
  8
0
100
AcDbSpline
 62
7
  6
BYLAYER
 70
0
 71
3
 72
9
 73
5
 74
0
 42
0.0000001
 43
0.0000001
 44
0.0000000001
 40
0.0
 40
0.0
 40
0.0
 40
0.0
 40
0.2433157607
 40
1.0
 40
1.0
 40
1.0
 40
1.0
 10
42.6293039634
 20
62.831467443
 30
0.0
 10
42.7487601217
 20
62.7812547498
 30
0.0
 10
43.2361784235
 20
62.5665279065
 30
0.0
 10
43.7092238759
 20
62.319598569
 30
0.0
 10
44.0582159075
 20
62.1181097984
 30
0.0
  0
SPLINE
  5
29A
100
AcDbEntity
  8
0
100
AcDbSpline
 62
7
  6
BYLAYER
 70
0
 71
3
 72
11
 73
7
 74
0
 42
0.0000001
 43
0.0000001
 44
0.0000000001
 40
0.0
 40
0.0
 40
0.0
 40
0.0
 40
0.2177660095
 40
0.4508968553
 40
0.7103699668
 40
1.0
 40
1.0
 40
1.0
 40
1.0
 10
7.2835425909
 20
25.1093361594
 30
0.0
 10
7.2505663012
 20
25.0902799333
 30
0.0
 10
7.1888164633
 20
25.0384458189
 30
0.0
 10
7.1231207314
 20
24.9309816094
 30
0.0
 10
7.0841200175
 20
24.7985841034
 30
0.0
 10
7.0764200894
 20
24.7022234913
 30
0.0
 10
7.0764200894
 20
24.651568335
 30
0.0
  0
SPLINE
  5
29B
100
AcDbEntity
  8
0
100
AcDbSpline
 62
7
  6
BYLAYER
 70
0
 71
3
 72
17
 73
13
 74
0
 42
0.0000001
 43
0.0000001
 44
0.0000000001
 40
0.0
 40
0.0
 40
0.0
 40
0.0
 40
0.128688864
 40
0.2702797703
 40
0.4174318348
 40
0.5617733576
 40
0.6954455149
 40
0.8127096012
 40
0.8646749146
 40
0.9125085807
 40
0.9571389861
 40
1.0
 40
1.0
 40
1.0
 40
1.0
 10
7.0764200894
 20
24.651568335
 30
0.0
 10
7.0764200894
 20
24.5660934246
 30
0.0
 10
7.1003330902
 20
24.3863694403
 30
0.0
 10
7.189580045
 20
24.1224846301
 30
0.0
 10
7.3271094913
 20
23.8682820927
 30
0.0
 10
7.5018598111
 20
23.6446035519
 30
0.0
 10
7.699554546
 20
23.4695160688
 30
0.0
 10
7.8784957478
 20
23.3716709465
 30
0.0
 10
8.0184723747
 20
23.3344382356
 30
0.0
 10
8.1148108075
 20
23.3273444058
 30
0.0
 10
8.2045178226
 20
23.340491708
 30
0.0
 10
8.2588684666
 20
23.3630751688
 30
0.0
 10
8.2835170383
 20
23.3773190015
 30
0.0
  0
SPLINE
  5
29C
100
AcDbEntity
  8
0
100
AcDbSpline
 62
7
  6
BYLAYER
 70
0
 71
3
 72
11
 73
7
 74
0
 42
0.0000001
 43
0.0000001
 44
0.0000000001
 40
0.0
 40
0.0
 40
0.0
 40
0.0
 40
0.2655031353
 40
0.5180015041
 40
0.7607472572
 40
1.0
 40
1.0
 40
1.0
 40
1.0
 10
13.9469579396
 20
28.9928442389
 30
0.0
 10
13.9515741011
 20
29.0555199208
 30
0.0
 10
13.9703005817
 20
29.1774342514
 30
0.0
 10
14.0316501837
 20
29.3481213825
 30
0.0
 10
14.1270126642
 20
29.4955282735
 30
0.0
 10
14.2133495838
 20
29.5727449909
 30
0.0
 10
14.2604784553
 20
29.604146278
 30
0.0
  0
SPLINE
  5
29D
100
AcDbEntity
  8
0
100
AcDbSpline
 62
7
  6
BYLAYER
 70
0
 71
3
 72
15
 73
11
 74
0
 42
0.0000001
 43
0.0000001
 44
0.0000000001
 40
0.0
 40
0.0
 40
0.0
 40
0.0
 40
0.1295182465
 40
0.2607184954
 40
0.3920560954
 40
0.5220014618
 40
0.6490592128
 40
0.7718488861
 40
0.8891547056
 40
1.0
 40
1.0
 40
1.0
 40
1.0
 10
49.3898468272
 20
57.5507071612
 30
0.0
 10
49.7911933824
 20
57.0615833021
 30
0.0
 10
50.5593325452
 20
56.0436830812
 30
0.0
 10
51.5921565534
 20
54.4286891825
 30
0.0
 10
52.4997204964
 20
52.7376139605
 30
0.0
 10
53.2661476255
 20
51.0001315631
 30
0.0
 10
53.8780667248
 20
49.2464460143
 30
0.0
 10
54.3248400549
 20
47.5069840654
 30
0.0
 10
54.5986235972
 20
45.8121529469
 30
0.0
 10
54.664586144
 20
44.6969660055
 30
0.0
 10
54.6645779607
 20
44.155475802
 30
0.0
  0
SPLINE
  5
29E
100
AcDbEntity
  8
0
100
AcDbSpline
 62
7
  6
BYLAYER
 70
0
 71
3
 72
11
 73
7
 74
0
 42
0.0000001
 43
0.0000001
 44
0.0000000001
 40
0.0
 40
0.0
 40
0.0
 40
0.0
 40
0.2391146281
 40
0.48170578
 40
0.7342129456
 40
1.0
 40
1.0
 40
1.0
 40
1.0
 10
15.6646244247
 20
27.1720796004
 30
0.0
 10
15.6135299741
 20
27.1467996755
 30
0.0
 10
15.5027069443
 20
27.1105115208
 30
0.0
 10
15.3261380571
 20
27.1019828692
 30
0.0
 10
15.1464323174
 20
27.1350883445
 30
0.0
 10
15.0307897513
 20
27.1806742474
 30
0.0
 10
14.9738510119
 20
27.2084793271
 30
0.0
  0
SPLINE
  5
29F
100
AcDbEntity
  8
0
100
AcDbSpline
 62
7
  6
BYLAYER
 70
0
 71
3
 72
10
 73
6
 74
0
 42
0.0000001
 43
0.0000001
 44
0.0000000001
 40
0.0
 40
0.0
 40
0.0
 40
0.0
 40
0.5160077057
 40
0.7611157718
 40
1.0
 40
1.0
 40
1.0
 40
1.0
 10
16.2108844995
 20
27.4206384847
 30
0.0
 10
16.4469454559
 20
27.3736470286
 30
0.0
 10
16.8047268277
 20
27.3395451578
 30
0.0
 10
17.2699012956
 20
27.3860062761
 30
0.0
 10
17.4902983288
 20
27.4390272061
 30
0.0
 10
17.5964392484
 20
27.4729432249
 30
0.0
  0
SPLINE
  5
2A0
100
AcDbEntity
  8
0
100
AcDbSpline
 62
7
  6
BYLAYER
 70
0
 71
3
 72
13
 73
9
 74
0
 42
0.0000001
 43
0.0000001
 44
0.0000000001
 40
0.0
 40
0.0
 40
0.0
 40
0.0
 40
0.1102861641
 40
0.2233492276
 40
0.4609965379
 40
0.587368033
 40
0.7192464646
 40
1.0
 40
1.0
 40
1.0
 40
1.0
 10
11.4300695796
 20
38.1534725432
 30
0.0
 10
11.3495285902
 20
38.0802396554
 30
0.0
 10
11.1968331857
 20
37.9200506351
 30
0.0
 10
10.9289684685
 20
37.550913587
 30
0.0
 10
10.727531854
 20
37.1197575752
 30
0.0
 10
10.5905635821
 20
36.6493681814
 30
0.0
 10
10.4905763577
 20
36.1261249449
 30
0.0
 10
10.4671591529
 20
35.7172599517
 30
0.0
 10
10.4703157279
 20
35.4401618866
 30
0.0
  0
SPLINE
  5
2A1
100
AcDbEntity
  8
0
100
AcDbSpline
 62
7
  6
BYLAYER
 70
0
 71
3
 72
11
 73
7
 74
0
 42
0.0000001
 43
0.0000001
 44
0.0000000001
 40
0.0
 40
0.0
 40
0.0
 40
0.0
 40
0.2315048553
 40
0.47803887
 40
0.7357798426
 40
1.0
 40
1.0
 40
1.0
 40
1.0
 10
10.4727165158
 20
35.3252850447
 30
0.0
 10
10.4822680375
 20
35.0101960142
 30
0.0
 10
10.5514586745
 20
34.3605265891
 30
0.0
 10
10.7820495193
 20
33.383312287
 30
0.0
 10
11.1356237629
 20
32.3962973739
 30
0.0
 10
11.4445667391
 20
31.7545815248
 30
0.0
 10
11.6168360062
 20
31.4387241559
 30
0.0
  0
SPLINE
  5
2A2
100
AcDbEntity
  8
0
100
AcDbSpline
 62
7
  6
BYLAYER
 70
0
 71
3
 72
21
 73
17
 74
0
 42
0.0000001
 43
0.0000001
 44
0.0000000001
 40
0.0
 40
0.0
 40
0.0
 40
0.0
 40
0.0474455512
 40
0.0955564873
 40
0.1448831482
 40
0.1959086716
 40
0.2490268179
 40
0.3045400958
 40
0.3626537476
 40
0.4234881334
 40
0.4870805308
 40
0.5534009178
 40
0.6223575614
 40
0.6938019406
 40
0.8432942623
 40
1.0
 40
1.0
 40
1.0
 40
1.0
 10
12.1134583748
 20
47.8813263466
 30
0.0
 10
12.3050598535
 20
47.9876236797
 30
0.0
 10
12.7063458789
 20
48.1751753132
 30
0.0
 10
13.3472999239
 20
48.3737391713
 30
0.0
 10
14.0249650619
 20
48.4896904181
 30
0.0
 10
14.7346355054
 20
48.5222935835
 30
0.0
 10
15.4717141664
 20
48.4718702988
 30
0.0
 10
16.2315064856
 20
48.3388492225
 30
0.0
 10
17.0093086188
 20
48.1244350706
 30
0.0
 10
17.8002729895
 20
47.8300190938
 30
0.0
 10
18.5995393351
 20
47.4576310584
 30
0.0
 10
19.4021311539
 20
47.0096230626
 30
0.0
 10
20.2030704723
 20
46.4888432837
 30
0.0
 10
21.2782135003
 20
45.6898527241
 30
0.0
 10
22.5831987486
 20
44.5271218826
 30
0.0
 10
23.537285419
 20
43.479832751
 30
0.0
 10
23.9987312959
 20
42.9223346677
 30
0.0
  0
SPLINE
  5
2A3
100
AcDbEntity
  8
0
100
AcDbSpline
 62
7
  6
BYLAYER
 70
0
 71
3
 72
20
 73
16
 74
0
 42
0.0000001
 43
0.0000001
 44
0.0000000001
 40
0.0
 40
0.0
 40
0.0
 40
0.0
 40
0.0691726611
 40
0.1392090351
 40
0.2800666193
 40
0.4193523905
 40
0.4874278482
 40
0.5539428675
 40
0.6185573425
 40
0.6809725625
 40
0.740938256
 40
0.7982628977
 40
0.8528292455
 40
0.9046037945
 40
1.0
 40
1.0
 40
1.0
 40
1.0
 10
24.0524913566
 20
42.9371177211
 30
0.0
 10
24.3302782166
 20
42.6015081733
 30
0.0
 10
24.8699760315
 20
41.9098195697
 30
0.0
 10
25.8768965557
 20
40.4607043094
 30
0.0
 10
26.9860209927
 20
38.5491279193
 30
0.0
 10
27.878113737
 20
36.5403877145
 30
0.0
 10
28.4410478257
 20
34.9090286977
 30
0.0
 10
28.7795896733
 20
33.7001195209
 30
0.0
 10
29.0346009433
 20
32.5072641594
 30
0.0
 10
29.203916906
 20
31.3408384182
 30
0.0
 10
29.286002182
 20
30.2109305479
 30
0.0
 10
29.2800717937
 20
29.1274491101
 30
0.0
 10
29.1859897437
 20
28.0992685448
 30
0.0
 10
28.9508458207
 20
26.8498488846
 30
0.0
 10
28.637747339
 20
25.9654766706
 30
0.0
 10
28.3618648565
 20
25.4317419253
 30
0.0
  0
SPLINE
  5
2A4
100
AcDbEntity
  8
0
100
AcDbSpline
 62
7
  6
BYLAYER
 70
0
 71
3
 72
11
 73
7
 74
0
 42
0.0000001
 43
0.0000001
 44
0.0000000001
 40
0.0
 40
0.0
 40
0.0
 40
0.0
 40
0.2341402886
 40
0.4799663478
 40
0.7359387833
 40
1.0
 40
1.0
 40
1.0
 40
1.0
 10
44.3934272057
 20
61.9184605103
 30
0.0
 10
44.8184599471
 20
61.657551299
 30
0.0
 10
45.6631931022
 20
61.0785784471
 30
0.0
 10
46.8747360598
 20
60.0811545028
 30
0.0
 10
48.0478016747
 20
58.9452438533
 30
0.0
 10
48.7844052456
 20
58.1164371022
 30
0.0
 10
49.1430412114
 20
57.6831493135
 30
0.0
  0
SPLINE
  5
2A5
100
AcDbEntity
  8
0
100
AcDbSpline
 62
7
  6
BYLAYER
 70
0
 71
3
 72
23
 73
19
 74
0
 42
0.0000001
 43
0.0000001
 44
0.0000000001
 40
0.0
 40
0.0
 40
0.0
 40
0.0
 40
0.0825837767
 40
0.1623183951
 40
0.2383951213
 40
0.3102808336
 40
0.377594428
 40
0.4402149882
 40
0.4983465018
 40
0.5525764202
 40
0.6039140349
 40
0.6537480324
 40
0.7036947067
 40
0.7553543464
 40
0.810068231
 40
0.8687825742
 40
0.9320640227
 40
1.0
 40
1.0
 40
1.0
 40
1.0
 10
16.8239638555
 20
36.1037365666
 30
0.0
 10
16.6651945839
 20
36.2955544353
 30
0.0
 10
16.3383169036
 20
36.6606400257
 30
0.0
 10
15.8153884872
 20
37.1550581405
 30
0.0
 10
15.2751093476
 20
37.5803385605
 30
0.0
 10
14.7264424918
 20
37.9294234923
 30
0.0
 10
14.1780605384
 20
38.1965914034
 30
0.0
 10
13.6386071417
 20
38.3772364257
 30
0.0
 10
13.1164740965
 20
38.4678171771
 30
0.0
 10
12.6199855189
 20
38.4657825172
 30
0.0
 10
12.1578009694
 20
38.3697400398
 30
0.0
 10
11.7392311899
 20
38.18011313
 30
0.0
 10
11.3734412529
 20
37.9004347566
 30
0.0
 10
11.0677103268
 20
37.5372244971
 30
0.0
 10
10.826786841
 20
37.0984191751
 30
0.0
 10
10.6535182055
 20
36.5921665234
 30
0.0
 10
10.5498909792
 20
36.0271839897
 30
0.0
 10
10.5285059687
 20
35.63103497
 30
0.0
 10
10.5285059687
 20
35.4261985611
 30
0.0
  0
SPLINE
  5
2A6
100
AcDbEntity
  8
0
100
AcDbSpline
 62
7
  6
BYLAYER
 70
0
 71
3
 72
9
 73
5
 74
0
 42
0.0000001
 43
0.0000001
 44
0.0000000001
 40
0.0
 40
0.0
 40
0.0
 40
0.0
 40
0.5033201507
 40
1.0
 40
1.0
 40
1.0
 40
1.0
 10
17.9166926512
 20
34.4860268525
 30
0.0
 10
17.7596887025
 20
34.7738951124
 30
0.0
 10
17.4206376494
 20
35.3314504071
 30
0.0
 10
17.0302822525
 20
35.8544719905
 30
0.0
 10
16.8239638555
 20
36.1037365666
 30
0.0
  0
SPLINE
  5
2A7
100
AcDbEntity
  8
0
100
AcDbSpline
 62
7
  6
BYLAYER
 70
0
 71
3
 72
11
 73
7
 74
0
 42
0.0000001
 43
0.0000001
 44
0.0000000001
 40
0.0
 40
0.0
 40
0.0
 40
0.0
 40
0.2573360767
 40
0.5121532965
 40
0.7607627979
 40
1.0
 40
1.0
 40
1.0
 40
1.0
 10
11.6509982255
 20
31.452838652
 30
0.0
 10
11.7912271015
 20
31.1957276501
 30
0.0
 10
12.0920288678
 20
30.6955339372
 30
0.0
 10
12.5998153473
 20
29.9930045935
 30
0.0
 10
13.1536180005
 20
29.3530935364
 30
0.0
 10
13.5551023775
 20
28.9680895463
 30
0.0
 10
13.7612090833
 20
28.7901857122
 30
0.0
  0
SPLINE
  5
2A8
100
AcDbEntity
  8
0
100
AcDbSpline
 62
7
  6
BYLAYER
 70
0
 71
3
 72
22
 73
18
 74
0
 42
0.0000001
 43
0.0000001
 44
0.0000000001
 40
0.0
 40
0.0
 40
0.0
 40
0.0
 40
0.0518354527
 40
0.101102684
 40
0.1489046234
 40
0.1965319583
 40
0.2452985054
 40
0.2963704056
 40
0.3506445882
 40
0.4087102164
 40
0.4708558489
 40
0.5371057065
 40
0.6072744968
 40
0.6810038773
 40
0.7577870381
 40
0.8370228184
 40
1.0
 40
1.0
 40
1.0
 40
1.0
 10
16.4936079907
 20
27.4827542544
 30
0.0
 10
16.6431673605
 20
27.4721724821
 30
0.0
 10
16.9372998041
 20
27.4746119014
 30
0.0
 10
17.3626332127
 20
27.5572358186
 30
0.0
 10
17.7520910043
 20
27.7184626826
 30
0.0
 10
18.0986569622
 20
27.9558386714
 30
0.0
 10
18.3964968092
 20
28.2650280077
 30
0.0
 10
18.6412934029
 20
28.6404018388
 30
0.0
 10
18.8303258566
 20
29.0757491056
 30
0.0
 10
18.9616396125
 20
29.5647033539
 30
0.0
 10
19.0339524422
 20
30.1004650787
 30
0.0
 10
19.046686876
 20
30.6757252908
 30
0.0
 10
18.9997677518
 20
31.2826603132
 30
0.0
 10
18.893935483
 20
31.9129107359
 30
0.0
 10
18.7307699559
 20
32.557860855
 30
0.0
 10
18.4370446355
 20
33.4331879336
 30
0.0
 10
18.1424111157
 20
34.0721698626
 30
0.0
 10
17.9166926512
 20
34.4860268525
 30
0.0
  0
SPLINE
  5
2A9
100
AcDbEntity
  8
0
100
AcDbSpline
 62
7
  6
BYLAYER
 70
0
 71
3
 72
11
 73
7
 74
0
 42
0.0000001
 43
0.0000001
 44
0.0000000001
 40
0.0
 40
0.0
 40
0.0
 40
0.0
 40
0.2286801161
 40
0.4747197656
 40
0.7336540863
 40
1.0
 40
1.0
 40
1.0
 40
1.0
 10
10.5285059687
 20
35.4261985611
 30
0.0
 10
10.5285059687
 20
35.1085327123
 30
0.0
 10
10.5834245271
 20
34.4485086289
 30
0.0
 10
10.8038841962
 20
33.4509696834
 30
0.0
 10
11.1581858306
 20
32.4373716851
 30
0.0
 10
11.4738416033
 20
31.7776570338
 30
0.0
 10
11.6509982255
 20
31.452838652
 30
0.0
  0
SPLINE
  5
2AA
100
AcDbEntity
  8
0
100
AcDbSpline
 62
7
  6
BYLAYER
 70
0
 71
3
 72
11
 73
7
 74
0
 42
0.0000001
 43
0.0000001
 44
0.0000000001
 40
0.0
 40
0.0
 40
0.0
 40
0.0
 40
0.273815883
 40
0.524112185
 40
0.7612914291
 40
1.0
 40
1.0
 40
1.0
 40
1.0
 10
17.4216026364
 20
28.1139151056
 30
0.0
 10
17.4038206748
 20
28.0488369556
 30
0.0
 10
17.3573129177
 20
27.9269817738
 30
0.0
 10
17.2472213728
 20
27.7721708616
 30
0.0
 10
17.1026866808
 20
27.6619090791
 30
0.0
 10
16.9898253892
 20
27.6229088869
 30
0.0
 10
16.9320840489
 20
27.6117278683
 30
0.0
  0
SPLINE
  5
2AB
100
AcDbEntity
  8
0
100
AcDbSpline
 62
7
  6
BYLAYER
 70
0
 71
3
 72
9
 73
5
 74
0
 42
0.0000001
 43
0.0000001
 44
0.0000000001
 40
0.0
 40
0.0
 40
0.0
 40
0.0
 40
0.2457810137
 40
1.0
 40
1.0
 40
1.0
 40
1.0
 10
16.9320840489
 20
27.6117278683
 30
0.0
 10
16.9228524593
 20
27.6099402656
 30
0.0
 10
16.8851325058
 20
27.6035069489
 30
0.0
 10
16.8468556119
 20
27.6004327721
 30
0.0
 10
16.8180066057
 20
27.599851801
 30
0.0
  0
SPLINE
  5
2AC
100
AcDbEntity
  8
0
100
AcDbSpline
 62
7
  6
BYLAYER
 70
0
 71
3
 72
9
 73
5
 74
0
 42
0.0000001
 43
0.0000001
 44
0.0000000001
 40
0.0
 40
0.0
 40
0.0
 40
0.0
 40
0.2431258444
 40
1.0
 40
1.0
 40
1.0
 40
1.0
 10
16.8180066057
 20
27.599851801
 30
0.0
 10
16.8053370154
 20
27.5995966565
 30
0.0
 10
16.7532019781
 20
27.5999138657
 30
0.0
 10
16.7011424788
 20
27.6055579981
 30
0.0
 10
16.6622797332
 20
27.6123375238
 30
0.0
  0
SPLINE
  5
2AD
100
AcDbEntity
  8
0
100
AcDbSpline
 62
7
  6
BYLAYER
 70
0
 71
3
 72
9
 73
5
 74
0
 42
0.0000001
 43
0.0000001
 44
0.0000000001
 40
0.0
 40
0.0
 40
0.0
 40
0.0
 40
0.2638470851
 40
1.0
 40
1.0
 40
1.0
 40
1.0
 10
15.1184133524
 20
30.1794598868
 30
0.0
 10
15.1254204365
 20
30.2042151271
 30
0.0
 10
15.1555268406
 20
30.2969322199
 30
0.0
 10
15.2009272305
 20
30.385185504
 30
0.0
 10
15.243618976
 20
30.4428929464
 30
0.0
  0
SPLINE
  5
2AE
100
AcDbEntity
  8
0
100
AcDbSpline
 62
7
  6
BYLAYER
 70
0
 71
3
 72
25
 73
21
 74
0
 42
0.0000001
 43
0.0000001
 44
0.0000000001
 40
0.0
 40
0.0
 40
0.0
 40
0.0
 40
0.0452167207
 40
0.0893904865
 40
0.1352933561
 40
0.1851951438
 40
0.2121409524
 40
0.2405135792
 40
0.2703313207
 40
0.3015752793
 40
0.3680216271
 40
0.4390285168
 40
0.5133480484
 40
0.589498438
 40
0.6658677288
 40
0.7408387245
 40
0.8128797957
 40
0.8806529248
 40
0.9432247605
 40
1.0
 40
1.0
 40
1.0
 40
1.0
 10
15.243618976
 20
30.4428929464
 30
0.0
 10
15.2790744787
 20
30.490818988
 30
0.0
 10
15.3627890142
 20
30.5767026468
 30
0.0
 10
15.523424022
 20
30.6607224846
 30
0.0
 10
15.7078072278
 20
30.6929145831
 30
0.0
 10
15.8705619624
 20
30.6772398215
 30
0.0
 10
16.0049365825
 20
30.6421336462
 30
0.0
 10
16.1103673574
 20
30.603081268
 30
0.0
 10
16.2169937221
 20
30.5524155538
 30
0.0
 10
16.3626056675
 20
30.4680893071
 30
0.0
 10
16.5419447895
 20
30.3352226516
 30
0.0
 10
16.7440406283
 20
30.1416723257
 30
0.0
 10
16.9312307125
 20
29.9168022527
 30
0.0
 10
17.0976199019
 20
29.6676465708
 30
0.0
 10
17.2379963361
 20
29.4019918418
 30
0.0
 10
17.3479740615
 20
29.1281771474
 30
0.0
 10
17.424120301
 20
28.8547829986
 30
0.0
 10
17.4640321178
 20
28.5901605064
 30
0.0
 10
17.4662997465
 20
28.3426057406
 30
0.0
 10
17.441332651
 20
28.1861227096
 30
0.0
 10
17.4216026364
 20
28.1139151056
 30
0.0
  0
SPLINE
  5
2AF
100
AcDbEntity
  8
0
100
AcDbSpline
 62
7
  6
BYLAYER
 70
0
 71
3
 72
18
 73
14
 74
0
 42
0.0000001
 43
0.0000001
 44
0.0000000001
 40
0.0
 40
0.0
 40
0.0
 40
0.0
 40
0.0428466426
 40
0.0874623676
 40
0.1352823221
 40
0.1872320218
 40
0.2437228455
 40
0.304726044
 40
0.43835816
 40
0.5826623131
 40
0.7297821897
 40
0.8713439803
 40
1.0
 40
1.0
 40
1.0
 40
1.0
 10
14.3545793952
 20
29.1917803427
 30
0.0
 10
14.3792261651
 20
29.2060232822
 30
0.0
 10
14.4335744317
 20
29.2285999263
 30
0.0
 10
14.5232765449
 20
29.2417582532
 30
0.0
 10
14.6196057324
 20
29.234651262
 30
0.0
 10
14.720424189
 20
29.2078837073
 30
0.0
 10
14.8237472311
 20
29.1622102249
 30
0.0
 10
14.966395656
 20
29.0749240931
 30
0.0
 10
15.1363140131
 20
28.9244258217
 30
0.0
 10
15.3109450613
 20
28.7008644469
 30
0.0
 10
15.4485187881
 20
28.4466226462
 30
0.0
 10
15.5377614878
 20
28.182736054
 30
0.0
 10
15.5616779119
 20
28.0030040957
 30
0.0
 10
15.5616779119
 20
27.9175283646
 30
0.0
  0
SPLINE
  5
2B0
100
AcDbEntity
  8
0
100
AcDbSpline
 62
7
  6
BYLAYER
 70
0
 71
3
 72
11
 73
7
 74
0
 42
0.0000001
 43
0.0000001
 44
0.0000000001
 40
0.0
 40
0.0
 40
0.0
 40
0.0
 40
0.2731992483
 40
0.5272217273
 40
0.7668725306
 40
1.0
 40
1.0
 40
1.0
 40
1.0
 10
17.1513243307
 20
28.1580848761
 30
0.0
 10
17.1390024753
 20
28.1129895391
 30
0.0
 10
17.1083678091
 20
28.0275799708
 30
0.0
 10
17.0413680936
 20
27.9137153515
 30
0.0
 10
16.9558293361
 20
27.8219864712
 30
0.0
 10
16.8874214124
 20
27.7770749735
 30
0.0
 10
16.8516608866
 20
27.7593966707
 30
0.0
  0
SPLINE
  5
2B1
100
AcDbEntity
  8
0
100
AcDbSpline
 62
7
  6
BYLAYER
 70
0
 71
3
 72
9
 73
5
 74
0
 42
0.0000001
 43
0.0000001
 44
0.0000000001
 40
0.0
 40
0.0
 40
0.0
 40
0.0
 40
0.2640592506
 40
1.0
 40
1.0
 40
1.0
 40
1.0
 10
17.1883973561
 20
28.4565757186
 30
0.0
 10
17.1883973561
 20
28.4300585323
 30
0.0
 10
17.1855585435
 20
28.3296963299
 30
0.0
 10
17.1708038304
 20
28.2293756499
 30
0.0
 10
17.1513243307
 20
28.1580848761
 30
0.0
  0
SPLINE
  5
2B2
100
AcDbEntity
  8
0
100
AcDbSpline
 62
7
  6
BYLAYER
 70
0
 71
3
 72
25
 73
21
 74
0
 42
0.0000001
 43
0.0000001
 44
0.0000000001
 40
0.0
 40
0.0
 40
0.0
 40
0.0
 40
0.0738329985
 40
0.1486561008
 40
0.2237741785
 40
0.2985350056
 40
0.3722689335
 40
0.4443426094
 40
0.5141697824
 40
0.5812322132
 40
0.6451032142
 40
0.7054736344
 40
0.7621835835
 40
0.8152567539
 40
0.8649374603
 40
0.9117232373
 40
0.9342834602
 40
0.9564274162
 40
0.9782862422
 40
1.0
 40
1.0
 40
1.0
 40
1.0
 10
26.6857258773
 20
44.4736624524
 30
0.0
 10
27.0308667307
 20
44.0566788495
 30
0.0
 10
27.6960636035
 20
43.1920817481
 30
0.0
 10
28.6064793242
 20
41.82591325
 30
0.0
 10
29.4269468747
 20
40.395975458
 30
0.0
 10
30.1465349692
 20
38.9215955237
 30
0.0
 10
30.7556336604
 20
37.4222429602
 30
0.0
 10
31.246139764
 20
35.917923809
 30
0.0
 10
31.6115428894
 20
34.4286004369
 30
0.0
 10
31.8469604383
 20
32.9739759588
 30
0.0
 10
31.9491886937
 20
31.5732126095
 30
0.0
 10
31.9166623057
 20
30.2446509228
 30
0.0
 10
31.7494695997
 20
29.0056104114
 30
0.0
 10
31.4490472287
 20
27.8721563919
 30
0.0
 10
31.0184277322
 20
26.8594849557
 30
0.0
 10
30.5482752628
 20
26.1186007087
 30
0.0
 10
30.113683015
 20
25.6065707852
 30
0.0
 10
29.7634960406
 20
25.2655759005
 30
0.0
 10
29.3865136215
 20
24.9643701565
 30
0.0
 10
29.1177079201
 20
24.7906007623
 30
0.0
 10
28.9798431891
 20
24.711008981
 30
0.0
  0
SPLINE
  5
2B3
100
AcDbEntity
  8
0
100
AcDbSpline
 62
7
  6
BYLAYER
 70
0
 71
3
 72
9
 73
5
 74
0
 42
0.0000001
 43
0.0000001
 44
0.0000000001
 40
0.0
 40
0.0
 40
0.0
 40
0.0
 40
0.2372406965
 40
1.0
 40
1.0
 40
1.0
 40
1.0
 10
15.9821597664
 20
27.8295186103
 30
0.0
 10
15.9821597664
 20
27.8618855894
 30
0.0
 10
15.9771541076
 20
27.9983063108
 30
0.0
 10
15.9536238345
 20
28.1337444675
 30
0.0
 10
15.9279514072
 20
28.2345920821
 30
0.0
  0
SPLINE
  5
2B4
100
AcDbEntity
  8
0
100
AcDbSpline
 62
7
  6
BYLAYER
 70
0
 71
3
 72
11
 73
7
 74
0
 42
0.0000001
 43
0.0000001
 44
0.0000000001
 40
0.0
 40
0.0
 40
0.0
 40
0.0
 40
0.2177660095
 40
0.4508968553
 40
0.7103699668
 40
1.0
 40
1.0
 40
1.0
 40
1.0
 10
8.2835170383
 20
23.3773190015
 30
0.0
 10
8.316493328
 20
23.3963752276
 30
0.0
 10
8.3782431658
 20
23.448209342
 30
0.0
 10
8.4439388978
 20
23.5556735515
 30
0.0
 10
8.4829396117
 20
23.6880710575
 30
0.0
 10
8.4906395397
 20
23.7844316696
 30
0.0
 10
8.4906395397
 20
23.8350868259
 30
0.0
  0
SPLINE
  5
2B5
100
AcDbEntity
  8
0
100
AcDbSpline
 62
7
  6
BYLAYER
 70
0
 71
3
 72
17
 73
13
 74
0
 42
0.0000001
 43
0.0000001
 44
0.0000000001
 40
0.0
 40
0.0
 40
0.0
 40
0.0
 40
0.143951925
 40
0.2928256468
 40
0.4401288921
 40
0.5795768569
 40
0.7060363329
 40
0.8166428194
 40
0.8662586078
 40
0.9126756035
 40
0.9568364901
 40
1.0
 40
1.0
 40
1.0
 40
1.0
 10
15.9279514072
 20
28.2345920821
 30
0.0
 10
15.899284983
 20
28.3472008536
 30
0.0
 10
15.8209638422
 20
28.5714844792
 30
0.0
 10
15.6545344367
 20
28.886715142
 30
0.0
 10
15.4460004223
 20
29.1714944942
 30
0.0
 10
15.2083575332
 20
29.4078096178
 30
0.0
 10
14.9563659984
 20
29.5809640063
 30
0.0
 10
14.7378889893
 20
29.6665396789
 30
0.0
 10
14.5718091749
 20
29.6887364908
 30
0.0
 10
14.4580509234
 20
29.683295449
 30
0.0
 10
14.3527751725
 20
29.6560336919
 30
0.0
 10
14.289471111
 20
29.6234699181
 30
0.0
 10
14.260479525
 20
29.6041445138
 30
0.0
  0
SPLINE
  5
2B6
100
AcDbEntity
  8
0
100
AcDbSpline
 62
7
  6
BYLAYER
 70
0
 71
3
 72
20
 73
16
 74
0
 42
0.0000001
 43
0.0000001
 44
0.0000000001
 40
0.0
 40
0.0
 40
0.0
 40
0.0
 40
0.1519980541
 40
0.3083693612
 40
0.4587343293
 40
0.5288049322
 40
0.594200555
 40
0.6544271378
 40
0.7094260826
 40
0.7597441543
 40
0.8066234021
 40
0.8519629648
 40
0.8980078428
 40
0.9468361438
 40
1.0
 40
1.0
 40
1.0
 40
1.0
 10
15.6604091728
 20
28.1811748077
 30
0.0
 10
15.6298043506
 20
28.3013980838
 30
0.0
 10
15.5413148325
 20
28.5390648089
 30
0.0
 10
15.3486379238
 20
28.8621274681
 30
0.0
 10
15.1442494897
 20
29.0949793273
 30
0.0
 10
14.9635004352
 20
29.2431983121
 30
0.0
 10
14.8281488016
 20
29.3288669367
 30
0.0
 10
14.6931778085
 20
29.3895903102
 30
0.0
 10
14.5616110957
 20
29.4235969303
 30
0.0
 10
14.4365075535
 20
29.4296848146
 30
0.0
 10
14.3210727774
 20
29.4068744736
 30
0.0
 10
14.2191644513
 20
29.3550325532
 30
0.0
 10
14.1344443815
 20
29.276006414
 30
0.0
 10
14.0694338492
 20
29.1728392886
 30
0.0
 10
14.0412084859
 20
29.0938419812
 30
0.0
 10
14.0302280191
 20
29.0518630893
 30
0.0
  0
SPLINE
  5
2B7
100
AcDbEntity
  8
0
100
AcDbSpline
 62
7
  6
BYLAYER
 70
0
 71
3
 72
9
 73
5
 74
0
 42
0.0000001
 43
0.0000001
 44
0.0000000001
 40
0.0
 40
0.0
 40
0.0
 40
0.0
 40
0.2372407737
 40
1.0
 40
1.0
 40
1.0
 40
1.0
 10
15.7069122467
 20
27.8336794631
 30
0.0
 10
15.7069122425
 20
27.8614457299
 30
0.0
 10
15.7026179478
 20
27.9784752708
 30
0.0
 10
15.6824324565
 20
28.0946619277
 30
0.0
 10
15.6604091728
 20
28.1811748077
 30
0.0
  0
SPLINE
  5
2B8
100
AcDbEntity
  8
0
100
AcDbSpline
 62
7
  6
BYLAYER
 70
0
 71
3
 72
10
 73
6
 74
0
 42
0.0000001
 43
0.0000001
 44
0.0000000001
 40
0.0
 40
0.0
 40
0.0
 40
0.0
 40
0.5271335709
 40
0.767853384
 40
1.0
 40
1.0
 40
1.0
 40
1.0
 10
15.0653209234
 20
27.2504690859
 30
0.0
 10
15.1305130854
 20
27.2320541998
 30
0.0
 10
15.2307574801
 20
27.2177297473
 30
0.0
 10
15.3584535527
 20
27.2377068448
 30
0.0
 10
15.4157065327
 20
27.2597811823
 30
0.0
 10
15.4421536586
 20
27.2735868828
 30
0.0
  0
SPLINE
  5
2B9
100
AcDbEntity
  8
0
100
AcDbSpline
 62
7
  6
BYLAYER
 70
0
 71
3
 72
11
 73
7
 74
0
 42
0.0000001
 43
0.0000001
 44
0.0000000001
 40
0.0
 40
0.0
 40
0.0
 40
0.0
 40
0.2179178056
 40
0.4503679187
 40
0.7095541718
 40
1.0
 40
1.0
 40
1.0
 40
1.0
 10
15.4421536586
 20
27.2735868828
 30
0.0
 10
15.4839760458
 20
27.2954186445
 30
0.0
 10
15.5628144772
 20
27.3567050076
 30
0.0
 10
15.6471291575
 20
27.4878927741
 30
0.0
 10
15.6971037069
 20
27.6513743173
 30
0.0
 10
15.7069122564
 20
27.7707999115
 30
0.0
 10
15.7069122467
 20
27.8336794631
 30
0.0
  0
SPLINE
  5
2BA
100
AcDbEntity
  8
0
100
AcDbSpline
 62
7
  6
BYLAYER
 70
0
 71
3
 72
11
 73
7
 74
0
 42
0.0000001
 43
0.0000001
 44
0.0000000001
 40
0.0
 40
0.0
 40
0.0
 40
0.0
 40
0.2896413964
 40
0.5491107671
 40
0.7822355978
 40
1.0
 40
1.0
 40
1.0
 40
1.0
 10
15.5616779119
 20
27.9175283646
 30
0.0
 10
15.5616779119
 20
27.8668711487
 30
0.0
 10
15.5539779963
 20
27.7705091336
 30
0.0
 10
15.5149766216
 20
27.6381108219
 30
0.0
 10
15.4492789513
 20
27.5306507638
 30
0.0
 10
15.3875329857
 20
27.4788141566
 30
0.0
 10
15.3545569782
 20
27.4597578956
 30
0.0
  0
SPLINE
  5
2BB
100
AcDbEntity
  8
0
100
AcDbSpline
 62
7
  6
BYLAYER
 70
0
 71
3
 72
17
 73
13
 74
0
 42
0.0000001
 43
0.0000001
 44
0.0000000001
 40
0.0
 40
0.0
 40
0.0
 40
0.0
 40
0.128688864
 40
0.2702797703
 40
0.4174318348
 40
0.5617733576
 40
0.6954455149
 40
0.8127096012
 40
0.8646749146
 40
0.9125085807
 40
0.9571389861
 40
1.0
 40
1.0
 40
1.0
 40
1.0
 10
8.4906395397
 20
23.8350868259
 30
0.0
 10
8.4906395397
 20
23.9205617363
 30
0.0
 10
8.4667265389
 20
24.1002857206
 30
0.0
 10
8.3774795841
 20
24.3641705308
 30
0.0
 10
8.2399501379
 20
24.6183730682
 30
0.0
 10
8.065199818
 20
24.842051609
 30
0.0
 10
7.8675050831
 20
25.0171390921
 30
0.0
 10
7.6885638814
 20
25.1149842144
 30
0.0
 10
7.5485872544
 20
25.1522169253
 30
0.0
 10
7.4522488216
 20
25.1593107551
 30
0.0
 10
7.3625418065
 20
25.1461634529
 30
0.0
 10
7.3081911625
 20
25.1235799921
 30
0.0
 10
7.2835425909
 20
25.1093361594
 30
0.0
  0
SPLINE
  5
2BC
100
AcDbEntity
  8
0
100
AcDbSpline
 62
7
  6
BYLAYER
 70
0
 71
3
 72
15
 73
11
 74
0
 42
0.0000001
 43
0.0000001
 44
0.0000000001
 40
0.0
 40
0.0
 40
0.0
 40
0.0
 40
0.129012145
 40
0.2596583708
 40
0.3904986855
 40
0.5201109689
 40
0.647092522
 40
0.7701416217
 40
0.8880967969
 40
1.0
 40
1.0
 40
1.0
 40
1.0
 10
49.2359394862
 20
57.5702126223
 30
0.0
 10
49.6366832226
 20
57.0799870613
 30
0.0
 10
50.4047540031
 20
56.061230651
 30
0.0
 10
51.4415241293
 20
54.4473544903
 30
0.0
 10
52.357689016
 20
52.7586064012
 30
0.0
 10
53.1382582309
 20
51.0227392785
 30
0.0
 10
53.7704754059
 20
49.2679974247
 30
0.0
 10
54.2440447058
 20
47.5229210118
 30
0.0
 10
54.551204302
 20
45.8160880925
 30
0.0
 10
54.6442794865
 20
44.6894776402
 30
0.0
 10
54.6592043318
 20
44.1404698017
 30
0.0
  0
SPLINE
  5
2BD
100
AcDbEntity
  8
0
100
AcDbSpline
 62
7
  6
BYLAYER
 70
0
 71
3
 72
21
 73
17
 74
0
 42
0.0000001
 43
0.0000001
 44
0.0000000001
 40
0.0
 40
0.0
 40
0.0
 40
0.0
 40
0.1569727317
 40
0.3066465975
 40
0.3781409392
 40
0.4471173576
 40
0.5134265954
 40
0.5769782325
 40
0.6377454848
 40
0.6957716072
 40
0.7511852366
 40
0.8042028575
 40
0.8551408021
 40
0.9044086684
 40
0.9525063912
 40
1.0
 40
1.0
 40
1.0
 40
1.0
 10
27.4703086008
 20
45.1704659973
 30
0.0
 10
26.9809081025
 20
45.7617375927
 30
0.0
 10
25.9688412767
 20
46.8718806855
 30
0.0
 10
24.583773641
 20
48.1029416247
 30
0.0
 10
23.4426739203
 20
48.9472585462
 30
0.0
 10
22.5928987805
 20
49.4964900239
 30
0.0
 10
21.7415967797
 20
49.9677812687
 30
0.0
 10
20.8941350755
 20
50.358098448
 30
0.0
 10
20.0558623201
 20
50.6649220854
 30
0.0
 10
19.2320125349
 20
50.8861107194
 30
0.0
 10
18.4277931836
 20
51.0201848302
 30
0.0
 10
17.6482678979
 20
51.0658922225
 30
0.0
 10
16.8984859141
 20
51.0228055724
 30
0.0
 10
16.183402678
 20
50.890627225
 30
0.0
 10
15.5080790929
 20
50.6702253457
 30
0.0
 10
15.0863709414
 20
50.4645501013
 30
0.0
 10
14.8852544477
 20
50.3484419432
 30
0.0
  0
SPLINE
  5
2BE
100
AcDbEntity
  8
0
100
AcDbSpline
 62
7
  6
BYLAYER
 70
0
 71
3
 72
25
 73
21
 74
0
 42
0.0000001
 43
0.0000001
 44
0.0000000001
 40
0.0
 40
0.0
 40
0.0
 40
0.0
 40
0.0217137578
 40
0.0435725838
 40
0.0657165398
 40
0.0882767627
 40
0.1350625397
 40
0.1847432461
 40
0.2378164165
 40
0.2945263656
 40
0.3548967858
 40
0.4187677868
 40
0.4858302176
 40
0.5556573906
 40
0.6277310665
 40
0.7014649944
 40
0.7762258215
 40
0.8513438992
 40
0.9261670015
 40
1.0
 40
1.0
 40
1.0
 40
1.0
 10
29.885168929
 20
24.3676728695
 30
0.0
 10
30.0302896985
 20
24.451453692
 30
0.0
 10
30.3132430684
 20
24.6343688438
 30
0.0
 10
30.7100666675
 20
24.9514275216
 30
0.0
 10
31.0786845352
 20
25.3103695056
 30
0.0
 10
31.5361500593
 20
25.8493483724
 30
0.0
 10
32.0310473955
 20
26.6292265271
 30
0.0
 10
32.484331076
 20
27.69519646
 30
0.0
 10
32.8005651507
 20
28.8883059542
 30
0.0
 10
32.9765574729
 20
30.1925591241
 30
0.0
 10
33.010795776
 20
31.5910451101
 30
0.0
 10
32.9031870861
 20
33.0655328462
 30
0.0
 10
32.6553791399
 20
34.5967165074
 30
0.0
 10
32.2707442711
 20
36.1644253201
 30
0.0
 10
31.7544220567
 20
37.7479191635
 30
0.0
 10
31.1132655396
 20
39.3261850197
 30
0.0
 10
30.3558043876
 20
40.878163898
 30
0.0
 10
29.4921543344
 20
42.3833615737
 30
0.0
 10
28.5338219968
 20
43.8214336771
 30
0.0
 10
27.8336147623
 20
44.7315358891
 30
0.0
 10
27.4703086008
 20
45.1704659973
 30
0.0
  0
SPLINE
  5
2BF
100
AcDbEntity
  8
0
100
AcDbSpline
 62
7
  6
BYLAYER
 70
0
 71
3
 72
13
 73
9
 74
0
 42
0.0000001
 43
0.0000001
 44
0.0000000001
 40
0.0
 40
0.0
 40
0.0
 40
0.0
 40
0.1085516605
 40
0.2185596033
 40
0.3321218967
 40
0.4510406975
 40
0.7095806207
 40
1.0
 40
1.0
 40
1.0
 40
1.0
 10
15.6646217903
 20
27.1720843985
 30
0.0
 10
15.6895371481
 20
27.1844052402
 30
0.0
 10
15.7375872533
 20
27.2137813087
 30
0.0
 10
15.8014261029
 20
27.2705823519
 30
0.0
 10
15.8564690624
 20
27.3393630544
 30
0.0
 10
15.9189597831
 20
27.4489741552
 30
0.0
 10
15.9704926746
 20
27.6141213619
 30
0.0
 10
15.9821597664
 20
27.7551550206
 30
0.0
 10
15.9821597664
 20
27.8295186103
 30
0.0
  0
SPLINE
  5
2C0
100
AcDbEntity
  8
0
100
AcDbSpline
 62
7
  6
BYLAYER
 70
0
 71
3
 72
20
 73
16
 74
0
 42
0.0000001
 43
0.0000001
 44
0.0000000001
 40
0.0
 40
0.0
 40
0.0
 40
0.0
 40
0.0428716146
 40
0.0871469149
 40
0.1344112323
 40
0.1857352723
 40
0.2416545281
 40
0.3022094047
 40
0.367072574
 40
0.4356254361
 40
0.5801880643
 40
0.7280230893
 40
0.8704316281
 40
0.9372747764
 40
1.0
 40
1.0
 40
1.0
 40
1.0
 10
15.3626269667
 20
30.3384940532
 30
0.0
 10
15.3983359331
 20
30.362288175
 30
0.0
 10
15.4776783694
 20
30.4012433455
 30
0.0
 10
15.6107778541
 20
30.4282613647
 30
0.0
 10
15.7548031713
 20
30.4239006127
 30
0.0
 10
15.9063250154
 20
30.3891180162
 30
0.0
 10
16.0622467692
 20
30.3250130318
 30
0.0
 10
16.2194010597
 20
30.2332330909
 30
0.0
 10
16.374528755
 20
30.1158037105
 30
0.0
 10
16.5776918604
 20
29.9251071973
 30
0.0
 10
16.8040613293
 20
29.6407348118
 30
0.0
 10
17.0145557778
 20
29.2577093336
 30
0.0
 10
17.1313495119
 20
28.9174503132
 30
0.0
 10
17.1797054908
 20
28.6491347249
 30
0.0
 10
17.1883973561
 20
28.5193574857
 30
0.0
 10
17.1883973561
 20
28.4565757186
 30
0.0
  0
SPLINE
  5
2C1
100
AcDbEntity
  8
0
100
AcDbSpline
 62
7
  6
BYLAYER
 70
0
 71
3
 72
21
 73
17
 74
0
 42
0.0000001
 43
0.0000001
 44
0.0000000001
 40
0.0
 40
0.0
 40
0.0
 40
0.0
 40
0.1569727317
 40
0.3066465975
 40
0.3781409392
 40
0.4471173576
 40
0.5134265954
 40
0.5769782325
 40
0.6377454848
 40
0.6957716072
 40
0.7511852366
 40
0.8042028575
 40
0.8551408021
 40
0.9044086684
 40
0.9525063912
 40
1.0
 40
1.0
 40
1.0
 40
1.0
 10
22.0188405517
 20
41.7792510368
 30
0.0
 10
21.5539100783
 20
42.3409590524
 30
0.0
 10
20.5924465938
 20
43.3955949906
 30
0.0
 10
19.2766323399
 20
44.5651028828
 30
0.0
 10
18.1925876052
 20
45.3672039582
 30
0.0
 10
17.3853012223
 20
45.888973862
 30
0.0
 10
16.5765643216
 20
46.3367005447
 30
0.0
 10
15.7714757026
 20
46.7075018649
 30
0.0
 10
14.975116585
 20
46.9989843205
 30
0.0
 10
14.1924592891
 20
47.2091135228
 30
0.0
 10
13.4284509053
 20
47.336483928
 30
0.0
 10
12.6879018839
 20
47.3799059507
 30
0.0
 10
11.9756089993
 20
47.3389736332
 30
0.0
 10
11.296279925
 20
47.2134042031
 30
0.0
 10
10.6547225192
 20
47.0040224178
 30
0.0
 10
10.2540997753
 20
46.8086309356
 30
0.0
 10
10.0630391062
 20
46.6983281854
 30
0.0
  0
SPLINE
  5
2C2
100
AcDbEntity
  8
0
100
AcDbSpline
 62
7
  6
BYLAYER
 70
0
 71
3
 72
21
 73
17
 74
0
 42
0.0000001
 43
0.0000001
 44
0.0000000001
 40
0.0
 40
0.0
 40
0.0
 40
0.0
 40
0.1569593913
 40
0.3066094843
 40
0.3780918508
 40
0.4470573078
 40
0.5133577066
 40
0.5769038065
 40
0.6376695505
 40
0.6956982471
 40
0.7511184993
 40
0.804146402
 40
0.8550975198
 40
0.9043802602
 40
0.9524930059
 40
1.0
 40
1.0
 40
1.0
 40
1.0
 10
24.0556012871
 20
42.9798641355
 30
0.0
 10
23.5910239497
 20
43.5400527381
 30
0.0
 10
22.6304885819
 20
44.5917625418
 30
0.0
 10
21.3162917121
 20
45.7578914887
 30
0.0
 10
20.2337965457
 20
46.5575738163
 30
0.0
 10
19.4277396049
 20
47.0777334944
 30
0.0
 10
18.6202911323
 20
47.5240515173
 30
0.0
 10
17.8165215653
 20
47.8936615534
 30
0.0
 10
17.0214893768
 20
48.1841906999
 30
0.0
 10
16.2401422052
 20
48.3936116244
 30
0.0
 10
15.4774064277
 20
48.5205305878
 30
0.0
 10
14.7380697474
 20
48.5637640553
 30
0.0
 10
14.0269063142
 20
48.5229109467
 30
0.0
 10
13.348600501
 20
48.3976907233
 30
0.0
 10
12.7079362416
 20
48.1889235967
 30
0.0
 10
12.3077972833
 20
47.9941110142
 30
0.0
 10
12.1169440843
 20
47.8841318395
 30
0.0
  0
SPLINE
  5
2C3
100
AcDbEntity
  8
0
100
AcDbSpline
 62
7
  6
BYLAYER
 70
0
 71
3
 72
23
 73
19
 74
0
 42
0.0000001
 43
0.0000001
 44
0.0000000001
 40
0.0
 40
0.0
 40
0.0
 40
0.0
 40
0.0831475843
 40
0.1636224472
 40
0.2407411268
 40
0.3139886273
 40
0.3829823924
 40
0.4475515644
 40
0.5077712879
 40
0.5640199779
 40
0.6170189535
 40
0.6678336351
 40
0.7178029102
 40
0.7683832996
 40
0.8209462349
 40
0.876608959
 40
0.9361495782
 40
1.0
 40
1.0
 40
1.0
 40
1.0
 10
21.8096184921
 20
41.5934367582
 30
0.0
 10
21.4612918937
 20
42.0142692343
 30
0.0
 10
20.745314822
 20
42.8177844712
 30
0.0
 10
19.6031767325
 20
43.9143673961
 30
0.0
 10
18.4233136932
 20
44.8704618959
 30
0.0
 10
17.2229244523
 20
45.672154996
 30
0.0
 10
16.0188981646
 20
46.30773587
 30
0.0
 10
14.8281649227
 20
46.7677241345
 30
0.0
 10
13.6672067958
 20
47.0447457179
 30
0.0
 10
12.5522051156
 20
47.1333647012
 30
0.0
 10
11.4994567307
 20
47.0300198292
 30
0.0
 10
10.5260662337
 20
46.7337417508
 30
0.0
 10
9.6497591854
 20
46.2478378471
 30
0.0
 10
8.8868187925
 20
45.5811474311
 30
0.0
 10
8.249686073
 20
44.7468999133
 30
0.0
 10
7.7466284266
 20
43.7601921315
 30
0.0
 10
7.3830764
 20
42.6370395749
 30
0.0
 10
7.2411092498
 20
41.8362466126
 30
0.0
 10
7.1918499613
 20
41.4196444571
 30
0.0
  0
SPLINE
  5
2C4
100
AcDbEntity
  8
0
100
AcDbSpline
 62
7
  6
BYLAYER
 70
0
 71
3
 72
27
 73
23
 74
0
 42
0.0000001
 43
0.0000001
 44
0.0000000001
 40
0.0
 40
0.0
 40
0.0
 40
0.0
 40
0.0494966092
 40
0.0731650556
 40
0.0963232267
 40
0.1191728145
 40
0.1419306726
 40
0.1648176887
 40
0.1880487357
 40
0.2118228408
 40
0.2363156951
 40
0.2879595135
 40
0.3438627756
 40
0.4043749697
 40
0.4694532489
 40
0.5387433489
 40
0.6116521699
 40
0.6874080261
 40
0.765114491
 40
0.8437917051
 40
0.9224278106
 40
1.0
 40
1.0
 40
1.0
 40
1.0
 10
20.9825269775
 20
21.4702733603
 30
0.0
 10
21.3917820458
 20
21.4379070394
 30
0.0
 10
22.0042440267
 20
21.4457506851
 30
0.0
 10
22.7916832171
 20
21.5883070931
 30
0.0
 10
23.3461884497
 20
21.755950674
 30
0.0
 10
23.8698685271
 20
21.9853390306
 30
0.0
 10
24.3601058905
 20
22.2751689999
 30
0.0
 10
24.8142214551
 20
22.6240200626
 30
0.0
 10
25.2299381308
 20
23.0299020494
 30
0.0
 10
25.605169752
 20
23.4907114955
 30
0.0
 10
26.0569812334
 20
24.1870247816
 30
0.0
 10
26.5079322909
 20
25.1929502875
 30
0.0
 10
26.8518496016
 20
26.5495277405
 30
0.0
 10
27.0051181074
 20
28.0517377758
 30
0.0
 10
26.9660258769
 20
29.6713050956
 30
0.0
 10
26.7361017518
 20
31.378145409
 30
0.0
 10
26.319958155
 20
33.1400505903
 30
0.0
 10
25.7256494826
 20
34.9235499428
 30
0.0
 10
24.9645649586
 20
36.6945104858
 30
0.0
 10
24.0513099725
 20
38.4190491961
 30
0.0
 10
23.0035104421
 20
40.0638202015
 30
0.0
 10
22.2198632025
 20
41.0977976135
 30
0.0
 10
21.8096184921
 20
41.5934367582
 30
0.0
  0
SPLINE
  5
2C5
100
AcDbEntity
  8
0
100
AcDbSpline
 62
7
  6
BYLAYER
 70
0
 71
3
 72
21
 73
17
 74
0
 42
0.0000001
 43
0.0000001
 44
0.0000000001
 40
0.0
 40
0.0
 40
0.0
 40
0.0
 40
0.0464565668
 40
0.0927071138
 40
0.139726413
 40
0.1884113306
 40
0.239503763
 40
0.2935553452
 40
0.3509120842
 40
0.4117416469
 40
0.4760409526
 40
0.5436785729
 40
0.6144055501
 40
0.6878793465
 40
0.8412603937
 40
1.0
 40
1.0
 40
1.0
 40
1.0
 10
17.596436024
 20
27.4729498795
 30
0.0
 10
17.7147698828
 20
27.5107736031
 30
0.0
 10
17.9449565256
 20
27.6069005993
 30
0.0
 10
18.2598956844
 20
27.8115460773
 30
0.0
 10
18.5379753665
 20
28.0727980314
 30
0.0
 10
18.7758811314
 20
28.3871941302
 30
0.0
 10
18.9714503725
 20
28.750764876
 30
0.0
 10
19.1228309493
 20
29.1594112237
 30
0.0
 10
19.2289528327
 20
29.6086629511
 30
0.0
 10
19.2887841298
 20
30.093841362
 30
0.0
 10
19.302020979
 20
30.6098837223
 30
0.0
 10
19.2684933586
 20
31.1514227285
 30
0.0
 10
19.188676094
 20
31.7128224154
 30
0.0
 10
19.0192076893
 20
32.4909576858
 30
0.0
 10
18.6961902414
 20
33.4734250934
 30
0.0
 10
18.3393457134
 20
34.2304652039
 30
0.0
 10
18.1360912275
 20
34.6031342715
 30
0.0
  0
SPLINE
  5
2C6
100
AcDbEntity
  8
0
100
AcDbSpline
 62
7
  6
BYLAYER
 70
0
 71
3
 72
23
 73
19
 74
0
 42
0.0000001
 43
0.0000001
 44
0.0000000001
 40
0.0
 40
0.0
 40
0.0
 40
0.0
 40
0.0756468866
 40
0.1523536252
 40
0.2292481073
 40
0.3055596344
 40
0.3804932114
 40
0.4533030458
 40
0.5233215883
 40
0.5899803166
 40
0.6528524924
 40
0.7116893511
 40
0.766471025
 40
0.8174595426
 40
0.8652415165
 40
0.9107489828
 40
0.9552089209
 40
1.0
 40
1.0
 40
1.0
 40
1.0
 10
19.3917633673
 20
37.8788030995
 30
0.0
 10
19.573452622
 20
37.6592943416
 30
0.0
 10
19.9224026094
 20
37.2028816497
 30
0.0
 10
20.3955798783
 20
36.4796682551
 30
0.0
 10
20.8164281283
 20
35.7218818593
 30
0.0
 10
21.1783288643
 20
34.9415945405
 30
0.0
 10
21.4757062194
 20
34.1508765221
 30
0.0
 10
21.7038991894
 20
33.362063722
 30
0.0
 10
21.859315656
 20
32.5874037661
 30
0.0
 10
21.9395168703
 20
31.8388696676
 30
0.0
 10
21.9431955557
 20
31.12795921
 30
0.0
 10
21.8700074215
 20
30.4655019923
 30
0.0
 10
21.7206369765
 20
29.8615690313
 30
0.0
 10
21.4966460966
 20
29.325462467
 30
0.0
 10
21.2003715233
 20
28.8660212939
 30
0.0
 10
20.8354374752
 20
28.4917929483
 30
0.0
 10
20.4080449294
 20
28.2106919963
 30
0.0
 10
20.0906886322
 20
28.0907906303
 30
0.0
 10
19.9275680819
 20
28.0476865525
 30
0.0
  0
SPLINE
  5
2C7
100
AcDbEntity
  8
0
100
AcDbSpline
 62
7
  6
BYLAYER
 70
0
 71
3
 72
9
 73
5
 74
0
 42
0.0000001
 43
0.0000001
 44
0.0000000001
 40
0.0
 40
0.0
 40
0.0
 40
0.0
 40
0.2466277358
 40
1.0
 40
1.0
 40
1.0
 40
1.0
 10
19.8369140721
 20
28.0255425528
 30
0.0
 10
19.80468356
 20
28.0183035253
 30
0.0
 10
19.6734305749
 20
27.9915197499
 30
0.0
 10
19.5401288539
 20
27.9749547376
 30
0.0
 10
19.4394702765
 20
27.9678769158
 30
0.0
  0
SPLINE
  5
2C8
100
AcDbEntity
  8
0
100
AcDbSpline
 62
7
  6
BYLAYER
 70
0
 71
3
 72
21
 73
17
 74
0
 42
0.0000001
 43
0.0000001
 44
0.0000000001
 40
0.0
 40
0.0
 40
0.0
 40
0.0
 40
0.0494561548
 40
0.0982429125
 40
0.1471543024
 40
0.1969753088
 40
0.2484190407
 40
0.3020857681
 40
0.3584348576
 40
0.4177829062
 40
0.480309034
 40
0.546070494
 40
0.6150198819
 40
0.6870096249
 40
0.8391022725
 40
1.0
 40
1.0
 40
1.0
 40
1.0
 10
13.0595728292
 20
39.8501778164
 30
0.0
 10
13.1442626324
 20
39.9388609778
 30
0.0
 10
13.3258499595
 20
40.1029064858
 30
0.0
 10
13.6326628282
 20
40.3030515349
 30
0.0
 10
13.9680464094
 20
40.452794399
 30
0.0
 10
14.3287814585
 20
40.5506684504
 30
0.0
 10
14.7115239475
 20
40.5961281929
 30
0.0
 10
15.1129211443
 20
40.5890217886
 30
0.0
 10
15.5296223381
 20
40.5297210647
 30
0.0
 10
15.958262437
 20
40.4189363488
 30
0.0
 10
16.39541963
 20
40.2577045198
 30
0.0
 10
16.8376324289
 20
40.0474621631
 30
0.0
 10
17.2813456322
 20
39.7899108857
 30
0.0
 10
17.8811442851
 20
39.3788453384
 30
0.0
 10
18.6098530705
 20
38.757868368
 30
0.0
 10
19.1373877383
 20
38.1861282543
 30
0.0
 10
19.3917633673
 20
37.8788030995
 30
0.0
  0
SPLINE
  5
2C9
100
AcDbEntity
  8
0
100
AcDbSpline
 62
7
  6
BYLAYER
 70
0
 71
3
 72
21
 73
17
 74
0
 42
0.0000001
 43
0.0000001
 44
0.0000000001
 40
0.0
 40
0.0
 40
0.0
 40
0.0
 40
0.0474936088
 40
0.0955913316
 40
0.1448591979
 40
0.1957971425
 40
0.2488147634
 40
0.3042283928
 40
0.3622545152
 40
0.4230217675
 40
0.4865734046
 40
0.5528826424
 40
0.6218590608
 40
0.6933534025
 40
0.8430272683
 40
1.0
 40
1.0
 40
1.0
 40
1.0
 10
14.7299244318
 20
49.3927396009
 30
0.0
 10
14.9209851009
 20
49.5030423511
 30
0.0
 10
15.3216078448
 20
49.6984338333
 30
0.0
 10
15.9631652506
 20
49.9078156186
 30
0.0
 10
16.6424943249
 20
50.0333850487
 30
0.0
 10
17.3547872095
 20
50.0743173663
 30
0.0
 10
18.0953362309
 20
50.0308953436
 30
0.0
 10
18.8593446147
 20
49.9035249383
 30
0.0
 10
19.6420019106
 20
49.693395736
 30
0.0
 10
20.4383610282
 20
49.4019132805
 30
0.0
 10
21.2434496473
 20
49.0311119602
 30
0.0
 10
22.0521865479
 20
48.5833852776
 30
0.0
 10
22.8594729308
 20
48.0616153738
 30
0.0
 10
23.9435176655
 20
47.2595142984
 30
0.0
 10
25.2593319194
 20
46.0900064062
 30
0.0
 10
26.2207954039
 20
45.035370468
 30
0.0
 10
26.6857258773
 20
44.4736624524
 30
0.0
  0
SPLINE
  5
2CA
100
AcDbEntity
  8
0
100
AcDbSpline
 62
7
  6
BYLAYER
 70
0
 71
3
 72
19
 73
15
 74
0
 42
0.0000001
 43
0.0000001
 44
0.0000000001
 40
0.0
 40
0.0
 40
0.0
 40
0.0
 40
0.0487668724
 40
0.0972201683
 40
0.1461084743
 40
0.1961467484
 40
0.247969054
 40
0.3020940642
 40
0.3589123298
 40
0.418681294
 40
0.5474033624
 40
0.6882942508
 40
0.8399450089
 40
1.0
 40
1.0
 40
1.0
 40
1.0
 10
13.1765357131
 20
39.7414447315
 30
0.0
 10
13.2614209833
 20
39.8186192264
 30
0.0
 10
13.44228601
 20
39.9602742925
 30
0.0
 10
13.743247635
 20
40.1289642418
 30
0.0
 10
14.0691909256
 20
40.2509933805
 30
0.0
 10
14.4171987865
 20
40.3252988306
 30
0.0
 10
14.7843081485
 20
40.3515569418
 30
0.0
 10
15.1675446148
 20
40.3297809106
 30
0.0
 10
15.5639445953
 20
40.2603693702
 30
0.0
 10
16.1196174834
 20
40.1013427097
 30
0.0
 10
16.8297686481
 20
39.7806469939
 30
0.0
 10
17.6616702113
 20
39.2363326158
 30
0.0
 10
18.4704204484
 20
38.5397681469
 30
0.0
 10
18.9680466311
 20
37.9988059645
 30
0.0
 10
19.2081288202
 20
37.7087494987
 30
0.0
  0
SPLINE
  5
2CB
100
AcDbEntity
  8
0
100
AcDbSpline
 62
7
  6
BYLAYER
 70
0
 71
3
 72
25
 73
21
 74
0
 42
0.0000001
 43
0.0000001
 44
0.0000000001
 40
0.0
 40
0.0
 40
0.0
 40
0.0
 40
0.0217112144
 40
0.0435699691
 40
0.0657159897
 40
0.0882800796
 40
0.1350774644
 40
0.1847723245
 40
0.2378596003
 40
0.2945816678
 40
0.3549609565
 40
0.4188369242
 40
0.4859002315
 40
0.555724375
 40
0.6277913547
 40
0.701515517
 40
0.7762648538
 40
0.8513702154
 40
0.926180226
 40
1.0
 40
1.0
 40
1.0
 40
1.0
 10
26.3711768078
 20
23.2049229319
 30
0.0
 10
26.5088226892
 20
23.2847286595
 30
0.0
 10
26.7771858348
 20
23.458909052
 30
0.0
 10
27.1534865045
 20
23.7606488584
 30
0.0
 10
27.5030039012
 20
24.1021094454
 30
0.0
 10
27.9367190398
 20
24.6146966237
 30
0.0
 10
28.4057997666
 20
25.3560864642
 30
0.0
 10
28.8352473891
 20
26.3690824537
 30
0.0
 10
29.1346259577
 20
27.5026239569
 30
0.0
 10
29.3009157667
 20
28.7415338861
 30
0.0
 10
29.3326910469
 20
30.0697670277
 30
0.0
 10
29.2298712094
 20
31.4700279474
 30
0.0
 10
28.9940250512
 20
32.9240037427
 30
0.0
 10
28.6283578722
 20
34.4125614438
 30
0.0
 10
28.1377522898
 20
35.916030095
 30
0.0
 10
27.5287103012
 20
37.414484098
 30
0.0
 10
26.809322067
 20
38.8879527024
 30
0.0
 10
25.989184185
 20
40.3170026636
 30
0.0
 10
25.079212364
 20
41.6823326004
 30
0.0
 10
24.4143827347
 20
42.5464168675
 30
0.0
 10
24.0694416796
 20
42.9631590831
 30
0.0
  0
SPLINE
  5
2CC
100
AcDbEntity
  8
0
100
AcDbSpline
 62
7
  6
BYLAYER
 70
0
 71
3
 72
23
 73
19
 74
0
 42
0.0000001
 43
0.0000001
 44
0.0000000001
 40
0.0
 40
0.0
 40
0.0
 40
0.0
 40
0.0753138261
 40
0.1516809709
 40
0.2282549641
 40
0.3042926667
 40
0.3790269871
 40
0.4517318358
 40
0.5217536185
 40
0.5885343098
 40
0.6516445075
 40
0.7108181723
 40
0.766002444
 40
0.8174029019
 40
0.865527455
 40
0.9112153082
 40
0.9556011885
 40
1.0
 40
1.0
 40
1.0
 40
1.0
 10
19.2081288202
 20
37.7087494987
 30
0.0
 10
19.3819369566
 20
37.4987623522
 30
0.0
 10
19.7159909542
 20
37.0623626298
 30
0.0
 10
20.1698199661
 20
36.3712452849
 30
0.0
 10
20.5745314629
 20
35.6472099279
 30
0.0
 10
20.9239448988
 20
34.9014494515
 30
0.0
 10
21.2128532131
 20
34.145157619
 30
0.0
 10
21.4368533625
 20
33.3897845444
 30
0.0
 10
21.5925119561
 20
32.6467175578
 30
0.0
 10
21.6774956714
 20
31.9271127921
 30
0.0
 10
21.6904597311
 20
31.2416977564
 30
0.0
 10
21.6309521688
 20
30.600620157
 30
0.0
 10
21.4995441642
 20
30.0133359863
 30
0.0
 10
21.2975588674
 20
29.4885825137
 30
0.0
 10
21.0270140054
 20
29.0346376758
 30
0.0
 10
20.6910732515
 20
28.6594024798
 30
0.0
 10
20.294982556
 20
28.3703923
 30
0.0
 10
19.9979686165
 20
28.2403495262
 30
0.0
 10
19.8449021776
 20
28.1914256393
 30
0.0
  0
SPLINE
  5
2CD
100
AcDbEntity
  8
0
100
AcDbSpline
 62
7
  6
BYLAYER
 70
0
 71
3
 72
14
 73
10
 74
0
 42
0.0000001
 43
0.0000001
 44
0.0000000001
 40
0.0
 40
0.0
 40
0.0
 40
0.0
 40
0.2104636956
 40
0.3263576535
 40
0.4492524781
 40
0.5787814455
 40
0.7143109249
 40
0.8550633243
 40
1.0
 40
1.0
 40
1.0
 40
1.0
 10
15.3957190219
 20
48.4715913103
 30
0.0
 10
16.1275231865
 20
48.3991608675
 30
0.0
 10
17.2475477195
 20
48.1070080235
 30
0.0
 10
18.680439621
 20
47.4638615176
 30
0.0
 10
19.7971370091
 20
46.8192308018
 30
0.0
 10
20.9057152346
 20
46.0364359112
 30
0.0
 10
21.9937804541
 20
45.1248354164
 30
0.0
 10
23.0476578639
 20
44.0956739878
 30
0.0
 10
23.7110958138
 20
43.3485563919
 30
0.0
 10
24.0344898239
 20
42.9588387236
 30
0.0
  0
SPLINE
  5
2CE
100
AcDbEntity
  8
0
100
AcDbSpline
 62
7
  6
BYLAYER
 70
0
 71
3
 72
19
 73
15
 74
0
 42
0.0000001
 43
0.0000001
 44
0.0000000001
 40
0.0
 40
0.0
 40
0.0
 40
0.0
 40
0.1600537371
 40
0.3117064416
 40
0.4525962071
 40
0.5813185193
 40
0.6410878066
 40
0.6979055892
 40
0.752031094
 40
0.8038529949
 40
0.8538916186
 40
0.9027797066
 40
0.9512331086
 40
1.0
 40
1.0
 40
1.0
 40
1.0
 10
17.0075984026
 20
36.2737901674
 30
0.0
 10
16.7855919578
 20
36.5420083348
 30
0.0
 10
16.3254257705
 20
37.0422450751
 30
0.0
 10
15.5775638207
 20
37.6863726024
 30
0.0
 10
14.8082854416
 20
38.1897091848
 30
0.0
 10
14.1515961499
 20
38.4862536751
 30
0.0
 10
13.6377592796
 20
38.6333254887
 30
0.0
 10
13.2711980526
 20
38.6974922712
 30
0.0
 10
12.9168140676
 20
38.7176523883
 30
0.0
 10
12.5773430883
 20
38.6933456343
 30
0.0
 10
12.2555287514
 20
38.6246607338
 30
0.0
 10
11.9541320769
 20
38.5117927748
 30
0.0
 10
11.6758169613
 20
38.3558238646
 30
0.0
 10
11.5085724222
 20
38.2248242495
 30
0.0
 10
11.4300808172
 20
38.1534559762
 30
0.0
  0
SPLINE
  5
2CF
100
AcDbEntity
  8
0
100
AcDbSpline
 62
7
  6
BYLAYER
 70
0
 71
3
 72
25
 73
21
 74
0
 42
0.0000001
 43
0.0000001
 44
0.0000000001
 40
0.0
 40
0.0
 40
0.0
 40
0.0
 40
0.0217137578
 40
0.0435725838
 40
0.0657165398
 40
0.0882767627
 40
0.1350625397
 40
0.1847432461
 40
0.2378164165
 40
0.2945263656
 40
0.3548967858
 40
0.4187677868
 40
0.4858302176
 40
0.5556573906
 40
0.6277310665
 40
0.7014649944
 40
0.7762258215
 40
0.8513438992
 40
0.9261670015
 40
1.0
 40
1.0
 40
1.0
 40
1.0
 10
24.3129578635
 20
22.0165975654
 30
0.0
 10
24.4508225945
 20
22.0961893467
 30
0.0
 10
24.7196282959
 20
22.269958741
 30
0.0
 10
25.096610715
 20
22.5711644849
 30
0.0
 10
25.4467976894
 20
22.9121593697
 30
0.0
 10
25.8813899372
 20
23.4241892932
 30
0.0
 10
26.3515424066
 20
24.1650735402
 30
0.0
 10
26.7821619031
 20
25.1777449763
 30
0.0
 10
27.0825842741
 20
26.3111989959
 30
0.0
 10
27.2497769801
 20
27.5502395073
 30
0.0
 10
27.2823033681
 20
28.878801194
 30
0.0
 10
27.1800751127
 20
30.2795645432
 30
0.0
 10
26.9446575638
 20
31.7341890214
 30
0.0
 10
26.5792544384
 20
33.2235123934
 30
0.0
 10
26.0887483348
 20
34.7278315447
 30
0.0
 10
25.4796496436
 20
36.2271841081
 30
0.0
 10
24.7600615491
 20
37.7015640424
 30
0.0
 10
23.9395939986
 20
39.1315018344
 30
0.0
 10
23.0291782778
 20
40.4976703326
 30
0.0
 10
22.3639814051
 20
41.362267434
 30
0.0
 10
22.0188405517
 20
41.7792510368
 30
0.0
  0
SPLINE
  5
2D0
100
AcDbEntity
  8
0
100
AcDbSpline
 62
7
  6
BYLAYER
 70
0
 71
3
 72
9
 73
5
 74
0
 42
0.0000001
 43
0.0000001
 44
0.0000000001
 40
0.0
 40
0.0
 40
0.0
 40
0.0
 40
0.5033201781
 40
1.0
 40
1.0
 40
1.0
 40
1.0
 10
18.1360912275
 20
34.6031342715
 30
0.0
 10
17.9739486691
 20
34.900424222
 30
0.0
 10
17.6238014435
 20
35.4762282405
 30
0.0
 10
17.2206694072
 20
36.0163673956
 30
0.0
 10
17.0075984026
 20
36.2737901674
 30
0.0
  0
ENDSEC
  0
SECTION
  2
OBJECTS
  0
DICTIONARY
  5
C
100
AcDbDictionary
280
0
281
1
  3
ACAD_GROUP
350
D
  3
ACAD_MLINESTYLE
350
17
  3
ACAD_LAYOUT
350
1A
  3
ACAD_PLOTSETTINGS
350
19
  3
ACAD_PLOTSTYLENAME
350
E
  0
DICTIONARY
  5
D
102
{ACAD_REACTORS
330
C
102
}
100
AcDbDictionary
280
0
281
1
  0
ACDBDICTIONARYWDFLT
  5
E
102
{ACAD_REACTORS
330
C
102
}
100
AcDbDictionary
281
1
  3
Normal
350
F
100
AcDbDictionaryWithDefault
340
F
  0
DICTIONARY
  5
17
102
{ACAD_REACTORS
330
C
102
}
100
AcDbDictionary
280
0
281
1
  3
Standard
350
18
  0
DICTIONARY
  5
19
102
{ACAD_REACTORS
330
C
102
}
100
AcDbDictionary
281
1
  0
DICTIONARY
  5
1A
102
{ACAD_REACTORS
330
C
102
}
100
AcDbDictionary
281
1
  3
Model
350
2D1
  3
Layout1
350
2D2
  0
ACDBPLACEHOLDER
  5
F
102
{ACAD_REACTORS
330
E
102
}
  0
MLINESTYLE
  5
18
102
{ACAD_REACTORS
330
17
102
}
100
AcDbMlineStyle
  2
STANDARD
 70
0
  3

 62
256
 51
90.0
 52
90.0
 71
2
 49
0.5
 62
256
  6
BYLAYER
 49
-0.5
 62
256
  6
BYLAYER
  0
LAYOUT
  5
2D1
102
{ACAD_REACTORS
330
1A
102
}
100
AcDbPlotSettings
  1

  2
none_device
  4

  6

 40
0.0
 41
0.0
 42
0.0
 43
0.0
 44
210.0
 45
297.0
 46
0.0
 47
0.0
 48
0.0
 49
0.0
140
0.0
141
0.0
142
1.0
143
1.0
 70
1024
 72
1
 73
0
 74
0
  7

 75
0
147
1.0
148
0.0
149
0.0
100
AcDbLayout
  1
Model
 70
0
 71
0
 10
0.0
 20
0.0
 11
210.0
 21
297.0
 12
0.0
 22
0.0
 32
0.0
 14
0.0
 24
0.0
 34
0.0
 15
0.0
 25
0.0
 35
0.0
146
0.0
 13
0.0
 23
0.0
 33
0.0
 16
1.0
 26
0.0
 36
0.0
 17
0.0
 27
1.0
 37
0.0
 76
0
330
210
345
0
346
0
  0
LAYOUT
  5
2D2
102
{ACAD_REACTORS
330
1A
102
}
100
AcDbPlotSettings
  1

  2
none_device
  4

  6

 40
0.0
 41
0.0
 42
0.0
 43
0.0
 44
210.0
 45
297.0
 46
0.0
 47
0.0
 48
0.0
 49
0.0
140
0.0
141
0.0
142
1.0
143
1.0
 70
0
 72
1
 73
0
 74
0
  7

 75
0
147
1.0
148
0.0
149
0.0
100
AcDbLayout
  1
Layout1
 70
0
 71
1
 10
0.0
 20
0.0
 11
210.0
 21
297.0
 12
0.0
 22
0.0
 32
0.0
 14
0.0
 24
0.0
 34
0.0
 15
0.0
 25
0.0
 35
0.0
146
0.0
 13
0.0
 23
0.0
 33
0.0
 16
1.0
 26
0.0
 36
0.0
 17
0.0
 27
1.0
 37
0.0
 76
0
330
211
345
0
346
0
  0
ENDSEC
  0
EOF
