999
DXF file: C:\Users\sesa63760\Dev\_Creo\CAD\MCADID0004514_3D-CAD\drw0001_1.dxf
999
Pro/ENGINEER 2019471 by Parametric Technology Corporation
  0
SECTION
  2
HEADER
  9
$ACADVER
  1
AC1024
  9
$DWGCODEPAGE
  3
ANSI_1252
  9
$EXTMAX
 10
50.1710230107
 20
70.9561611152
 30
0.0
  9
$EXTMIN
 10
0.0
 20
0.0
 30
0.0
  9
$LIMMIN
 10
0.0
 20
0.0
  9
$LIMMAX
 10
50.1710230107
 20
70.9561611152
  9
$VIEWCTR
 10
25.0855115054
 20
35.4780805576
  9
$VIEWSIZE
 40
70.9561611152
  9
$CLAYER
  8
0
  9
$LTSCALE
 40
4.6252905023
  9
$CELTYPE
  6
BYLAYER
  9
$DIMSCALE
 40
1.0
  9
$DIMASZ
 40
0.5972740835
  9
$DIMEXO
 40
1.0
  9
$DIMDLI
 40
3.1956552562
  9
$DIMEXE
 40
1.0
  9
$DIMCEN
 40
0.7568657186
  9
$DIMLFAC
 40
1.0
  9
$DIMBLK
  1
_FILLED
  9
$DIMALT
 70
0
  9
$DIMALTF
 40
0.0393700787
  9
$DIMTXT
 40
0.8361837168
  9
$DIMTOL
 70
1
  9
$DIMLIM
 70
0
  9
$DIMTFAC
 40
1.0
  9
$DIMTP
 40
0.01
  9
$DIMTM
 40
0.01
  9
$DIMGAP
 40
0.625
  9
$DIMDSEP
 70
46
  9
$AUNITS
 70
0
  9
$PDMODE
 70
3
  9
$PDSIZE
 40
0.3125
  9
$HANDSEED
  5
242
  9
$TILEMODE
 70
1
  9
$MEASUREMENT
 70
1
  9
$INSUNITS
 70
4
  0
ENDSEC
  0
SECTION
  2
CLASSES
  0
CLASS
  1
ACDBDICTIONARYWDFLT
  2
AcDbDictionaryWithDefault
  3
AutoCAD 2000
 90
0
 91
1
280
0
281
0
  0
CLASS
  1
ACDBPLACEHOLDER
  2
AcDbPlaceHolder
  3
AutoCAD 2000
 90
0
 91
1
280
0
281
0
  0
CLASS
  1
LAYOUT
  2
AcDbLayout
  3
AutoCAD 2000
 90
0
 91
0
280
0
281
0
  0
ENDSEC
  0
SECTION
  2
TABLES
  0
TABLE
  2
VPORT
  5
8
100
AcDbSymbolTable
 70
2
  0
VPORT
  5
1F4
100
AcDbSymbolTableRecord
100
AcDbViewportTableRecord
  2
*ACTIVE
 70
0
 10
0.0
 20
0.0
 11
1.0
 21
1.0
 12
25.0855115054
 22
35.4780805576
 13
0.0
 23
0.0
 14
1.0
 24
1.0
 15
0.0
 25
0.0
 16
0.0
 26
0.0
 36
1.0
 17
0.0
 27
0.0
 37
0.0
 40
70.9561611152
 41
0.7070707071
 42
50.0
 43
0.0
 44
0.0
 50
0.0
 51
0.0
 71
0
 72
100
 73
1
 74
1
 75
0
 76
0
 77
0
 78
0
  0
ENDTAB
  0
TABLE
  2
LTYPE
  5
5
100
AcDbSymbolTable
 70
6
  0
LTYPE
  5
14
100
AcDbSymbolTableRecord
100
AcDbLinetypeTableRecord
  2
BYBLOCK
 70
0
  3

 72
65
 73
0
 40
0.0
  0
LTYPE
  5
15
100
AcDbSymbolTableRecord
100
AcDbLinetypeTableRecord
  2
BYLAYER
 70
0
  3

 72
65
 73
0
 40
0.0
  0
LTYPE
  5
16
100
AcDbSymbolTableRecord
100
AcDbLinetypeTableRecord
  2
CONTINUOUS
 70
64
  3
Solid line
 72
65
 73
0
 40
0.0
  0
LTYPE
  5
1F5
100
AcDbSymbolTableRecord
100
AcDbLinetypeTableRecord
  2
CENTER
 70
64
  3
____ _ ____ _ ____ _ ____ _ ____ _ ____ _ ____
 72
65
 73
4
 40
0.6
 49
0.375
 74
0
 49
-0.075
 74
0
 49
0.075
 74
0
 49
-0.075
 74
0
  0
LTYPE
  5
1F6
100
AcDbSymbolTableRecord
100
AcDbLinetypeTableRecord
  2
HIDDEN
 70
64
  3
- - - - - - - - - - - - - - - - - - - -
 72
65
 73
2
 40
0.2
 49
0.1
 74
0
 49
-0.1
 74
0
  0
LTYPE
  5
1F7
100
AcDbSymbolTableRecord
100
AcDbLinetypeTableRecord
  2
PHANTOM
 70
64
  3
_____ _ _ _____ _ _ _____ _ _ _____
 72
65
 73
6
 40
0.8
 49
0.45
 74
0
 49
-0.05
 74
0
 49
0.1
 74
0
 49
-0.05
 74
0
 49
0.1
 74
0
 49
-0.05
 74
0
  0
LTYPE
  5
1F8
100
AcDbSymbolTableRecord
100
AcDbLinetypeTableRecord
  2
DOT
 70
64
  3
. . . . . . . . . . . . . . . . . . . .
 72
65
 73
2
 40
0.2
 49
0.1
 74
0
 49
-0.1
 74
0
  0
LTYPE
  5
1F9
100
AcDbSymbolTableRecord
100
AcDbLinetypeTableRecord
  2
DASHED
 70
64
  3
- - - - - - - - - - - - - - - - - - - -
 72
65
 73
2
 40
0.2
 49
0.1
 74
0
 49
-0.1
 74
0
  0
ENDTAB
  0
TABLE
  2
LAYER
  5
2
100
AcDbSymbolTable
 70
36
  0
LAYER
  5
10
100
AcDbSymbolTableRecord
100
AcDbLayerTableRecord
  2
0
 70
0
 62
7
  6
CONTINUOUS
370
-3
390
F
  0
LAYER
  5
1FA
100
AcDbSymbolTableRecord
100
AcDbLayerTableRecord
  2
DEFAULT_1
 70
0
 62
7
  6
CENTER
370
-3
390
F
  0
LAYER
  5
1FB
100
AcDbSymbolTableRecord
100
AcDbLayerTableRecord
  2
DEFAULT_2
 70
0
 62
7
  6
HIDDEN
370
-3
390
F
  0
LAYER
  5
1FC
100
AcDbSymbolTableRecord
100
AcDbLayerTableRecord
  2
DEFAULT_3
 70
0
 62
7
  6
PHANTOM
370
-3
390
F
  0
LAYER
  5
1FD
100
AcDbSymbolTableRecord
100
AcDbLayerTableRecord
  2
00_COMPONENTS
 70
0
 62
7
  6
CONTINUOUS
370
-3
390
F
  0
LAYER
  5
1FE
100
AcDbSymbolTableRecord
100
AcDbLayerTableRecord
  2
01_1_DEFAULT_DATUMS
 70
0
 62
7
  6
CONTINUOUS
370
-3
390
F
  0
LAYER
  5
1FF
100
AcDbSymbolTableRecord
100
AcDbLayerTableRecord
  2
01_PLANES
 70
0
 62
7
  6
CONTINUOUS
370
-3
390
F
  0
LAYER
  5
200
100
AcDbSymbolTableRecord
100
AcDbLayerTableRecord
  2
02_COORD_SYS
 70
0
 62
7
  6
CONTINUOUS
370
-3
390
F
  0
LAYER
  5
201
100
AcDbSymbolTableRecord
100
AcDbLayerTableRecord
  2
03_AXES
 70
0
 62
7
  6
CONTINUOUS
370
-3
390
F
  0
LAYER
  5
202
100
AcDbSymbolTableRecord
100
AcDbLayerTableRecord
  2
04_POINTS
 70
0
 62
7
  6
CONTINUOUS
370
-3
390
F
  0
LAYER
  5
203
100
AcDbSymbolTableRecord
100
AcDbLayerTableRecord
  2
05_CURVES
 70
0
 62
7
  6
CONTINUOUS
370
-3
390
F
  0
LAYER
  5
204
100
AcDbSymbolTableRecord
100
AcDbLayerTableRecord
  2
06_SURFS
 70
0
 62
7
  6
CONTINUOUS
370
-3
390
F
  0
LAYER
  5
205
100
AcDbSymbolTableRecord
100
AcDbLayerTableRecord
  2
07_COSMETICS
 70
0
 62
7
  6
CONTINUOUS
370
-3
390
F
  0
LAYER
  5
206
100
AcDbSymbolTableRecord
100
AcDbLayerTableRecord
  2
10_NOTES
 70
0
 62
7
  6
CONTINUOUS
370
-3
390
F
  0
LAYER
  5
207
100
AcDbSymbolTableRecord
100
AcDbLayerTableRecord
  2
11_NOTES_PUB
 70
0
 62
7
  6
CONTINUOUS
370
-3
390
F
  0
LAYER
  5
208
100
AcDbSymbolTableRecord
100
AcDbLayerTableRecord
  2
13_REF_GTOL
 70
0
 62
7
  6
CONTINUOUS
370
-3
390
F
  0
LAYER
  5
209
100
AcDbSymbolTableRecord
100
AcDbLayerTableRecord
  2
16_MISC
 70
0
 62
7
  6
CONTINUOUS
370
-3
390
F
  0
LAYER
  5
20A
100
AcDbSymbolTableRecord
100
AcDbLayerTableRecord
  2
17_NO_PRINT
 70
0
 62
7
  6
CONTINUOUS
370
-3
390
F
  0
LAYER
  5
20B
100
AcDbSymbolTableRecord
100
AcDbLayerTableRecord
  2
18_DATUM_CAMS_JOINTS
 70
0
 62
7
  6
CONTINUOUS
370
-3
390
F
  0
LAYER
  5
20C
100
AcDbSymbolTableRecord
100
AcDbLayerTableRecord
  2
19_DATUM_FUNCTIONAL
 70
0
 62
7
  6
CONTINUOUS
370
-3
390
F
  0
LAYER
  5
20D
100
AcDbSymbolTableRecord
100
AcDbLayerTableRecord
  2
20_DATUM_KINEMATIC_SCHEME
 70
0
 62
7
  6
CONTINUOUS
370
-3
390
F
  0
ENDTAB
  0
TABLE
  2
STYLE
  5
3
100
AcDbSymbolTable
 70
1
  0
STYLE
  5
11
100
AcDbSymbolTableRecord
100
AcDbTextStyleTableRecord
  2
STANDARD
 70
0
 40
0.0
 41
1.0
 50
0.0
 71
0
 42
0.2
  3
ARIAL.TTF
  4

  0
STYLE
  5
20E
100
AcDbSymbolTableRecord
100
AcDbTextStyleTableRecord
  2
TEXTSTYLE_1
 70
0
 40
0.0
 41
0.8
 50
0.0
 71
0
 42
0.2
  3
gdt
  4

  0
ENDTAB
  0
TABLE
  2
VIEW
  5
6
100
AcDbSymbolTable
 70
0
  0
ENDTAB
  0
TABLE
  2
UCS
  5
7
100
AcDbSymbolTable
 70
0
  0
ENDTAB
  0
TABLE
  2
APPID
  5
9
100
AcDbSymbolTable
 70
1
  0
APPID
  5
20F
100
AcDbSymbolTableRecord
100
AcDbRegAppTableRecord
  2
ACAD
 70
0
  0
ENDTAB
  0
TABLE
  2
BLOCK_RECORD
  5
1
100
AcDbSymbolTable
 70
0
  0
BLOCK_RECORD
  5
210
100
AcDbSymbolTableRecord
100
AcDbBlockTableRecord
  2
*Model_Space
  0
BLOCK_RECORD
  5
211
100
AcDbSymbolTableRecord
100
AcDbBlockTableRecord
  2
*Paper_Space
  0
BLOCK_RECORD
  5
212
100
AcDbSymbolTableRecord
100
AcDbBlockTableRecord
  2
_FILLED
  0
ENDTAB
  0
TABLE
  2
DIMSTYLE
  5
A
100
AcDbSymbolTable
 70
1
100
AcDbDimStyleTable
 71
0
  0
DIMSTYLE
105
213
100
AcDbSymbolTableRecord
100
AcDbDimStyleTableRecord
  2
STANDARD
 70
0
  3

  4

 40
1.0
 41
0.5972740835
 42
1.0
 43
0.38
 44
1.0
 45
0.0
 46
0.0
 47
0.01
 48
0.01
140
0.8361837168
141
0.09
142
0.0
143
25.4
144
1.0
145
0.0
146
1.0
147
0.625
 71
1
 72
0
 73
0
 74
0
 75
0
 76
0
 77
1
 78
8
 79
2
170
0
171
1
172
0
173
0
174
0
175
0
176
0
177
0
178
0
270
2
179
2
271
2
272
2
273
2
274
2
275
0
280
0
281
0
282
0
283
1
284
8
285
0
286
0
287
3
288
0
340
11
278
46
341
212
342
212
343
212
344
212
  0
ENDTAB
  0
ENDSEC
  0
SECTION
  2
BLOCKS
  0
BLOCK
  5
20
100
AcDbEntity
  8
0
100
AcDbBlockBegin
  2
*Model_Space
 70
0
 10
0.0
 20
0.0
 30
0.0
  3
*Model_Space
  1

  0
ENDBLK
  5
21
100
AcDbEntity
  8
0
100
AcDbBlockEnd
  0
BLOCK
  5
1C
100
AcDbEntity
  8
0
100
AcDbBlockBegin
  2
*Paper_Space
 70
0
 10
0.0
 20
0.0
 30
0.0
  3
*Paper_Space
  1

  0
ENDBLK
  5
1D
100
AcDbEntity
  8
0
100
AcDbBlockEnd
  0
BLOCK
  5
214
100
AcDbEntity
  8
0
100
AcDbBlockBegin
  2
_FILLED
 70
64
 10
0.0
 20
0.0
  3
_FILLED
  1

  0
SOLID
  5
215
100
AcDbEntity
  8
0
  6
BYBLOCK
 62
0
100
AcDbTrace
 10
0.0
 20
0.0
 11
-1.0
 21
0.25
 12
-1.0
 22
-0.25
 13
-1.0
 23
-0.25
  0
ENDBLK
  5
216
100
AcDbEntity
  8
0
  6
BYBLOCK
 62
0
100
AcDbBlockEnd
  0
ENDSEC
  0
SECTION
  2
ENTITIES
  0
LINE
  5
217
100
AcDbEntity
  8
0
100
AcDbLine
 62
7
  6
BYLAYER
 10
13.8357484161
 20
50.4105275177
 11
7.558729979
 21
46.4953014289
  0
LINE
  5
218
100
AcDbEntity
  8
0
100
AcDbLine
 62
7
  6
BYLAYER
 10
13.8357484161
 20
50.4105275177
 11
20.1996829511
 21
54.0847249025
  0
LINE
  5
219
100
AcDbEntity
  8
0
100
AcDbLine
 62
7
  6
BYLAYER
 10
8.292055344
 20
46.9527056296
 11
7.2279286909
 21
46.3383354873
  0
LINE
  5
21A
100
AcDbEntity
  8
0
100
AcDbLine
 62
7
  6
BYLAYER
 10
7.558729979
 20
46.4953014289
 11
7.2280473825
 21
46.3381297898
  0
LINE
  5
21B
100
AcDbEntity
  8
0
100
AcDbLine
 62
7
  6
BYLAYER
 10
14.8685232709
 20
47.8014866449
 11
14.4230478535
 21
47.544292828
  0
LINE
  5
21C
100
AcDbEntity
  8
0
100
AcDbLine
 62
7
  6
BYLAYER
 10
7.558729979
 20
37.9520451514
 11
13.9711739258
 21
26.6538077874
  0
LINE
  5
21D
100
AcDbEntity
  8
0
100
AcDbLine
 62
7
  6
BYLAYER
 10
13.9711739258
 20
26.6538077874
 11
30.6151768441
 21
17.0446056113
  0
LINE
  5
21E
100
AcDbEntity
  8
0
100
AcDbLine
 62
7
  6
BYLAYER
 10
14.4230478535
 20
27.9482348169
 11
14.4230478535
 21
47.544292828
  0
LINE
  5
21F
100
AcDbEntity
  8
0
100
AcDbLine
 62
7
  6
BYLAYER
 10
29.2723520816
 20
19.375178972
 11
14.4230478535
 21
27.9482348169
  0
LINE
  5
220
100
AcDbEntity
  8
0
100
AcDbLine
 62
7
  6
BYLAYER
 10
30.7506023538
 20
40.6449529703
 11
37.1145368887
 21
44.3191503552
  0
LINE
  5
221
100
AcDbEntity
  8
0
100
AcDbLine
 62
7
  6
BYLAYER
 10
29.717827499
 20
39.2284308
 11
29.2723520816
 21
38.9712369831
  0
LINE
  5
222
100
AcDbEntity
  8
0
100
AcDbLine
 62
7
  6
BYLAYER
 10
29.2723520816
 20
38.9712369831
 11
29.2723520816
 21
19.375178972
  0
LINE
  5
223
100
AcDbEntity
  8
0
100
AcDbLine
 62
7
  6
BYLAYER
 10
29.717827499
 20
19.6323727889
 11
29.717827499
 21
39.2284308
  0
LINE
  5
224
100
AcDbEntity
  8
0
100
AcDbLine
 62
7
  6
BYLAYER
 10
14.4230478535
 20
47.544292828
 11
29.2723520816
 21
38.9712369831
  0
LINE
  5
225
100
AcDbEntity
  8
0
100
AcDbLine
 62
7
  6
BYLAYER
 10
29.717827499
 20
39.2284308
 11
14.8685232709
 21
47.8014866449
  0
LINE
  5
226
100
AcDbEntity
  8
0
100
AcDbLine
 62
7
  6
BYLAYER
 10
30.7506023538
 20
40.6449529703
 11
13.8357484161
 21
50.4105275177
  0
LINE
  5
227
100
AcDbEntity
  8
0
100
AcDbLine
 62
7
  6
BYLAYER
 10
37.0276207909
 20
29.4818142824
 11
30.7506023538
 21
40.6449529703
  0
LINE
  5
228
100
AcDbEntity
  8
0
100
AcDbLine
 62
7
  6
BYLAYER
 10
43.3915553259
 20
33.1560116673
 11
37.0276207909
 21
29.4818142824
  0
LINE
  5
229
100
AcDbEntity
  8
0
100
AcDbLine
 62
7
  6
BYLAYER
 10
37.1145368887
 20
44.3191503552
 11
20.1996829511
 21
54.0847249025
  0
LINE
  5
22A
100
AcDbEntity
  8
0
100
AcDbLine
 62
7
  6
BYLAYER
 10
37.1145368887
 20
44.3191503552
 11
43.3915553259
 21
33.1560116673
  0
LINE
  5
22B
100
AcDbEntity
  8
0
100
AcDbLine
 62
7
  6
BYLAYER
 10
29.717827499
 20
19.6323727889
 11
29.2723520816
 21
19.375178972
  0
LINE
  5
22C
100
AcDbEntity
  8
0
100
AcDbLine
 62
7
  6
BYLAYER
 10
37.0276207909
 20
20.9385580049
 11
37.3583033875
 21
21.095729644
  0
LINE
  5
22D
100
AcDbEntity
  8
0
100
AcDbLine
 62
7
  6
BYLAYER
 10
30.6151768441
 20
17.0446056113
 11
37.0276207909
 21
20.9385580049
  0
LINE
  5
22E
100
AcDbEntity
  8
0
100
AcDbLine
 62
7
  6
BYLAYER
 10
42.2538208684
 20
23.9218668844
 11
36.979111379
 21
20.7188029962
  0
LINE
  5
22F
100
AcDbEntity
  8
0
100
AcDbLine
 62
7
  6
BYLAYER
 10
43.7223566139
 20
24.7697213314
 11
37.358422079
 21
21.0955239466
  0
LINE
  5
230
100
AcDbEntity
  8
0
100
AcDbLine
 62
7
  6
BYLAYER
 10
30.6151768441
 20
17.0446056113
 11
36.979111379
 21
20.7188029962
  0
SPLINE
  5
231
100
AcDbEntity
  8
0
100
AcDbSpline
 62
7
  6
BYLAYER
 70
0
 71
3
 72
25
 73
21
 74
0
 42
0.0000001
 43
0.0000001
 44
0.0000000001
 40
0.0
 40
0.0
 40
0.0
 40
0.0
 40
0.0623731247
 40
0.1287278704
 40
0.1983138449
 40
0.270291753
 40
0.3436680115
 40
0.4173987655
 40
0.490423862
 40
0.5617114337
 40
0.6303088799
 40
0.6953959918
 40
0.7563435934
 40
0.8127813989
 40
0.8646817802
 40
0.9124565154
 40
0.9351018615
 40
0.9571071653
 40
0.9786678933
 40
1.0
 40
1.0
 40
1.0
 40
1.0
 10
33.9604858499
 20
30.2469669358
 30
0.0
 10
34.1041764426
 20
30.1640090102
 30
0.0
 10
34.3896710061
 20
29.9731903971
 30
0.0
 10
34.7939984568
 20
29.6329837975
 30
0.0
 10
35.1804697762
 20
29.2361427647
 30
0.0
 10
35.5408567973
 20
28.7913017999
 30
0.0
 10
35.8675064167
 20
28.3078030355
 30
0.0
 10
36.1534613936
 20
27.7959988874
 30
0.0
 10
36.392640391
 20
27.2668038601
 30
0.0
 10
36.579929788
 20
26.7314874797
 30
0.0
 10
36.7113215322
 20
26.2014192366
 30
0.0
 10
36.7840171323
 20
25.6877869941
 30
0.0
 10
36.796408234
 20
25.2013303548
 30
0.0
 10
36.7479372622
 20
24.7520479168
 30
0.0
 10
36.6391440459
 20
24.3492950498
 30
0.0
 10
36.4964104753
 20
24.0541074711
 30
0.0
 10
36.353871123
 20
23.8531969863
 30
0.0
 10
36.235624358
 20
23.7220742192
 30
0.0
 10
36.1048700765
 20
23.6087040805
 30
0.0
 10
36.0096174592
 20
23.5452275477
 30
0.0
 10
35.9604744839
 20
23.5168546601
 30
0.0
  0
SPLINE
  5
232
100
AcDbEntity
  8
0
100
AcDbSpline
 62
7
  6
BYLAYER
 70
0
 71
3
 72
25
 73
21
 74
0
 42
0.0000001
 43
0.0000001
 44
0.0000000001
 40
0.0
 40
0.0
 40
0.0
 40
0.0
 40
0.0623731247
 40
0.1287278704
 40
0.1983138449
 40
0.270291753
 40
0.3436680115
 40
0.4173987655
 40
0.490423862
 40
0.5617114337
 40
0.6303088799
 40
0.6953959918
 40
0.7563435934
 40
0.8127813989
 40
0.8646817802
 40
0.9124565154
 40
0.9351018615
 40
0.9571071653
 40
0.9786678933
 40
1.0
 40
1.0
 40
1.0
 40
1.0
 10
10.62586492
 20
43.718911835
 30
0.0
 10
10.7695555128
 20
43.6359539094
 30
0.0
 10
11.0550500763
 20
43.4451352963
 30
0.0
 10
11.459377527
 20
43.1049286967
 30
0.0
 10
11.8458488463
 20
42.7080876639
 30
0.0
 10
12.2062358675
 20
42.263246699
 30
0.0
 10
12.5328854868
 20
41.7797479346
 30
0.0
 10
12.8188404638
 20
41.2679437866
 30
0.0
 10
13.0580194612
 20
40.7387487593
 30
0.0
 10
13.2453088581
 20
40.2034323789
 30
0.0
 10
13.3767006023
 20
39.6733641358
 30
0.0
 10
13.4493962024
 20
39.1597318933
 30
0.0
 10
13.4617873041
 20
38.673275254
 30
0.0
 10
13.4133163324
 20
38.223992816
 30
0.0
 10
13.3045231161
 20
37.8212399489
 30
0.0
 10
13.1617895454
 20
37.5260523703
 30
0.0
 10
13.0192501931
 20
37.3251418855
 30
0.0
 10
12.9010034282
 20
37.1940191184
 30
0.0
 10
12.7702491467
 20
37.0806489797
 30
0.0
 10
12.6749965294
 20
37.0171724469
 30
0.0
 10
12.6258535541
 20
36.9887995593
 30
0.0
  0
SPLINE
  5
233
100
AcDbEntity
  8
0
100
AcDbSpline
 62
7
  6
BYLAYER
 70
0
 71
3
 72
14
 73
10
 74
0
 42
0.0000001
 43
0.0000001
 44
0.0000000001
 40
0.0
 40
0.0
 40
0.0
 40
0.0
 40
0.1080588406
 40
0.2181556464
 40
0.3321513395
 40
0.4515563537
 40
0.7103704691
 40
0.8514091219
 40
1.0
 40
1.0
 40
1.0
 40
1.0
 10
31.9604972159
 20
30.4450598745
 30
0.0
 10
32.0260758786
 20
30.48292197
 30
0.0
 10
32.1653218107
 20
30.548101507
 30
0.0
 10
32.3906039357
 20
30.6104414221
 30
0.0
 10
32.630797361
 20
30.6371792685
 30
0.0
 10
32.9765131479
 20
30.6252120685
 30
0.0
 10
33.3342576965
 20
30.5390519285
 30
0.0
 10
33.6901389043
 20
30.3932948723
 30
0.0
 10
33.8703084855
 20
30.2990296836
 30
0.0
 10
33.9604858499
 20
30.2469669358
 30
0.0
  0
SPLINE
  5
234
100
AcDbEntity
  8
0
100
AcDbSpline
 62
7
  6
BYLAYER
 70
0
 71
3
 72
22
 73
18
 74
0
 42
0.0000001
 43
0.0000001
 44
0.0000000001
 40
0.0
 40
0.0
 40
0.0
 40
0.0
 40
0.0767294954
 40
0.1534526701
 40
0.3043990506
 40
0.3776850036
 40
0.4488390188
 40
0.5174429084
 40
0.583144854
 40
0.6456778873
 40
0.7048812656
 40
0.7607187208
 40
0.8133119913
 40
0.8629534957
 40
0.9101282817
 40
0.9555249812
 40
1.0
 40
1.0
 40
1.0
 40
1.0
 10
43.3915553259
 20
33.1560116673
 30
0.0
 10
43.5199970828
 20
32.9588909054
 30
0.0
 10
43.7650089427
 20
32.5567599973
 30
0.0
 10
44.2023638212
 20
31.7317955597
 30
0.0
 10
44.5608833226
 20
30.8783656177
 30
0.0
 10
44.829718714
 20
30.0129014219
 30
0.0
 10
44.9810102157
 20
29.3768405729
 30
0.0
 10
45.0823834654
 20
28.7544632279
 30
0.0
 10
45.1326747697
 20
28.1523241894
 30
0.0
 10
45.1313261523
 20
27.5768122572
 30
0.0
 10
45.0782897292
 20
27.0339885032
 30
0.0
 10
44.9738896503
 20
26.5295736924
 30
0.0
 10
44.8190709064
 20
26.0688810081
 30
0.0
 10
44.615011515
 20
25.6569554647
 30
0.0
 10
44.3635365644
 20
25.2984168512
 30
0.0
 10
44.0670847091
 20
24.9977723744
 30
0.0
 10
43.8404390003
 20
24.8379424021
 30
0.0
 10
43.7223368713
 20
24.769755644
 30
0.0
  0
SPLINE
  5
235
100
AcDbEntity
  8
0
100
AcDbSpline
 62
7
  6
BYLAYER
 70
0
 71
3
 72
22
 73
18
 74
0
 42
0.0000001
 43
0.0000001
 44
0.0000000001
 40
0.0
 40
0.0
 40
0.0
 40
0.0
 40
0.0444750188
 40
0.0898717183
 40
0.1370465043
 40
0.1866880087
 40
0.2392812792
 40
0.2951187344
 40
0.3543221127
 40
0.416855146
 40
0.4825570916
 40
0.5511609812
 40
0.6223149964
 40
0.6956009494
 40
0.8465473299
 40
0.9232705046
 40
1.0
 40
1.0
 40
1.0
 40
1.0
 10
7.2279484336
 20
46.3383011746
 30
0.0
 10
7.1098463045
 20
46.2701144166
 30
0.0
 10
6.8832005958
 20
46.1102844443
 30
0.0
 10
6.5867487404
 20
45.8096399675
 30
0.0
 10
6.3352737899
 20
45.451101354
 30
0.0
 10
6.1312143984
 20
45.0391758106
 30
0.0
 10
5.9763956545
 20
44.5784831262
 30
0.0
 10
5.8719955757
 20
44.0740683155
 30
0.0
 10
5.8189591526
 20
43.5312445615
 30
0.0
 10
5.8176105352
 20
42.9557326293
 30
0.0
 10
5.8679018395
 20
42.3535935908
 30
0.0
 10
5.9692750892
 20
41.7312162458
 30
0.0
 10
6.1205665909
 20
41.0951553967
 30
0.0
 10
6.3894019823
 20
40.229691201
 30
0.0
 10
6.7479214837
 20
39.376261259
 30
0.0
 10
7.1852763622
 20
38.5512968213
 30
0.0
 10
7.430288222
 20
38.1491659132
 30
0.0
 10
7.558729979
 20
37.9520451514
 30
0.0
  0
SPLINE
  5
236
100
AcDbEntity
  8
0
100
AcDbSpline
 62
7
  6
BYLAYER
 70
0
 71
3
 72
14
 73
10
 74
0
 42
0.0000001
 43
0.0000001
 44
0.0000000001
 40
0.0
 40
0.0
 40
0.0
 40
0.0
 40
0.1080588406
 40
0.2181556464
 40
0.3321513395
 40
0.4515563537
 40
0.7103704691
 40
0.8514091219
 40
1.0
 40
1.0
 40
1.0
 40
1.0
 10
8.625876286
 20
43.9170047737
 30
0.0
 10
8.6914549488
 20
43.9548668692
 30
0.0
 10
8.8307008808
 20
44.0200464062
 30
0.0
 10
9.0559830059
 20
44.0823863212
 30
0.0
 10
9.2961764311
 20
44.1091241677
 30
0.0
 10
9.641892218
 20
44.0971569677
 30
0.0
 10
9.9996367666
 20
44.0109968277
 30
0.0
 10
10.3555179745
 20
43.8652397715
 30
0.0
 10
10.5356875557
 20
43.7709745828
 30
0.0
 10
10.62586492
 20
43.718911835
 30
0.0
  0
SPLINE
  5
237
100
AcDbEntity
  8
0
100
AcDbSpline
 62
7
  6
BYLAYER
 70
0
 71
3
 72
22
 73
18
 74
0
 42
0.0000001
 43
0.0000001
 44
0.0000000001
 40
0.0
 40
0.0
 40
0.0
 40
0.0
 40
0.0444750188
 40
0.0898717183
 40
0.1370465043
 40
0.1866880087
 40
0.2392812792
 40
0.2951187344
 40
0.3543221127
 40
0.416855146
 40
0.4825570916
 40
0.5511609812
 40
0.6223149964
 40
0.6956009494
 40
0.8465473299
 40
0.9232705046
 40
1.0
 40
1.0
 40
1.0
 40
1.0
 10
37.3584023363
 20
21.0955582592
 30
0.0
 10
37.4765044654
 20
21.1637450172
 30
0.0
 10
37.7031501741
 20
21.3235749895
 30
0.0
 10
37.9996020295
 20
21.6242194664
 30
0.0
 10
38.2510769801
 20
21.9827580798
 30
0.0
 10
38.4551363715
 20
22.3946836232
 30
0.0
 10
38.6099551154
 20
22.8553763076
 30
0.0
 10
38.7143551942
 20
23.3597911184
 30
0.0
 10
38.7673916173
 20
23.9026148724
 30
0.0
 10
38.7687402348
 20
24.4781268045
 30
0.0
 10
38.7184489304
 20
25.080265843
 30
0.0
 10
38.6170756808
 20
25.702643188
 30
0.0
 10
38.465784179
 20
26.3387040371
 30
0.0
 10
38.1969487877
 20
27.2041682328
 30
0.0
 10
37.8384292863
 20
28.0575981748
 30
0.0
 10
37.4010744078
 20
28.8825626125
 30
0.0
 10
37.1560625479
 20
29.2846935206
 30
0.0
 10
37.0276207909
 20
29.4818142824
 30
0.0
  0
SPLINE
  5
238
100
AcDbEntity
  8
0
100
AcDbSpline
 62
7
  6
BYLAYER
 70
0
 71
3
 72
12
 73
8
 74
0
 42
0.0000001
 43
0.0000001
 44
0.0000000001
 40
0.0
 40
0.0
 40
0.0
 40
0.0
 40
0.2444281919
 40
0.501034639
 40
0.7570314711
 40
0.8808996815
 40
1.0
 40
1.0
 40
1.0
 40
1.0
 10
13.0682329544
 20
40.5265275914
 30
0.0
 10
12.9201401522
 20
40.6547908965
 30
0.0
 10
12.6423501332
 20
40.9483226363
 30
0.0
 10
12.3012806767
 20
41.4528585437
 30
0.0
 10
12.0837309583
 20
41.9170638138
 30
0.0
 10
11.9608408735
 20
42.2980612331
 30
0.0
 10
11.9177979506
 20
42.4883541749
 30
0.0
 10
11.9014538039
 20
42.5824066849
 30
0.0
  0
SPLINE
  5
239
100
AcDbEntity
  8
0
100
AcDbSpline
 62
7
  6
BYLAYER
 70
0
 71
3
 72
25
 73
21
 74
0
 42
0.0000001
 43
0.0000001
 44
0.0000000001
 40
0.0
 40
0.0
 40
0.0
 40
0.0
 40
0.0623731247
 40
0.1287278704
 40
0.1983138449
 40
0.270291753
 40
0.3436680115
 40
0.4173987655
 40
0.490423862
 40
0.5617114337
 40
0.6303088799
 40
0.6953959918
 40
0.7563435934
 40
0.8127813989
 40
0.8646817802
 40
0.9124565154
 40
0.9351018615
 40
0.9571071653
 40
0.9786678933
 40
1.0
 40
1.0
 40
1.0
 40
1.0
 10
33.9604858499
 20
23.7149475988
 30
0.0
 10
33.8167952572
 20
23.7979055244
 30
0.0
 10
33.5313006937
 20
23.9887241375
 30
0.0
 10
33.126973243
 20
24.3289307371
 30
0.0
 10
32.7405019236
 20
24.7257717699
 30
0.0
 10
32.3801149025
 20
25.1706127348
 30
0.0
 10
32.0534652831
 20
25.6541114992
 30
0.0
 10
31.7675103062
 20
26.1659156473
 30
0.0
 10
31.5283313087
 20
26.6951106746
 30
0.0
 10
31.3410419118
 20
27.2304270549
 30
0.0
 10
31.2096501676
 20
27.760495298
 30
0.0
 10
31.1369545675
 20
28.2741275406
 30
0.0
 10
31.1245634658
 20
28.7605841798
 30
0.0
 10
31.1730344376
 20
29.2098666178
 30
0.0
 10
31.2818276538
 20
29.6126194849
 30
0.0
 10
31.4245612245
 20
29.9078070635
 30
0.0
 10
31.5671005768
 20
30.1087175483
 30
0.0
 10
31.6853473418
 20
30.2398403155
 30
0.0
 10
31.8161016233
 20
30.3532104541
 30
0.0
 10
31.9113542406
 20
30.4166869869
 30
0.0
 10
31.9604972159
 20
30.4450598745
 30
0.0
  0
SPLINE
  5
23A
100
AcDbEntity
  8
0
100
AcDbSpline
 62
7
  6
BYLAYER
 70
0
 71
3
 72
25
 73
21
 74
0
 42
0.0000001
 43
0.0000001
 44
0.0000000001
 40
0.0
 40
0.0
 40
0.0
 40
0.0
 40
0.0623731247
 40
0.1287278704
 40
0.1983138449
 40
0.270291753
 40
0.3436680115
 40
0.4173987655
 40
0.490423862
 40
0.5617114337
 40
0.6303088799
 40
0.6953959918
 40
0.7563435934
 40
0.8127813989
 40
0.8646817802
 40
0.9124565154
 40
0.9351018615
 40
0.9571071653
 40
0.9786678933
 40
1.0
 40
1.0
 40
1.0
 40
1.0
 10
10.62586492
 20
37.186892498
 30
0.0
 10
10.4821743273
 20
37.2698504236
 30
0.0
 10
10.1966797638
 20
37.4606690367
 30
0.0
 10
9.7923523131
 20
37.8008756363
 30
0.0
 10
9.4058809937
 20
38.1977166691
 30
0.0
 10
9.0454939726
 20
38.6425576339
 30
0.0
 10
8.7188443533
 20
39.1260563983
 30
0.0
 10
8.4328893763
 20
39.6378605464
 30
0.0
 10
8.1937103789
 20
40.1670555737
 30
0.0
 10
8.0064209819
 20
40.7023719541
 30
0.0
 10
7.8750292378
 20
41.2324401972
 30
0.0
 10
7.8023336376
 20
41.7460724397
 30
0.0
 10
7.7899425359
 20
42.232529079
 30
0.0
 10
7.8384135077
 20
42.681811517
 30
0.0
 10
7.947206724
 20
43.0845643841
 30
0.0
 10
8.0899402947
 20
43.3797519627
 30
0.0
 10
8.232479647
 20
43.5806624475
 30
0.0
 10
8.3507264119
 20
43.7117852146
 30
0.0
 10
8.4814806934
 20
43.8251553533
 30
0.0
 10
8.5767333107
 20
43.8886318861
 30
0.0
 10
8.625876286
 20
43.9170047737
 30
0.0
  0
SPLINE
  5
23B
100
AcDbEntity
  8
0
100
AcDbSpline
 62
7
  6
BYLAYER
 70
0
 71
3
 72
14
 73
10
 74
0
 42
0.0000001
 43
0.0000001
 44
0.0000000001
 40
0.0
 40
0.0
 40
0.0
 40
0.0
 40
0.1080588406
 40
0.2181556464
 40
0.3321513395
 40
0.4515563537
 40
0.7103704691
 40
0.8514091219
 40
1.0
 40
1.0
 40
1.0
 40
1.0
 10
12.6258535541
 20
36.9887995593
 30
0.0
 10
12.5602748913
 20
36.9509374638
 30
0.0
 10
12.4210289593
 20
36.8857579268
 30
0.0
 10
12.1957468342
 20
36.8234180118
 30
0.0
 10
11.955553409
 20
36.7966801653
 30
0.0
 10
11.6098376221
 20
36.8086473653
 30
0.0
 10
11.2520930735
 20
36.8948075053
 30
0.0
 10
10.8962118656
 20
37.0405645615
 30
0.0
 10
10.7160422844
 20
37.1348297502
 30
0.0
 10
10.62586492
 20
37.186892498
 30
0.0
  0
SPLINE
  5
23C
100
AcDbEntity
  8
0
100
AcDbSpline
 62
7
  6
BYLAYER
 70
0
 71
3
 72
12
 73
8
 74
0
 42
0.0000001
 43
0.0000001
 44
0.0000000001
 40
0.0
 40
0.0
 40
0.0
 40
0.0
 40
0.2444281919
 40
0.501034639
 40
0.7570314711
 40
0.8808996815
 40
1.0
 40
1.0
 40
1.0
 40
1.0
 10
36.4028538842
 20
27.0545826922
 30
0.0
 10
36.254761082
 20
27.1828459973
 30
0.0
 10
35.976971063
 20
27.4763777371
 30
0.0
 10
35.6359016066
 20
27.9809136445
 30
0.0
 10
35.4183518881
 20
28.4451189147
 30
0.0
 10
35.2954618033
 20
28.826116334
 30
0.0
 10
35.2524188804
 20
29.0164092757
 30
0.0
 10
35.2360747338
 20
29.1104617857
 30
0.0
  0
SPLINE
  5
23D
100
AcDbEntity
  8
0
100
AcDbSpline
 62
7
  6
BYLAYER
 70
0
 71
3
 72
16
 73
12
 74
0
 42
0.0000001
 43
0.0000001
 44
0.0000000001
 40
0.0
 40
0.0
 40
0.0
 40
0.0
 40
0.1141287319
 40
0.2372796878
 40
0.3669148391
 40
0.4999294228
 40
0.6329460486
 40
0.7625934383
 40
0.8857638016
 40
0.9441609777
 40
1.0
 40
1.0
 40
1.0
 40
1.0
 10
33.9604679474
 20
30.2481492574
 30
0.0
 10
33.9603934734
 20
30.0245509006
 30
0.0
 10
34.0012201056
 20
29.5592298546
 30
0.0
 10
34.1643491004
 20
28.8572056763
 30
0.0
 10
34.4258101514
 20
28.1460627271
 30
0.0
 10
34.7758161144
 20
27.452570758
 30
0.0
 10
35.2012928371
 20
26.8025542401
 30
0.0
 10
35.6862324982
 20
26.220495907
 30
0.0
 10
36.1329133481
 20
25.8025109213
 30
0.0
 10
36.5051367577
 20
25.5230174552
 30
0.0
 10
36.6941587657
 20
25.4026225461
 30
0.0
 10
36.7889011987
 20
25.3479242143
 30
0.0
  0
SPLINE
  5
23E
100
AcDbEntity
  8
0
100
AcDbSpline
 62
7
  6
BYLAYER
 70
0
 71
3
 72
16
 73
12
 74
0
 42
0.0000001
 43
0.0000001
 44
0.0000000001
 40
0.0
 40
0.0
 40
0.0
 40
0.0
 40
0.1141287319
 40
0.2372796878
 40
0.3669148391
 40
0.4999294228
 40
0.6329460486
 40
0.7625934383
 40
0.8857638016
 40
0.9441609777
 40
1.0
 40
1.0
 40
1.0
 40
1.0
 10
10.6258470176
 20
43.7200941566
 30
0.0
 10
10.6257725435
 20
43.4964957998
 30
0.0
 10
10.6665991758
 20
43.0311747538
 30
0.0
 10
10.8297281706
 20
42.3291505754
 30
0.0
 10
11.0911892216
 20
41.6180076263
 30
0.0
 10
11.4411951846
 20
40.9245156572
 30
0.0
 10
11.8666719072
 20
40.2744991393
 30
0.0
 10
12.3516115684
 20
39.6924408062
 30
0.0
 10
12.7982924182
 20
39.2744558204
 30
0.0
 10
13.1705158279
 20
38.9949623544
 30
0.0
 10
13.3595378359
 20
38.8745674452
 30
0.0
 10
13.4542802689
 20
38.8198691135
 30
0.0
  0
SPLINE
  5
23F
100
AcDbEntity
  8
0
100
AcDbSpline
 62
7
  6
BYLAYER
 70
0
 71
3
 72
14
 73
10
 74
0
 42
0.0000001
 43
0.0000001
 44
0.0000000001
 40
0.0
 40
0.0
 40
0.0
 40
0.0
 40
0.1080588406
 40
0.2181556464
 40
0.3321513395
 40
0.4515563537
 40
0.7103704691
 40
0.8514091219
 40
1.0
 40
1.0
 40
1.0
 40
1.0
 10
35.9604744839
 20
23.5168546601
 30
0.0
 10
35.8948958212
 20
23.4789925646
 30
0.0
 10
35.7556498891
 20
23.4138130276
 30
0.0
 10
35.530367764
 20
23.3514731126
 30
0.0
 10
35.2901743388
 20
23.3247352661
 30
0.0
 10
34.9444585519
 20
23.3367024661
 30
0.0
 10
34.5867140033
 20
23.4228626061
 30
0.0
 10
34.2308327955
 20
23.5686196623
 30
0.0
 10
34.0506632143
 20
23.662884851
 30
0.0
 10
33.9604858499
 20
23.7149475988
 30
0.0
  0
ENDSEC
  0
SECTION
  2
OBJECTS
  0
DICTIONARY
  5
C
100
AcDbDictionary
280
0
281
1
  3
ACAD_GROUP
350
D
  3
ACAD_MLINESTYLE
350
17
  3
ACAD_LAYOUT
350
1A
  3
ACAD_PLOTSETTINGS
350
19
  3
ACAD_PLOTSTYLENAME
350
E
  0
DICTIONARY
  5
D
102
{ACAD_REACTORS
330
C
102
}
100
AcDbDictionary
280
0
281
1
  0
ACDBDICTIONARYWDFLT
  5
E
102
{ACAD_REACTORS
330
C
102
}
100
AcDbDictionary
281
1
  3
Normal
350
F
100
AcDbDictionaryWithDefault
340
F
  0
DICTIONARY
  5
17
102
{ACAD_REACTORS
330
C
102
}
100
AcDbDictionary
280
0
281
1
  3
Standard
350
18
  0
DICTIONARY
  5
19
102
{ACAD_REACTORS
330
C
102
}
100
AcDbDictionary
281
1
  0
DICTIONARY
  5
1A
102
{ACAD_REACTORS
330
C
102
}
100
AcDbDictionary
281
1
  3
Model
350
240
  3
Layout1
350
241
  0
ACDBPLACEHOLDER
  5
F
102
{ACAD_REACTORS
330
E
102
}
  0
MLINESTYLE
  5
18
102
{ACAD_REACTORS
330
17
102
}
100
AcDbMlineStyle
  2
STANDARD
 70
0
  3

 62
256
 51
90.0
 52
90.0
 71
2
 49
0.5
 62
256
  6
BYLAYER
 49
-0.5
 62
256
  6
BYLAYER
  0
LAYOUT
  5
240
102
{ACAD_REACTORS
330
1A
102
}
100
AcDbPlotSettings
  1

  2
none_device
  4

  6

 40
0.0
 41
0.0
 42
0.0
 43
0.0
 44
210.0
 45
297.0
 46
0.0
 47
0.0
 48
0.0
 49
0.0
140
0.0
141
0.0
142
1.0
143
1.0
 70
1024
 72
1
 73
0
 74
0
  7

 75
0
147
1.0
148
0.0
149
0.0
100
AcDbLayout
  1
Model
 70
0
 71
0
 10
0.0
 20
0.0
 11
210.0
 21
297.0
 12
0.0
 22
0.0
 32
0.0
 14
0.0
 24
0.0
 34
0.0
 15
0.0
 25
0.0
 35
0.0
146
0.0
 13
0.0
 23
0.0
 33
0.0
 16
1.0
 26
0.0
 36
0.0
 17
0.0
 27
1.0
 37
0.0
 76
0
330
210
345
0
346
0
  0
LAYOUT
  5
241
102
{ACAD_REACTORS
330
1A
102
}
100
AcDbPlotSettings
  1

  2
none_device
  4

  6

 40
0.0
 41
0.0
 42
0.0
 43
0.0
 44
210.0
 45
297.0
 46
0.0
 47
0.0
 48
0.0
 49
0.0
140
0.0
141
0.0
142
1.0
143
1.0
 70
0
 72
1
 73
0
 74
0
  7

 75
0
147
1.0
148
0.0
149
0.0
100
AcDbLayout
  1
Layout1
 70
0
 71
1
 10
0.0
 20
0.0
 11
210.0
 21
297.0
 12
0.0
 22
0.0
 32
0.0
 14
0.0
 24
0.0
 34
0.0
 15
0.0
 25
0.0
 35
0.0
146
0.0
 13
0.0
 23
0.0
 33
0.0
 16
1.0
 26
0.0
 36
0.0
 17
0.0
 27
1.0
 37
0.0
 76
0
330
211
345
0
346
0
  0
ENDSEC
  0
EOF
