999
DXF file: C:\Users\sesa63760\Dev\_Creo\CAD\MCADID0003856_3D-CAD\drw0001_5.dxf
999
Pro/ENGINEER 2019471 by Parametric Technology Corporation
  0
SECTION
  2
HEADER
  9
$ACADVER
  1
AC1024
  9
$DWGCODEPAGE
  3
ANSI_1252
  9
$EXTMAX
 10
80.5475231619
 20
113.917211329
 30
0.0
  9
$EXTMIN
 10
0.0
 20
0.0
 30
0.0
  9
$LIMMIN
 10
0.0
 20
0.0
  9
$LIMMAX
 10
80.5475231619
 20
113.917211329
  9
$VIEWCTR
 10
40.273761581
 20
56.9586056645
  9
$VIEWSIZE
 40
113.917211329
  9
$CLAYER
  8
0
  9
$LTSCALE
 40
7.4257145163
  9
$CELTYPE
  6
BYLAYER
  9
$DIMSCALE
 40
1.0
  9
$DIMASZ
 40
0.9588990853
  9
$DIMEXO
 40
1.0
  9
$DIMDLI
 40
5.1304936658
  9
$DIMEXE
 40
1.0
  9
$DIMCEN
 40
1.2151169208
  9
$DIMLFAC
 40
1.0
  9
$DIMBLK
  1
_FILLED
  9
$DIMALT
 70
0
  9
$DIMALTF
 40
0.0393700787
  9
$DIMTXT
 40
1.3424587194
  9
$DIMTOL
 70
1
  9
$DIMLIM
 70
0
  9
$DIMTFAC
 40
1.0
  9
$DIMTP
 40
0.01
  9
$DIMTM
 40
0.01
  9
$DIMGAP
 40
0.625
  9
$DIMDSEP
 70
46
  9
$AUNITS
 70
0
  9
$PDMODE
 70
3
  9
$PDSIZE
 40
0.3125
  9
$HANDSEED
  5
31C
  9
$TILEMODE
 70
1
  9
$MEASUREMENT
 70
1
  9
$INSUNITS
 70
4
  0
ENDSEC
  0
SECTION
  2
CLASSES
  0
CLASS
  1
ACDBDICTIONARYWDFLT
  2
AcDbDictionaryWithDefault
  3
AutoCAD 2000
 90
0
 91
1
280
0
281
0
  0
CLASS
  1
ACDBPLACEHOLDER
  2
AcDbPlaceHolder
  3
AutoCAD 2000
 90
0
 91
1
280
0
281
0
  0
CLASS
  1
LAYOUT
  2
AcDbLayout
  3
AutoCAD 2000
 90
0
 91
0
280
0
281
0
  0
ENDSEC
  0
SECTION
  2
TABLES
  0
TABLE
  2
VPORT
  5
8
100
AcDbSymbolTable
 70
2
  0
VPORT
  5
1F4
100
AcDbSymbolTableRecord
100
AcDbViewportTableRecord
  2
*ACTIVE
 70
0
 10
0.0
 20
0.0
 11
1.0
 21
1.0
 12
40.273761581
 22
56.9586056645
 13
0.0
 23
0.0
 14
1.0
 24
1.0
 15
0.0
 25
0.0
 16
0.0
 26
0.0
 36
1.0
 17
0.0
 27
0.0
 37
0.0
 40
113.917211329
 41
0.7070707071
 42
50.0
 43
0.0
 44
0.0
 50
0.0
 51
0.0
 71
0
 72
100
 73
1
 74
1
 75
0
 76
0
 77
0
 78
0
  0
ENDTAB
  0
TABLE
  2
LTYPE
  5
5
100
AcDbSymbolTable
 70
6
  0
LTYPE
  5
14
100
AcDbSymbolTableRecord
100
AcDbLinetypeTableRecord
  2
BYBLOCK
 70
0
  3

 72
65
 73
0
 40
0.0
  0
LTYPE
  5
15
100
AcDbSymbolTableRecord
100
AcDbLinetypeTableRecord
  2
BYLAYER
 70
0
  3

 72
65
 73
0
 40
0.0
  0
LTYPE
  5
16
100
AcDbSymbolTableRecord
100
AcDbLinetypeTableRecord
  2
CONTINUOUS
 70
64
  3
Solid line
 72
65
 73
0
 40
0.0
  0
LTYPE
  5
1F5
100
AcDbSymbolTableRecord
100
AcDbLinetypeTableRecord
  2
CENTER
 70
64
  3
____ _ ____ _ ____ _ ____ _ ____ _ ____ _ ____
 72
65
 73
4
 40
0.6
 49
0.375
 74
0
 49
-0.075
 74
0
 49
0.075
 74
0
 49
-0.075
 74
0
  0
LTYPE
  5
1F6
100
AcDbSymbolTableRecord
100
AcDbLinetypeTableRecord
  2
HIDDEN
 70
64
  3
- - - - - - - - - - - - - - - - - - - -
 72
65
 73
2
 40
0.2
 49
0.1
 74
0
 49
-0.1
 74
0
  0
LTYPE
  5
1F7
100
AcDbSymbolTableRecord
100
AcDbLinetypeTableRecord
  2
PHANTOM
 70
64
  3
_____ _ _ _____ _ _ _____ _ _ _____
 72
65
 73
6
 40
0.8
 49
0.45
 74
0
 49
-0.05
 74
0
 49
0.1
 74
0
 49
-0.05
 74
0
 49
0.1
 74
0
 49
-0.05
 74
0
  0
LTYPE
  5
1F8
100
AcDbSymbolTableRecord
100
AcDbLinetypeTableRecord
  2
DOT
 70
64
  3
. . . . . . . . . . . . . . . . . . . .
 72
65
 73
2
 40
0.2
 49
0.1
 74
0
 49
-0.1
 74
0
  0
LTYPE
  5
1F9
100
AcDbSymbolTableRecord
100
AcDbLinetypeTableRecord
  2
DASHED
 70
64
  3
- - - - - - - - - - - - - - - - - - - -
 72
65
 73
2
 40
0.2
 49
0.1
 74
0
 49
-0.1
 74
0
  0
ENDTAB
  0
TABLE
  2
LAYER
  5
2
100
AcDbSymbolTable
 70
36
  0
LAYER
  5
10
100
AcDbSymbolTableRecord
100
AcDbLayerTableRecord
  2
0
 70
0
 62
7
  6
CONTINUOUS
370
-3
390
F
  0
LAYER
  5
1FA
100
AcDbSymbolTableRecord
100
AcDbLayerTableRecord
  2
DEFAULT_1
 70
0
 62
7
  6
CENTER
370
-3
390
F
  0
LAYER
  5
1FB
100
AcDbSymbolTableRecord
100
AcDbLayerTableRecord
  2
DEFAULT_2
 70
0
 62
7
  6
HIDDEN
370
-3
390
F
  0
LAYER
  5
1FC
100
AcDbSymbolTableRecord
100
AcDbLayerTableRecord
  2
DEFAULT_3
 70
0
 62
7
  6
PHANTOM
370
-3
390
F
  0
LAYER
  5
1FD
100
AcDbSymbolTableRecord
100
AcDbLayerTableRecord
  2
00_COMPONENTS
 70
0
 62
7
  6
CONTINUOUS
370
-3
390
F
  0
LAYER
  5
1FE
100
AcDbSymbolTableRecord
100
AcDbLayerTableRecord
  2
01_1_DEFAULT_DATUMS
 70
0
 62
7
  6
CONTINUOUS
370
-3
390
F
  0
LAYER
  5
1FF
100
AcDbSymbolTableRecord
100
AcDbLayerTableRecord
  2
01_PLANES
 70
0
 62
7
  6
CONTINUOUS
370
-3
390
F
  0
LAYER
  5
200
100
AcDbSymbolTableRecord
100
AcDbLayerTableRecord
  2
02_COORD_SYS
 70
0
 62
7
  6
CONTINUOUS
370
-3
390
F
  0
LAYER
  5
201
100
AcDbSymbolTableRecord
100
AcDbLayerTableRecord
  2
03_AXES
 70
0
 62
7
  6
CONTINUOUS
370
-3
390
F
  0
LAYER
  5
202
100
AcDbSymbolTableRecord
100
AcDbLayerTableRecord
  2
04_POINTS
 70
0
 62
7
  6
CONTINUOUS
370
-3
390
F
  0
LAYER
  5
203
100
AcDbSymbolTableRecord
100
AcDbLayerTableRecord
  2
05_CURVES
 70
0
 62
7
  6
CONTINUOUS
370
-3
390
F
  0
LAYER
  5
204
100
AcDbSymbolTableRecord
100
AcDbLayerTableRecord
  2
06_SURFS
 70
0
 62
7
  6
CONTINUOUS
370
-3
390
F
  0
LAYER
  5
205
100
AcDbSymbolTableRecord
100
AcDbLayerTableRecord
  2
07_COSMETICS
 70
0
 62
7
  6
CONTINUOUS
370
-3
390
F
  0
LAYER
  5
206
100
AcDbSymbolTableRecord
100
AcDbLayerTableRecord
  2
10_NOTES
 70
0
 62
7
  6
CONTINUOUS
370
-3
390
F
  0
LAYER
  5
207
100
AcDbSymbolTableRecord
100
AcDbLayerTableRecord
  2
11_NOTES_PUB
 70
0
 62
7
  6
CONTINUOUS
370
-3
390
F
  0
LAYER
  5
208
100
AcDbSymbolTableRecord
100
AcDbLayerTableRecord
  2
13_REF_GTOL
 70
0
 62
7
  6
CONTINUOUS
370
-3
390
F
  0
LAYER
  5
209
100
AcDbSymbolTableRecord
100
AcDbLayerTableRecord
  2
16_MISC
 70
0
 62
7
  6
CONTINUOUS
370
-3
390
F
  0
LAYER
  5
20A
100
AcDbSymbolTableRecord
100
AcDbLayerTableRecord
  2
17_NO_PRINT
 70
0
 62
7
  6
CONTINUOUS
370
-3
390
F
  0
LAYER
  5
20B
100
AcDbSymbolTableRecord
100
AcDbLayerTableRecord
  2
18_DATUM_CAMS_JOINTS
 70
0
 62
7
  6
CONTINUOUS
370
-3
390
F
  0
LAYER
  5
20C
100
AcDbSymbolTableRecord
100
AcDbLayerTableRecord
  2
19_DATUM_FUNCTIONAL
 70
0
 62
7
  6
CONTINUOUS
370
-3
390
F
  0
LAYER
  5
20D
100
AcDbSymbolTableRecord
100
AcDbLayerTableRecord
  2
20_DATUM_KINEMATIC_SCHEME
 70
0
 62
7
  6
CONTINUOUS
370
-3
390
F
  0
ENDTAB
  0
TABLE
  2
STYLE
  5
3
100
AcDbSymbolTable
 70
1
  0
STYLE
  5
11
100
AcDbSymbolTableRecord
100
AcDbTextStyleTableRecord
  2
STANDARD
 70
0
 40
0.0
 41
1.0
 50
0.0
 71
0
 42
0.2
  3
ARIAL.TTF
  4

  0
STYLE
  5
20E
100
AcDbSymbolTableRecord
100
AcDbTextStyleTableRecord
  2
TEXTSTYLE_1
 70
0
 40
0.0
 41
0.8
 50
0.0
 71
0
 42
0.2
  3
gdt
  4

  0
ENDTAB
  0
TABLE
  2
VIEW
  5
6
100
AcDbSymbolTable
 70
0
  0
ENDTAB
  0
TABLE
  2
UCS
  5
7
100
AcDbSymbolTable
 70
0
  0
ENDTAB
  0
TABLE
  2
APPID
  5
9
100
AcDbSymbolTable
 70
1
  0
APPID
  5
20F
100
AcDbSymbolTableRecord
100
AcDbRegAppTableRecord
  2
ACAD
 70
0
  0
ENDTAB
  0
TABLE
  2
BLOCK_RECORD
  5
1
100
AcDbSymbolTable
 70
0
  0
BLOCK_RECORD
  5
210
100
AcDbSymbolTableRecord
100
AcDbBlockTableRecord
  2
*Model_Space
  0
BLOCK_RECORD
  5
211
100
AcDbSymbolTableRecord
100
AcDbBlockTableRecord
  2
*Paper_Space
  0
BLOCK_RECORD
  5
212
100
AcDbSymbolTableRecord
100
AcDbBlockTableRecord
  2
_FILLED
  0
ENDTAB
  0
TABLE
  2
DIMSTYLE
  5
A
100
AcDbSymbolTable
 70
1
100
AcDbDimStyleTable
 71
0
  0
DIMSTYLE
105
213
100
AcDbSymbolTableRecord
100
AcDbDimStyleTableRecord
  2
STANDARD
 70
0
  3

  4

 40
1.0
 41
0.9588990853
 42
1.0
 43
0.38
 44
1.0
 45
0.0
 46
0.0
 47
0.01
 48
0.01
140
1.3424587194
141
0.09
142
0.0
143
25.4
144
1.0
145
0.0
146
1.0
147
0.625
 71
1
 72
0
 73
0
 74
0
 75
0
 76
0
 77
1
 78
8
 79
2
170
0
171
1
172
0
173
0
174
0
175
0
176
0
177
0
178
0
270
2
179
2
271
2
272
2
273
2
274
2
275
0
280
0
281
0
282
0
283
1
284
8
285
0
286
0
287
3
288
0
340
11
278
46
341
212
342
212
343
212
344
212
  0
ENDTAB
  0
ENDSEC
  0
SECTION
  2
BLOCKS
  0
BLOCK
  5
20
100
AcDbEntity
  8
0
100
AcDbBlockBegin
  2
*Model_Space
 70
0
 10
0.0
 20
0.0
 30
0.0
  3
*Model_Space
  1

  0
ENDBLK
  5
21
100
AcDbEntity
  8
0
100
AcDbBlockEnd
  0
BLOCK
  5
1C
100
AcDbEntity
  8
0
100
AcDbBlockBegin
  2
*Paper_Space
 70
0
 10
0.0
 20
0.0
 30
0.0
  3
*Paper_Space
  1

  0
ENDBLK
  5
1D
100
AcDbEntity
  8
0
100
AcDbBlockEnd
  0
BLOCK
  5
214
100
AcDbEntity
  8
0
100
AcDbBlockBegin
  2
_FILLED
 70
64
 10
0.0
 20
0.0
  3
_FILLED
  1

  0
SOLID
  5
215
100
AcDbEntity
  8
0
  6
BYBLOCK
 62
0
100
AcDbTrace
 10
0.0
 20
0.0
 11
-1.0
 21
0.25
 12
-1.0
 22
-0.25
 13
-1.0
 23
-0.25
  0
ENDBLK
  5
216
100
AcDbEntity
  8
0
  6
BYBLOCK
 62
0
100
AcDbBlockEnd
  0
ENDSEC
  0
SECTION
  2
ENTITIES
  0
LINE
  5
217
100
AcDbEntity
  8
0
100
AcDbLine
 62
7
  6
BYLAYER
 10
9.3892299905
 20
52.0480393908
 11
9.3892299905
 21
62.1480444084
  0
LINE
  5
218
100
AcDbEntity
  8
0
100
AcDbLine
 62
7
  6
BYLAYER
 10
9.5892299905
 20
51.8980392157
 11
9.5892299905
 21
62.2980392157
  0
LINE
  5
219
100
AcDbEntity
  8
0
100
AcDbLine
 62
7
  6
BYLAYER
 10
9.7892299905
 20
51.298290105
 11
9.7892299905
 21
62.8980058158
  0
LINE
  5
21A
100
AcDbEntity
  8
0
100
AcDbLine
 62
7
  6
BYLAYER
 10
9.9892299905
 20
51.0980392157
 11
9.9892299905
 21
63.0980392157
  0
LINE
  5
21B
100
AcDbEntity
  8
0
100
AcDbLine
 62
7
  6
BYLAYER
 10
12.3892299905
 20
48.5980420832
 11
12.3892299905
 21
65.5980363481
  0
LINE
  5
21C
100
AcDbEntity
  8
0
100
AcDbLine
 62
7
  6
BYLAYER
 10
12.3892299905
 20
65.5980392157
 11
13.0401661936
 21
66.7254937919
  0
LINE
  5
21D
100
AcDbEntity
  8
0
100
AcDbLine
 62
7
  6
BYLAYER
 10
12.3892299905
 20
48.5980392157
 11
13.0401661936
 21
47.4705846395
  0
LINE
  5
21E
100
AcDbEntity
  8
0
100
AcDbLine
 62
7
  6
BYLAYER
 10
9.7892299905
 20
62.8980392157
 11
9.9892299905
 21
63.0980392157
  0
LINE
  5
21F
100
AcDbEntity
  8
0
100
AcDbLine
 62
7
  6
BYLAYER
 10
9.7892299905
 20
51.2980392157
 11
9.9892299905
 21
51.0980392157
  0
LINE
  5
220
100
AcDbEntity
  8
0
100
AcDbLine
 62
7
  6
BYLAYER
 10
15.3892299905
 20
65.5980363481
 11
15.3892299905
 21
48.5980420832
  0
LINE
  5
221
100
AcDbEntity
  8
0
100
AcDbLine
 62
7
  6
BYLAYER
 10
16.0892299905
 20
64.2141282943
 11
16.0892299905
 21
63.9130261363
  0
LINE
  5
222
100
AcDbEntity
  8
0
100
AcDbLine
 62
7
  6
BYLAYER
 10
16.0892299905
 20
63.8090137995
 11
16.0892299905
 21
63.560289736
  0
LINE
  5
223
100
AcDbEntity
  8
0
100
AcDbLine
 62
7
  6
BYLAYER
 10
16.0892299905
 20
63.2778423687
 11
16.0892299905
 21
62.9998512867
  0
LINE
  5
224
100
AcDbEntity
  8
0
100
AcDbLine
 62
7
  6
BYLAYER
 10
16.0892299905
 20
62.5480469798
 11
16.0892299905
 21
62.2497237415
  0
LINE
  5
225
100
AcDbEntity
  8
0
100
AcDbLine
 62
7
  6
BYLAYER
 10
16.0892299905
 20
61.643083857
 11
16.0892299905
 21
61.3340168168
  0
LINE
  5
226
100
AcDbEntity
  8
0
100
AcDbLine
 62
7
  6
BYLAYER
 10
16.0892299905
 20
60.5920392599
 11
16.0892299905
 21
60.2821620866
  0
LINE
  5
227
100
AcDbEntity
  8
0
100
AcDbLine
 62
7
  6
BYLAYER
 10
16.0892299905
 20
59.4286946264
 11
16.0892299905
 21
59.1279670274
  0
LINE
  5
228
100
AcDbEntity
  8
0
100
AcDbLine
 62
7
  6
BYLAYER
 10
16.0892299905
 20
58.1904408103
 11
16.0892299905
 21
57.9085284182
  0
LINE
  5
229
100
AcDbEntity
  8
0
100
AcDbLine
 62
7
  6
BYLAYER
 10
16.0892299905
 20
56.9170763082
 11
16.0892299905
 21
56.6404778646
  0
LINE
  5
22A
100
AcDbEntity
  8
0
100
AcDbLine
 62
7
  6
BYLAYER
 10
16.0892299905
 20
55.6720902573
 11
16.0892299905
 21
55.3795927528
  0
LINE
  5
22B
100
AcDbEntity
  8
0
100
AcDbLine
 62
7
  6
BYLAYER
 10
16.0892299905
 20
54.4804763358
 11
16.0892299905
 21
54.1739399242
  0
LINE
  5
22C
100
AcDbEntity
  8
0
100
AcDbLine
 62
7
  6
BYLAYER
 10
16.0892299905
 20
53.3729930389
 11
16.0892299905
 21
53.0622700528
  0
LINE
  5
22D
100
AcDbEntity
  8
0
100
AcDbLine
 62
7
  6
BYLAYER
 10
16.0892299905
 20
52.3852357912
 11
16.0892299905
 21
52.0803131229
  0
LINE
  5
22E
100
AcDbEntity
  8
0
100
AcDbLine
 62
7
  6
BYLAYER
 10
16.0892299905
 20
51.5489519232
 11
16.0892299905
 21
51.2596300383
  0
LINE
  5
22F
100
AcDbEntity
  8
0
100
AcDbLine
 62
7
  6
BYLAYER
 10
16.0892299905
 20
50.8910202867
 11
16.0892299905
 21
50.6265982284
  0
LINE
  5
230
100
AcDbEntity
  8
0
100
AcDbLine
 62
7
  6
BYLAYER
 10
16.0892299905
 20
50.4325873456
 11
16.0892299905
 21
50.2015638567
  0
LINE
  5
231
100
AcDbEntity
  8
0
100
AcDbLine
 62
7
  6
BYLAYER
 10
16.0892299905
 20
50.188387512
 11
16.0892299905
 21
49.9981878774
  0
LINE
  5
232
100
AcDbEntity
  8
0
100
AcDbLine
 62
7
  6
BYLAYER
 10
18.6892299905
 20
49.9981878774
 11
18.6892299905
 21
50.188387512
  0
LINE
  5
233
100
AcDbEntity
  8
0
100
AcDbLine
 62
7
  6
BYLAYER
 10
18.6892299905
 20
50.2015638567
 11
18.6892299905
 21
50.4325873456
  0
LINE
  5
234
100
AcDbEntity
  8
0
100
AcDbLine
 62
7
  6
BYLAYER
 10
18.6892299905
 20
50.6265982284
 11
18.6892299905
 21
50.8910202867
  0
LINE
  5
235
100
AcDbEntity
  8
0
100
AcDbLine
 62
7
  6
BYLAYER
 10
18.6892299905
 20
51.2596300383
 11
18.6892299905
 21
51.5489519232
  0
LINE
  5
236
100
AcDbEntity
  8
0
100
AcDbLine
 62
7
  6
BYLAYER
 10
18.6892299905
 20
52.0803131229
 11
18.6892299905
 21
52.3852357912
  0
LINE
  5
237
100
AcDbEntity
  8
0
100
AcDbLine
 62
7
  6
BYLAYER
 10
18.6892299905
 20
53.0622700528
 11
18.6892299905
 21
53.3729930389
  0
LINE
  5
238
100
AcDbEntity
  8
0
100
AcDbLine
 62
7
  6
BYLAYER
 10
18.6892299905
 20
54.1739399242
 11
18.6892299905
 21
54.4804763358
  0
LINE
  5
239
100
AcDbEntity
  8
0
100
AcDbLine
 62
7
  6
BYLAYER
 10
18.6892299905
 20
55.3795927528
 11
18.6892299905
 21
55.6720902573
  0
LINE
  5
23A
100
AcDbEntity
  8
0
100
AcDbLine
 62
7
  6
BYLAYER
 10
18.6892299905
 20
56.6404778646
 11
18.6892299905
 21
56.9170763082
  0
LINE
  5
23B
100
AcDbEntity
  8
0
100
AcDbLine
 62
7
  6
BYLAYER
 10
18.6892299905
 20
57.9085284182
 11
18.6892299905
 21
58.1904408103
  0
LINE
  5
23C
100
AcDbEntity
  8
0
100
AcDbLine
 62
7
  6
BYLAYER
 10
18.6892299905
 20
59.1279670274
 11
18.6892299905
 21
59.4286946264
  0
LINE
  5
23D
100
AcDbEntity
  8
0
100
AcDbLine
 62
7
  6
BYLAYER
 10
18.6892299905
 20
60.2821620866
 11
18.6892299905
 21
60.5920392599
  0
LINE
  5
23E
100
AcDbEntity
  8
0
100
AcDbLine
 62
7
  6
BYLAYER
 10
18.6892299905
 20
61.3340168168
 11
18.6892299905
 21
61.643083857
  0
LINE
  5
23F
100
AcDbEntity
  8
0
100
AcDbLine
 62
7
  6
BYLAYER
 10
18.6892299905
 20
62.2497237415
 11
18.6892299905
 21
62.5480469798
  0
LINE
  5
240
100
AcDbEntity
  8
0
100
AcDbLine
 62
7
  6
BYLAYER
 10
18.6892299905
 20
62.9998512867
 11
18.6892299905
 21
63.2778423687
  0
LINE
  5
241
100
AcDbEntity
  8
0
100
AcDbLine
 62
7
  6
BYLAYER
 10
18.6892299905
 20
63.560289736
 11
18.6892299905
 21
63.8090137995
  0
LINE
  5
242
100
AcDbEntity
  8
0
100
AcDbLine
 62
7
  6
BYLAYER
 10
18.6892299905
 20
63.9130261363
 11
18.6892299905
 21
64.2141282943
  0
LINE
  5
243
100
AcDbEntity
  8
0
100
AcDbLine
 62
7
  6
BYLAYER
 10
19.3892299905
 20
48.5980420832
 11
19.3892299905
 21
65.5980363481
  0
LINE
  5
244
100
AcDbEntity
  8
0
100
AcDbLine
 62
7
  6
BYLAYER
 10
19.3892299905
 20
65.5980392157
 11
20.0401661936
 21
66.7254937919
  0
LINE
  5
245
100
AcDbEntity
  8
0
100
AcDbLine
 62
7
  6
BYLAYER
 10
19.3892299905
 20
48.5980392157
 11
20.0401661936
 21
47.4705846395
  0
LINE
  5
246
100
AcDbEntity
  8
0
100
AcDbLine
 62
7
  6
BYLAYER
 10
22.3892299905
 20
65.5980363481
 11
22.3892299905
 21
48.5980420832
  0
LINE
  5
247
100
AcDbEntity
  8
0
100
AcDbLine
 62
7
  6
BYLAYER
 10
15.3892299905
 20
48.5980392157
 11
14.7382937875
 21
47.4705846395
  0
LINE
  5
248
100
AcDbEntity
  8
0
100
AcDbLine
 62
7
  6
BYLAYER
 10
15.3892299905
 20
65.5980392157
 11
14.7382937875
 21
66.7254937919
  0
LINE
  5
249
100
AcDbEntity
  8
0
100
AcDbLine
 62
7
  6
BYLAYER
 10
22.3892299905
 20
48.5980392157
 11
21.7382937875
 21
47.4705846395
  0
LINE
  5
24A
100
AcDbEntity
  8
0
100
AcDbLine
 62
7
  6
BYLAYER
 10
19.1892299905
 20
49.8466290542
 11
19.3892299905
 21
49.7930392157
  0
LINE
  5
24B
100
AcDbEntity
  8
0
100
AcDbLine
 62
7
  6
BYLAYER
 10
22.3892299905
 20
65.5980392157
 11
21.7382937875
 21
66.7254937919
  0
LINE
  5
24C
100
AcDbEntity
  8
0
100
AcDbLine
 62
7
  6
BYLAYER
 10
14.7146274554
 20
47.4330846395
 11
13.0638325257
 21
47.4330846395
  0
LINE
  5
24D
100
AcDbEntity
  8
0
100
AcDbLine
 62
7
  6
BYLAYER
 10
20.0638325257
 20
47.4330846395
 11
21.7146274635
 21
47.4330846395
  0
LINE
  5
24E
100
AcDbEntity
  8
0
100
AcDbLine
 62
7
  6
BYLAYER
 10
14.7687223786
 20
47.5330846395
 11
13.0097376219
 21
47.5330846395
  0
LINE
  5
24F
100
AcDbEntity
  8
0
100
AcDbLine
 62
7
  6
BYLAYER
 10
20.0097376025
 20
47.5330846395
 11
21.768722281
 21
47.5330846395
  0
LINE
  5
250
100
AcDbEntity
  8
0
100
AcDbLine
 62
7
  6
BYLAYER
 10
63.1996971817
 20
53.9251548277
 11
61.3892299905
 21
53.8302722627
  0
LINE
  5
251
100
AcDbEntity
  8
0
100
AcDbLine
 62
7
  6
BYLAYER
 10
9.9892299905
 20
51.0980392157
 11
12.3892299905
 21
51.0980392157
  0
LINE
  5
252
100
AcDbEntity
  8
0
100
AcDbLine
 62
7
  6
BYLAYER
 10
15.8845996446
 20
51.0980392157
 11
18.8938629901
 21
51.0980392157
  0
LINE
  5
253
100
AcDbEntity
  8
0
100
AcDbLine
 62
7
  6
BYLAYER
 10
22.3892299905
 20
51.0980392157
 11
50.3892299905
 21
51.0980392157
  0
LINE
  5
254
100
AcDbEntity
  8
0
100
AcDbLine
 62
7
  6
BYLAYER
 10
9.4569426305
 20
51.8980392157
 11
9.7892299905
 21
51.8980392157
  0
LINE
  5
255
100
AcDbEntity
  8
0
100
AcDbLine
 62
7
  6
BYLAYER
 10
14.768722375
 20
51.9405619276
 11
13.0097377021
 21
51.9405619276
  0
LINE
  5
256
100
AcDbEntity
  8
0
100
AcDbLine
 62
7
  6
BYLAYER
 10
20.009737606
 20
51.9405619276
 11
21.7687223559
 21
51.9405619276
  0
LINE
  5
257
100
AcDbEntity
  8
0
100
AcDbLine
 62
7
  6
BYLAYER
 10
51.3892299905
 20
52.0980392157
 11
59.0892299905
 21
52.0980392157
  0
LINE
  5
258
100
AcDbEntity
  8
0
100
AcDbLine
 62
7
  6
BYLAYER
 10
59.1892299905
 20
52.0980392157
 11
61.1892299905
 21
52.0980392157
  0
LINE
  5
259
100
AcDbEntity
  8
0
100
AcDbLine
 62
7
  6
BYLAYER
 10
59.0892299905
 20
52.1480392157
 11
59.1892299905
 21
52.1480392157
  0
LINE
  5
25A
100
AcDbEntity
  8
0
100
AcDbLine
 62
7
  6
BYLAYER
 10
14.7146274564
 20
52.4905619276
 11
13.0638325164
 21
52.4905619276
  0
LINE
  5
25B
100
AcDbEntity
  8
0
100
AcDbLine
 62
7
  6
BYLAYER
 10
20.0638325246
 20
52.4905619276
 11
21.7146274564
 21
52.4905619276
  0
LINE
  5
25C
100
AcDbEntity
  8
0
100
AcDbLine
 62
7
  6
BYLAYER
 10
73.3892299905
 20
54.3302722627
 11
63.3892299905
 21
54.3302722627
  0
LINE
  5
25D
100
AcDbEntity
  8
0
100
AcDbLine
 62
7
  6
BYLAYER
 10
15.5892299905
 20
49.8466290542
 11
15.3892299905
 21
49.7930392157
  0
LINE
  5
25E
100
AcDbEntity
  8
0
100
AcDbLine
 62
7
  6
BYLAYER
 10
73.3892299905
 20
56.3302722627
 11
63.3892299905
 21
56.3302722627
  0
LINE
  5
25F
100
AcDbEntity
  8
0
100
AcDbLine
 62
7
  6
BYLAYER
 10
63.1996971817
 20
56.7353896978
 11
61.3892299905
 21
56.8302722627
  0
LINE
  5
260
100
AcDbEntity
  8
0
100
AcDbLine
 62
7
  6
BYLAYER
 10
16.0892299905
 20
64.215474781
 11
15.3892299905
 21
64.4030392157
  0
LINE
  5
261
100
AcDbEntity
  8
0
100
AcDbLine
 62
7
  6
BYLAYER
 10
14.7146274564
 20
61.7055165038
 11
13.0638325246
 21
61.7055165038
  0
LINE
  5
262
100
AcDbEntity
  8
0
100
AcDbLine
 62
7
  6
BYLAYER
 10
20.0638325246
 20
61.7055165038
 11
21.7146274647
 21
61.7055165038
  0
LINE
  5
263
100
AcDbEntity
  8
0
100
AcDbLine
 62
7
  6
BYLAYER
 10
59.0892299905
 20
62.0480392157
 11
59.1892299905
 21
62.0480392157
  0
LINE
  5
264
100
AcDbEntity
  8
0
100
AcDbLine
 62
7
  6
BYLAYER
 10
51.3892299905
 20
62.0980392157
 11
59.0892299905
 21
62.0980392157
  0
LINE
  5
265
100
AcDbEntity
  8
0
100
AcDbLine
 62
7
  6
BYLAYER
 10
59.1892299905
 20
62.0980392157
 11
61.1892299905
 21
62.0980392157
  0
LINE
  5
266
100
AcDbEntity
  8
0
100
AcDbLine
 62
7
  6
BYLAYER
 10
14.7687223786
 20
62.2555165038
 11
13.0097376219
 21
62.2555165038
  0
LINE
  5
267
100
AcDbEntity
  8
0
100
AcDbLine
 62
7
  6
BYLAYER
 10
20.0097376025
 20
62.2555165038
 11
21.7687223785
 21
62.2555165038
  0
LINE
  5
268
100
AcDbEntity
  8
0
100
AcDbLine
 62
7
  6
BYLAYER
 10
9.4569426305
 20
62.2980392157
 11
9.7892299905
 21
62.2980392157
  0
LINE
  5
269
100
AcDbEntity
  8
0
100
AcDbLine
 62
7
  6
BYLAYER
 10
9.9892299905
 20
63.0980392157
 11
12.3892299905
 21
63.0980392157
  0
LINE
  5
26A
100
AcDbEntity
  8
0
100
AcDbLine
 62
7
  6
BYLAYER
 10
16.0892299905
 20
63.0980392157
 11
18.6892299905
 21
63.0980392157
  0
LINE
  5
26B
100
AcDbEntity
  8
0
100
AcDbLine
 62
7
  6
BYLAYER
 10
22.3892299905
 20
63.0980392157
 11
50.3892299905
 21
63.0980392157
  0
LINE
  5
26C
100
AcDbEntity
  8
0
100
AcDbLine
 62
7
  6
BYLAYER
 10
50.3892299905
 20
63.0980392157
 11
50.3892299905
 21
51.0980392157
  0
LINE
  5
26D
100
AcDbEntity
  8
0
100
AcDbLine
 62
7
  6
BYLAYER
 10
51.3892299905
 20
52.0980392157
 11
51.3892299905
 21
62.0980392157
  0
LINE
  5
26E
100
AcDbEntity
  8
0
100
AcDbLine
 62
7
  6
BYLAYER
 10
51.3892299905
 20
52.0980392157
 11
50.3892299905
 21
51.0980392157
  0
LINE
  5
26F
100
AcDbEntity
  8
0
100
AcDbLine
 62
7
  6
BYLAYER
 10
14.768722375
 20
66.6629937919
 11
13.0097376061
 21
66.6629937919
  0
LINE
  5
270
100
AcDbEntity
  8
0
100
AcDbLine
 62
7
  6
BYLAYER
 10
20.009737606
 20
66.6629937919
 11
21.7687223559
 21
66.6629937919
  0
LINE
  5
271
100
AcDbEntity
  8
0
100
AcDbLine
 62
7
  6
BYLAYER
 10
14.7146274564
 20
66.7629937919
 11
13.0638325164
 21
66.7629937919
  0
LINE
  5
272
100
AcDbEntity
  8
0
100
AcDbLine
 62
7
  6
BYLAYER
 10
20.0638325246
 20
66.7629937919
 11
21.7146274248
 21
66.7629937919
  0
LINE
  5
273
100
AcDbEntity
  8
0
100
AcDbLine
 62
7
  6
BYLAYER
 10
51.3892299905
 20
62.0980392157
 11
50.3892299905
 21
63.0980392157
  0
LINE
  5
274
100
AcDbEntity
  8
0
100
AcDbLine
 62
7
  6
BYLAYER
 10
18.6892299905
 20
64.215474781
 11
19.3892299905
 21
64.4030392157
  0
LINE
  5
275
100
AcDbEntity
  8
0
100
AcDbLine
 62
7
  6
BYLAYER
 10
59.0892299905
 20
62.0977693159
 11
59.0892299905
 21
52.0983091155
  0
LINE
  5
276
100
AcDbEntity
  8
0
100
AcDbLine
 62
7
  6
BYLAYER
 10
59.1892299905
 20
52.0983313451
 11
59.1892299905
 21
62.0979135367
  0
LINE
  5
277
100
AcDbEntity
  8
0
100
AcDbLine
 62
7
  6
BYLAYER
 10
61.1892299905
 20
62.0980392157
 11
61.1892299905
 21
52.0980392157
  0
LINE
  5
278
100
AcDbEntity
  8
0
100
AcDbLine
 62
7
  6
BYLAYER
 10
61.3892299905
 20
61.8979185072
 11
61.3892299905
 21
52.2983067409
  0
LINE
  5
279
100
AcDbEntity
  8
0
100
AcDbLine
 62
7
  6
BYLAYER
 10
63.1996971817
 20
56.7353896978
 11
63.1996971817
 21
53.9251548277
  0
LINE
  5
27A
100
AcDbEntity
  8
0
100
AcDbLine
 62
7
  6
BYLAYER
 10
63.3892299905
 20
56.5355108787
 11
63.3892299905
 21
54.1250296612
  0
LINE
  5
27B
100
AcDbEntity
  8
0
100
AcDbLine
 62
7
  6
BYLAYER
 10
73.3892299905
 20
56.3301386363
 11
73.3892299905
 21
54.3304058891
  0
ARC
  5
27C
100
AcDbEntity
  8
0
100
AcDbCircle
 62
7
  6
BYLAYER
 10
4.1342199187
 20
51.1722720836
 40
10.6622188956
100
AcDbArc
 50
4.1321556769
 51
7.1022952201
  0
ARC
  5
27D
100
AcDbEntity
  8
0
100
AcDbCircle
 62
7
  6
BYLAYER
 10
23.6440863702
 20
63.0237907664
 40
10.6620644644
100
AcDbArc
 50
184.1321316823
 51
187.1023142424
  0
ARC
  5
27E
100
AcDbEntity
  8
0
100
AcDbCircle
 62
7
  6
BYLAYER
 10
11.1509491308
 20
63.0221604915
 40
10.6454145683
100
AcDbArc
 50
352.8953624901
 51
355.8701915893
  0
ARC
  5
27F
100
AcDbEntity
  8
0
100
AcDbCircle
 62
7
  6
BYLAYER
 10
30.6275060788
 20
51.1739179437
 40
10.6454098248
100
AcDbArc
 50
172.8953593285
 51
175.8701897663
  0
ARC
  5
280
100
AcDbEntity
  8
0
100
AcDbCircle
 62
7
  6
BYLAYER
 10
11.1794557025
 20
51.176721748
 40
10.6167801181
100
AcDbArc
 50
4.1257954746
 51
7.108649775
  0
ARC
  5
281
100
AcDbEntity
  8
0
100
AcDbCircle
 62
7
  6
BYLAYER
 10
30.5989948796
 20
63.0193563533
 40
10.6167707423
100
AcDbArc
 50
184.125797338
 51
187.1086542895
  0
ARC
  5
282
100
AcDbEntity
  8
0
100
AcDbCircle
 62
7
  6
BYLAYER
 10
4.200502796
 20
63.0172872037
 40
10.5956387134
100
AcDbArc
 50
352.8883705172
 51
355.8771778512
  0
ARC
  5
283
100
AcDbEntity
  8
0
100
AcDbCircle
 62
7
  6
BYLAYER
 10
23.5777163533
 20
51.1788155087
 40
10.5953967365
100
AcDbArc
 50
172.8883395837
 51
175.877215175
  0
ARC
  5
284
100
AcDbEntity
  8
0
100
AcDbCircle
 62
7
  6
BYLAYER
 10
9.5892299905
 20
52.0480392157
 40
0.2
100
AcDbArc
 50
180.0
 51
228.5903778907
  0
ARC
  5
285
100
AcDbEntity
  8
0
100
AcDbCircle
 62
7
  6
BYLAYER
 10
9.5892299905
 20
62.1480392157
 40
0.2
100
AcDbArc
 50
131.4096221093
 51
180.0
  0
ARC
  5
286
100
AcDbEntity
  8
0
100
AcDbCircle
 62
7
  6
BYLAYER
 10
61.1892299905
 20
61.8980392157
 40
0.2
100
AcDbArc
 50
0.0
 51
90.0
  0
ARC
  5
287
100
AcDbEntity
  8
0
100
AcDbCircle
 62
7
  6
BYLAYER
 10
61.1892299905
 20
52.2980392157
 40
0.2
100
AcDbArc
 50
270.0
 51
360.0
  0
ARC
  5
288
100
AcDbEntity
  8
0
100
AcDbCircle
 62
7
  6
BYLAYER
 10
63.1892299905
 20
54.1248807346
 40
0.2
100
AcDbArc
 50
273.0
 51
360.0
  0
ARC
  5
289
100
AcDbEntity
  8
0
100
AcDbCircle
 62
7
  6
BYLAYER
 10
63.1892299905
 20
56.5356637908
 40
0.2
100
AcDbArc
 50
0.0
 51
87.0
  0
SPLINE
  5
28A
100
AcDbEntity
  8
0
100
AcDbSpline
 62
7
  6
BYLAYER
 70
0
 71
3
 72
9
 73
5
 74
0
 42
0.0000001
 43
0.0000001
 44
0.0000000001
 40
0.0
 40
0.0
 40
0.0
 40
0.0
 40
0.2456457997
 40
1.0
 40
1.0
 40
1.0
 40
1.0
 10
13.0401650019
 20
66.7254938059
 30
0.0
 10
13.0419805481
 20
66.728638885
 30
0.0
 10
13.049502307
 20
66.7413664115
 30
0.0
 10
13.0575325665
 20
66.7537917962
 30
0.0
 10
13.0638325164
 20
66.7629937919
 30
0.0
  0
SPLINE
  5
28B
100
AcDbEntity
  8
0
100
AcDbSpline
 62
7
  6
BYLAYER
 70
0
 71
3
 72
9
 73
5
 74
0
 42
0.0000001
 43
0.0000001
 44
0.0000000001
 40
0.0
 40
0.0
 40
0.0
 40
0.0
 40
0.2456457548
 40
1.0
 40
1.0
 40
1.0
 40
1.0
 10
14.7382949142
 20
47.4705846262
 30
0.0
 10
14.7364793738
 20
47.4674395473
 30
0.0
 10
14.7289576392
 20
47.4547120177
 30
0.0
 10
14.7209274012
 20
47.4422866299
 30
0.0
 10
14.7146274554
 20
47.4330846395
 30
0.0
  0
LINE
  5
28C
100
AcDbEntity
  8
0
100
AcDbLine
 62
7
  6
BYLAYER
 10
16.0892299905
 20
56.9170763082
 11
15.9106987017
 21
57.0980392572
  0
LINE
  5
28D
100
AcDbEntity
  8
0
100
AcDbLine
 62
7
  6
BYLAYER
 10
15.9106987017
 20
57.0980392572
 11
15.5892299905
 21
57.4233725024
  0
SPLINE
  5
28E
100
AcDbEntity
  8
0
100
AcDbSpline
 62
7
  6
BYLAYER
 70
0
 71
3
 72
9
 73
5
 74
0
 42
0.0000001
 43
0.0000001
 44
0.0000000001
 40
0.0
 40
0.0
 40
0.0
 40
0.0
 40
0.2544693665
 40
1.0
 40
1.0
 40
1.0
 40
1.0
 10
14.7146274564
 20
66.7629937919
 30
0.0
 10
14.7167526332
 20
66.7598896611
 30
0.0
 10
14.7249942449
 20
66.7476166224
 30
0.0
 10
14.7327848047
 20
66.735039023
 30
0.0
 10
14.738294914
 20
66.7254938052
 30
0.0
  0
SPLINE
  5
28F
100
AcDbEntity
  8
0
100
AcDbSpline
 62
7
  6
BYLAYER
 70
0
 71
3
 72
9
 73
5
 74
0
 42
0.0000001
 43
0.0000001
 44
0.0000000001
 40
0.0
 40
0.0
 40
0.0
 40
0.0
 40
0.2544692676
 40
1.0
 40
1.0
 40
1.0
 40
1.0
 10
13.0638325175
 20
47.4330846395
 30
0.0
 10
13.06170734
 20
47.4361887711
 30
0.0
 10
13.0534657167
 20
47.448461814
 30
0.0
 10
13.0456751286
 20
47.4610394076
 30
0.0
 10
13.0401650013
 20
47.4705846254
 30
0.0
  0
SPLINE
  5
290
100
AcDbEntity
  8
0
100
AcDbSpline
 62
7
  6
BYLAYER
 70
0
 71
3
 72
11
 73
7
 74
0
 42
0.0000001
 43
0.0000001
 44
0.0000000001
 40
0.0
 40
0.0
 40
0.0
 40
0.0
 40
0.2601224562
 40
0.5124280319
 40
0.7581437597
 40
1.0
 40
1.0
 40
1.0
 40
1.0
 10
14.768722375
 20
66.6629937919
 30
0.0
 10
14.8627922022
 20
66.4860161591
 30
0.0
 10
15.034610598
 20
66.1298641326
 30
0.0
 10
15.234154262
 20
65.5795289386
 30
0.0
 10
15.3602940839
 20
65.0218560212
 30
0.0
 10
15.3892299891
 20
64.6456060909
 30
0.0
 10
15.3892299905
 20
64.4592551762
 30
0.0
  0
SPLINE
  5
291
100
AcDbEntity
  8
0
100
AcDbSpline
 62
7
  6
BYLAYER
 70
0
 71
3
 72
11
 73
7
 74
0
 42
0.0000001
 43
0.0000001
 44
0.0000000001
 40
0.0
 40
0.0
 40
0.0
 40
0.0
 40
0.2418538575
 40
0.4875643753
 40
0.7398751941
 40
1.0
 40
1.0
 40
1.0
 40
1.0
 10
15.3892299905
 20
64.4592551762
 30
0.0
 10
15.389229992
 20
64.2729065112
 30
0.0
 10
15.3602533549
 20
63.8966689019
 30
0.0
 10
15.2341861707
 20
63.3389819512
 30
0.0
 10
15.0345607294
 20
62.7886745448
 30
0.0
 10
14.8627928466
 20
62.4324953423
 30
0.0
 10
14.7687223786
 20
62.2555165038
 30
0.0
  0
SPLINE
  5
292
100
AcDbEntity
  8
0
100
AcDbSpline
 62
7
  6
BYLAYER
 70
0
 71
3
 72
11
 73
7
 74
0
 42
0.0000001
 43
0.0000001
 44
0.0000000001
 40
0.0
 40
0.0
 40
0.0
 40
0.0
 40
0.2500090906
 40
0.5000113781
 40
0.750006891
 40
1.0
 40
1.0
 40
1.0
 40
1.0
 10
14.7146274564
 20
61.7055165038
 30
0.0
 10
14.8178696856
 20
61.330274479
 30
0.0
 10
15.0062689357
 20
60.574625693
 30
0.0
 10
15.2220298163
 20
59.4264094445
 30
0.0
 10
15.3581165359
 20
58.265860773
 30
0.0
 10
15.3892299905
 20
57.4872000707
 30
0.0
 10
15.3892299905
 20
57.0980392157
 30
0.0
  0
SPLINE
  5
293
100
AcDbEntity
  8
0
100
AcDbSpline
 62
7
  6
BYLAYER
 70
0
 71
3
 72
11
 73
7
 74
0
 42
0.0000001
 43
0.0000001
 44
0.0000000001
 40
0.0
 40
0.0
 40
0.0
 40
0.0
 40
0.2499931421
 40
0.4999886579
 40
0.7499909321
 40
1.0
 40
1.0
 40
1.0
 40
1.0
 10
15.3892299905
 20
57.0980392157
 30
0.0
 10
15.3892299905
 20
56.7088783092
 30
0.0
 10
15.358116562
 20
55.9302175494
 30
0.0
 10
15.2220297898
 20
54.7696688465
 30
0.0
 10
15.0062688752
 20
53.621452659
 30
0.0
 10
14.8178696762
 20
52.8658039182
 30
0.0
 10
14.7146274564
 20
52.4905619276
 30
0.0
  0
SPLINE
  5
294
100
AcDbEntity
  8
0
100
AcDbSpline
 62
7
  6
BYLAYER
 70
0
 71
3
 72
11
 73
7
 74
0
 42
0.0000001
 43
0.0000001
 44
0.0000000001
 40
0.0
 40
0.0
 40
0.0
 40
0.0
 40
0.2601224562
 40
0.512428032
 40
0.7581437597
 40
1.0
 40
1.0
 40
1.0
 40
1.0
 10
14.768722375
 20
51.9405619276
 30
0.0
 10
14.8627922033
 20
51.7635842926
 30
0.0
 10
15.034610601
 20
51.4074322617
 30
0.0
 10
15.2341542664
 20
50.8570970607
 30
0.0
 10
15.3602940875
 20
50.299424136
 30
0.0
 10
15.3892299905
 20
49.923174201
 30
0.0
 10
15.3892299905
 20
49.7368232841
 30
0.0
  0
SPLINE
  5
295
100
AcDbEntity
  8
0
100
AcDbSpline
 62
7
  6
BYLAYER
 70
0
 71
3
 72
11
 73
7
 74
0
 42
0.0000001
 43
0.0000001
 44
0.0000000001
 40
0.0
 40
0.0
 40
0.0
 40
0.0
 40
0.2500090906
 40
0.5000113781
 40
0.750006891
 40
1.0
 40
1.0
 40
1.0
 40
1.0
 10
13.0638325246
 20
52.4905619276
 30
0.0
 10
12.9605902977
 20
52.8658039529
 30
0.0
 10
12.772191044
 20
53.621452738
 30
0.0
 10
12.5564301652
 20
54.769668987
 30
0.0
 10
12.420343445
 20
55.9302176584
 30
0.0
 10
12.3892299905
 20
56.7088783607
 30
0.0
 10
12.3892299905
 20
57.0980392157
 30
0.0
  0
SPLINE
  5
296
100
AcDbEntity
  8
0
100
AcDbSpline
 62
7
  6
BYLAYER
 70
0
 71
3
 72
11
 73
7
 74
0
 42
0.0000001
 43
0.0000001
 44
0.0000000001
 40
0.0
 40
0.0
 40
0.0
 40
0.0
 40
0.2418538605
 40
0.4875643873
 40
0.7398751913
 40
1.0
 40
1.0
 40
1.0
 40
1.0
 10
12.3892299905
 20
49.7368232909
 30
0.0
 10
12.3892299909
 20
49.9231719548
 30
0.0
 10
12.4182067262
 20
50.2994095695
 30
0.0
 10
12.5442741188
 20
50.8570964427
 30
0.0
 10
12.7438992703
 20
51.4074039372
 30
0.0
 10
12.9156672396
 20
51.7635830878
 30
0.0
 10
13.0097377021
 20
51.9405619276
 30
0.0
  0
SPLINE
  5
297
100
AcDbEntity
  8
0
100
AcDbSpline
 62
7
  6
BYLAYER
 70
0
 71
3
 72
9
 73
5
 74
0
 42
0.0000001
 43
0.0000001
 44
0.0000000001
 40
0.0
 40
0.0
 40
0.0
 40
0.0
 40
0.2567405954
 40
1.0
 40
1.0
 40
1.0
 40
1.0
 10
14.738294914
 20
66.7254938052
 30
0.0
 10
14.7412705205
 20
66.7203391321
 30
0.0
 10
14.7525226995
 20
66.7000703006
 30
0.0
 10
14.762380289
 20
66.6790147511
 30
0.0
 10
14.768722375
 20
66.6629937919
 30
0.0
  0
SPLINE
  5
298
100
AcDbEntity
  8
0
100
AcDbSpline
 62
7
  6
BYLAYER
 70
0
 71
3
 72
11
 73
7
 74
0
 42
0.0000001
 43
0.0000001
 44
0.0000000001
 40
0.0
 40
0.0
 40
0.0
 40
0.0
 40
0.260120462
 40
0.5124282098
 40
0.7581430565
 40
1.0
 40
1.0
 40
1.0
 40
1.0
 10
13.0097376978
 20
47.5330846395
 30
0.0
 10
12.9156687531
 20
47.7100606238
 30
0.0
 10
12.7438797872
 20
48.0662246474
 30
0.0
 10
12.5442908822
 20
48.6165429582
 30
0.0
 10
12.4181975698
 20
49.1742268637
 30
0.0
 10
12.3892299902
 20
49.5504721443
 30
0.0
 10
12.3892299905
 20
49.7368232909
 30
0.0
  0
SPLINE
  5
299
100
AcDbEntity
  8
0
100
AcDbSpline
 62
7
  6
BYLAYER
 70
0
 71
3
 72
9
 73
5
 74
0
 42
0.0000001
 43
0.0000001
 44
0.0000000001
 40
0.0
 40
0.0
 40
0.0
 40
0.0
 40
0.243725128
 40
1.0
 40
1.0
 40
1.0
 40
1.0
 10
14.7687223786
 20
47.5330846395
 30
0.0
 10
14.7666426753
 20
47.5278310303
 30
0.0
 10
14.7576781511
 20
47.5064474521
 30
0.0
 10
14.7470602786
 20
47.4857689551
 30
0.0
 10
14.7382949142
 20
47.4705846262
 30
0.0
  0
SPLINE
  5
29A
100
AcDbEntity
  8
0
100
AcDbSpline
 62
7
  6
BYLAYER
 70
0
 71
3
 72
11
 73
7
 74
0
 42
0.0000001
 43
0.0000001
 44
0.0000000001
 40
0.0
 40
0.0
 40
0.0
 40
0.0
 40
0.2418538575
 40
0.4875643753
 40
0.7398751942
 40
1.0
 40
1.0
 40
1.0
 40
1.0
 10
15.3892299905
 20
49.7368232841
 30
0.0
 10
15.3892299906
 20
49.5504746213
 30
0.0
 10
15.3602533514
 20
49.1742370168
 30
0.0
 10
15.2341861663
 20
48.6165500733
 30
0.0
 10
15.0345607264
 20
48.0662426739
 30
0.0
 10
14.8627928455
 20
47.7100634759
 30
0.0
 10
14.7687223786
 20
47.5330846395
 30
0.0
  0
SPLINE
  5
29B
100
AcDbEntity
  8
0
100
AcDbSpline
 62
7
  6
BYLAYER
 70
0
 71
3
 72
9
 73
5
 74
0
 42
0.0000001
 43
0.0000001
 44
0.0000000001
 40
0.0
 40
0.0
 40
0.0
 40
0.0
 40
0.2437250668
 40
1.0
 40
1.0
 40
1.0
 40
1.0
 10
13.0097376252
 20
66.6629937919
 30
0.0
 10
13.011817326
 20
66.6682473973
 30
0.0
 10
13.0207817817
 20
66.6896309898
 30
0.0
 10
13.0313996206
 20
66.7103094958
 30
0.0
 10
13.0401650019
 20
66.7254938059
 30
0.0
  0
SPLINE
  5
29C
100
AcDbEntity
  8
0
100
AcDbSpline
 62
7
  6
BYLAYER
 70
0
 71
3
 72
11
 73
7
 74
0
 42
0.0000001
 43
0.0000001
 44
0.0000000001
 40
0.0
 40
0.0
 40
0.0
 40
0.0
 40
0.2418538576
 40
0.4875643752
 40
0.7398751938
 40
1.0
 40
1.0
 40
1.0
 40
1.0
 10
12.3892299905
 20
64.4592551468
 30
0.0
 10
12.3892299905
 20
64.6456038097
 30
0.0
 10
12.4182066366
 20
65.021841414
 30
0.0
 10
12.5442738191
 20
65.579528357
 30
0.0
 10
12.7438992505
 20
66.1298357607
 30
0.0
 10
12.9156671456
 20
66.4860149516
 30
0.0
 10
13.0097376061
 20
66.6629937919
 30
0.0
  0
SPLINE
  5
29D
100
AcDbEntity
  8
0
100
AcDbSpline
 62
7
  6
BYLAYER
 70
0
 71
3
 72
11
 73
7
 74
0
 42
0.0000001
 43
0.0000001
 44
0.0000000001
 40
0.0
 40
0.0
 40
0.0
 40
0.0
 40
0.2601224558
 40
0.5124280317
 40
0.7581437599
 40
1.0
 40
1.0
 40
1.0
 40
1.0
 10
13.0097376025
 20
62.2555165038
 30
0.0
 10
12.9156677815
 20
62.4324941422
 30
0.0
 10
12.7438493769
 20
62.7886461692
 30
0.0
 10
12.5443057155
 20
63.3389813715
 30
0.0
 10
12.4181658786
 20
63.8966542935
 30
0.0
 10
12.3892299906
 20
64.2729042301
 30
0.0
 10
12.3892299905
 20
64.4592551468
 30
0.0
  0
SPLINE
  5
29E
100
AcDbEntity
  8
0
100
AcDbSpline
 62
7
  6
BYLAYER
 70
0
 71
3
 72
11
 73
7
 74
0
 42
0.0000001
 43
0.0000001
 44
0.0000000001
 40
0.0
 40
0.0
 40
0.0
 40
0.0
 40
0.2499931421
 40
0.4999886579
 40
0.7499909321
 40
1.0
 40
1.0
 40
1.0
 40
1.0
 10
12.3892299905
 20
57.0980392157
 30
0.0
 10
12.3892299905
 20
57.4872001222
 30
0.0
 10
12.4203434189
 20
58.265860882
 30
0.0
 10
12.5564301917
 20
59.4264095848
 30
0.0
 10
12.7721911045
 20
60.5746257728
 30
0.0
 10
12.9605903071
 20
61.3302745126
 30
0.0
 10
13.0638325246
 20
61.7055165038
 30
0.0
  0
SPLINE
  5
29F
100
AcDbEntity
  8
0
100
AcDbSpline
 62
7
  6
BYLAYER
 70
0
 71
3
 72
9
 73
5
 74
0
 42
0.0000001
 43
0.0000001
 44
0.0000000001
 40
0.0
 40
0.0
 40
0.0
 40
0.0
 40
0.2567408467
 40
1.0
 40
1.0
 40
1.0
 40
1.0
 10
13.0401650013
 20
47.4705846254
 30
0.0
 10
13.037189386
 20
47.475739297
 30
0.0
 10
13.0259371797
 20
47.4960081026
 30
0.0
 10
13.0160797009
 20
47.5170636923
 30
0.0
 10
13.0097376219
 20
47.5330846395
 30
0.0
  0
SPLINE
  5
2A0
100
AcDbEntity
  8
0
100
AcDbSpline
 62
7
  6
BYLAYER
 70
0
 71
3
 72
9
 73
5
 74
0
 42
0.0000001
 43
0.0000001
 44
0.0000000001
 40
0.0
 40
0.0
 40
0.0
 40
0.0
 40
0.2456243692
 40
1.0
 40
1.0
 40
1.0
 40
1.0
 10
21.7382984871
 20
66.7254938472
 30
0.0
 10
21.7364836324
 20
66.728639139
 30
0.0
 10
21.7289623475
 20
66.7413677296
 30
0.0
 10
21.7209278632
 20
66.7537911409
 30
0.0
 10
21.7146274647
 20
66.7629937919
 30
0.0
  0
SPLINE
  5
2A1
100
AcDbEntity
  8
0
100
AcDbSpline
 62
7
  6
BYLAYER
 70
0
 71
3
 72
9
 73
5
 74
0
 42
0.0000001
 43
0.0000001
 44
0.0000000001
 40
0.0
 40
0.0
 40
0.0
 40
0.0
 40
0.245624377
 40
1.0
 40
1.0
 40
1.0
 40
1.0
 10
20.0401614878
 20
47.4705845841
 30
0.0
 10
20.0419763439
 20
47.4674392922
 30
0.0
 10
20.0494976352
 20
47.4547107022
 30
0.0
 10
20.0575321264
 20
47.4422872923
 30
0.0
 10
20.0638325257
 20
47.4330846395
 30
0.0
  0
SPLINE
  5
2A2
100
AcDbEntity
  8
0
100
AcDbSpline
 62
7
  6
BYLAYER
 70
0
 71
3
 72
9
 73
5
 74
0
 42
0.0000001
 43
0.0000001
 44
0.0000000001
 40
0.0
 40
0.0
 40
0.0
 40
0.0
 40
0.254471822
 40
1.0
 40
1.0
 40
1.0
 40
1.0
 10
21.7146274635
 20
47.4330846395
 30
0.0
 10
21.7167527507
 20
47.4361889313
 30
0.0
 10
21.7249959114
 20
47.4484616356
 30
0.0
 10
21.7327900043
 20
47.4610379324
 30
0.0
 10
21.7382984877
 20
47.4705845841
 30
0.0
  0
SPLINE
  5
2A3
100
AcDbEntity
  8
0
100
AcDbSpline
 62
7
  6
BYLAYER
 70
0
 71
3
 72
9
 73
5
 74
0
 42
0.0000001
 43
0.0000001
 44
0.0000000001
 40
0.0
 40
0.0
 40
0.0
 40
0.0
 40
0.2544717996
 40
1.0
 40
1.0
 40
1.0
 40
1.0
 10
20.0638325246
 20
66.7629937919
 30
0.0
 10
20.0617072375
 20
66.7598894999
 30
0.0
 10
20.0534640745
 20
66.7476167946
 30
0.0
 10
20.0456699752
 20
66.7350404993
 30
0.0
 10
20.0401614885
 20
66.7254938473
 30
0.0
  0
LINE
  5
2A4
100
AcDbEntity
  8
0
100
AcDbLine
 62
7
  6
BYLAYER
 10
18.8677612794
 20
57.0980392572
 11
19.1892299905
 21
57.4233725024
  0
LINE
  5
2A5
100
AcDbEntity
  8
0
100
AcDbLine
 62
7
  6
BYLAYER
 10
18.6892299905
 20
56.9170763082
 11
18.8677612794
 21
57.0980392572
  0
SPLINE
  5
2A6
100
AcDbEntity
  8
0
100
AcDbSpline
 62
7
  6
BYLAYER
 70
0
 71
3
 72
11
 73
7
 74
0
 42
0.0000001
 43
0.0000001
 44
0.0000000001
 40
0.0
 40
0.0
 40
0.0
 40
0.0
 40
0.2499931421
 40
0.4999886579
 40
0.7499909321
 40
1.0
 40
1.0
 40
1.0
 40
1.0
 10
19.3892299905
 20
57.0980392157
 30
0.0
 10
19.3892299905
 20
57.4872001222
 30
0.0
 10
19.420343419
 20
58.265860882
 30
0.0
 10
19.5564301912
 20
59.4264095849
 30
0.0
 10
19.7721911059
 20
60.5746257724
 30
0.0
 10
19.9605903049
 20
61.3302745132
 30
0.0
 10
20.0638325246
 20
61.7055165038
 30
0.0
  0
SPLINE
  5
2A7
100
AcDbEntity
  8
0
100
AcDbSpline
 62
7
  6
BYLAYER
 70
0
 71
3
 72
11
 73
7
 74
0
 42
0.0000001
 43
0.0000001
 44
0.0000000001
 40
0.0
 40
0.0
 40
0.0
 40
0.0
 40
0.2601204614
 40
0.5124282216
 40
0.7581430596
 40
1.0
 40
1.0
 40
1.0
 40
1.0
 10
20.0097376025
 20
62.2555165038
 30
0.0
 10
19.915668652
 20
62.4324924873
 30
0.0
 10
19.7438797408
 20
62.788656546
 30
0.0
 10
19.5442905995
 20
63.338974785
 30
0.0
 10
19.4181974722
 20
63.8966587555
 30
0.0
 10
19.3892299891
 20
64.2729040296
 30
0.0
 10
19.3892299905
 20
64.4592551762
 30
0.0
  0
SPLINE
  5
2A8
100
AcDbEntity
  8
0
100
AcDbSpline
 62
7
  6
BYLAYER
 70
0
 71
3
 72
11
 73
7
 74
0
 42
0.0000001
 43
0.0000001
 44
0.0000000001
 40
0.0
 40
0.0
 40
0.0
 40
0.0
 40
0.2418532609
 40
0.4875643675
 40
0.7398736047
 40
1.0
 40
1.0
 40
1.0
 40
1.0
 10
19.3892299905
 20
64.4592551762
 30
0.0
 10
19.389229992
 20
64.6456036354
 30
0.0
 10
19.4181836873
 20
65.0218445086
 30
0.0
 10
19.5442826856
 20
65.579523885
 30
0.0
 10
19.7438755641
 20
66.1298437685
 30
0.0
 10
19.915666435
 20
66.4860136309
 30
0.0
 10
20.009737606
 20
66.6629937919
 30
0.0
  0
SPLINE
  5
2A9
100
AcDbEntity
  8
0
100
AcDbSpline
 62
7
  6
BYLAYER
 70
0
 71
3
 72
9
 73
5
 74
0
 42
0.0000001
 43
0.0000001
 44
0.0000000001
 40
0.0
 40
0.0
 40
0.0
 40
0.0
 40
0.2437475325
 40
1.0
 40
1.0
 40
1.0
 40
1.0
 10
21.7687223559
 20
66.6629937919
 30
0.0
 10
21.7666425161
 20
66.6682477486
 30
0.0
 10
21.7576713813
 20
66.6896279066
 30
0.0
 10
21.7470604373
 20
66.7103086705
 30
0.0
 10
21.7382984871
 20
66.7254938472
 30
0.0
  0
SPLINE
  5
2AA
100
AcDbEntity
  8
0
100
AcDbSpline
 62
7
  6
BYLAYER
 70
0
 71
3
 72
9
 73
5
 74
0
 42
0.0000001
 43
0.0000001
 44
0.0000000001
 40
0.0
 40
0.0
 40
0.0
 40
0.0
 40
0.256707118
 40
1.0
 40
1.0
 40
1.0
 40
1.0
 10
21.7382984877
 20
47.4705845841
 30
0.0
 10
21.7412726333
 20
47.4757390214
 30
0.0
 10
21.7525155014
 20
47.4960122258
 30
0.0
 10
21.7623801583
 20
47.5170633844
 30
0.0
 10
21.7687223591
 20
47.5330846395
 30
0.0
  0
SPLINE
  5
2AB
100
AcDbEntity
  8
0
100
AcDbSpline
 62
7
  6
BYLAYER
 70
0
 71
3
 72
11
 73
7
 74
0
 42
0.0000001
 43
0.0000001
 44
0.0000000001
 40
0.0
 40
0.0
 40
0.0
 40
0.0
 40
0.2601204615
 40
0.5124282216
 40
0.7581430596
 40
1.0
 40
1.0
 40
1.0
 40
1.0
 10
21.768722375
 20
66.6629937919
 30
0.0
 10
21.8627913176
 20
66.4860178066
 30
0.0
 10
22.0345802395
 20
66.1298537588
 30
0.0
 10
22.2341693735
 20
65.5795355234
 30
0.0
 10
22.3602624987
 20
65.0218515604
 30
0.0
 10
22.3892299906
 20
64.6456062913
 30
0.0
 10
22.3892299905
 20
64.4592551468
 30
0.0
  0
SPLINE
  5
2AC
100
AcDbEntity
  8
0
100
AcDbSpline
 62
7
  6
BYLAYER
 70
0
 71
3
 72
11
 73
7
 74
0
 42
0.0000001
 43
0.0000001
 44
0.0000000001
 40
0.0
 40
0.0
 40
0.0
 40
0.0
 40
0.2500090906
 40
0.5000113781
 40
0.750006891
 40
1.0
 40
1.0
 40
1.0
 40
1.0
 10
21.7146274564
 20
61.7055165038
 30
0.0
 10
21.8178696834
 20
61.3302744784
 30
0.0
 10
22.0062689371
 20
60.5746256934
 30
0.0
 10
22.2220298158
 20
59.4264094444
 30
0.0
 10
22.3581165361
 20
58.265860773
 30
0.0
 10
22.3892299905
 20
57.4872000707
 30
0.0
 10
22.3892299905
 20
57.0980392157
 30
0.0
  0
SPLINE
  5
2AD
100
AcDbEntity
  8
0
100
AcDbSpline
 62
7
  6
BYLAYER
 70
0
 71
3
 72
11
 73
7
 74
0
 42
0.0000001
 43
0.0000001
 44
0.0000000001
 40
0.0
 40
0.0
 40
0.0
 40
0.0
 40
0.2418532607
 40
0.4875643676
 40
0.739873605
 40
1.0
 40
1.0
 40
1.0
 40
1.0
 10
22.3892299905
 20
64.4592551468
 30
0.0
 10
22.3892299905
 20
64.2729066855
 30
0.0
 10
22.3602763123
 20
63.896665806
 30
0.0
 10
22.2341772992
 20
63.3389864252
 30
0.0
 10
22.0345844245
 20
62.7886665329
 30
0.0
 10
21.8627935437
 20
62.4324966704
 30
0.0
 10
21.7687223785
 20
62.2555165038
 30
0.0
  0
SPLINE
  5
2AE
100
AcDbEntity
  8
0
100
AcDbSpline
 62
7
  6
BYLAYER
 70
0
 71
3
 72
11
 73
7
 74
0
 42
0.0000001
 43
0.0000001
 44
0.0000000001
 40
0.0
 40
0.0
 40
0.0
 40
0.0
 40
0.2601204613
 40
0.5124282216
 40
0.7581430596
 40
1.0
 40
1.0
 40
1.0
 40
1.0
 10
20.0097376025
 20
47.5330846395
 30
0.0
 10
19.9156686531
 20
47.7100606208
 30
0.0
 10
19.7438797439
 20
48.0662246751
 30
0.0
 10
19.5442906038
 20
48.6165429071
 30
0.0
 10
19.4181974757
 20
49.1742268703
 30
0.0
 10
19.3892299905
 20
49.5504721398
 30
0.0
 10
19.3892299905
 20
49.7368232841
 30
0.0
  0
SPLINE
  5
2AF
100
AcDbEntity
  8
0
100
AcDbSpline
 62
7
  6
BYLAYER
 70
0
 71
3
 72
9
 73
5
 74
0
 42
0.0000001
 43
0.0000001
 44
0.0000000001
 40
0.0
 40
0.0
 40
0.0
 40
0.0
 40
0.2567071273
 40
1.0
 40
1.0
 40
1.0
 40
1.0
 10
20.0401614885
 20
66.7254938473
 30
0.0
 10
20.0371873413
 20
66.7203394102
 30
0.0
 10
20.0259444687
 20
66.7000662063
 30
0.0
 10
20.0160798092
 20
66.6790150471
 30
0.0
 10
20.009737606
 20
66.6629937919
 30
0.0
  0
SPLINE
  5
2B0
100
AcDbEntity
  8
0
100
AcDbSpline
 62
7
  6
BYLAYER
 70
0
 71
3
 72
9
 73
5
 74
0
 42
0.0000001
 43
0.0000001
 44
0.0000000001
 40
0.0
 40
0.0
 40
0.0
 40
0.0
 40
0.2437475264
 40
1.0
 40
1.0
 40
1.0
 40
1.0
 10
20.0097376025
 20
47.5330846395
 30
0.0
 10
20.0118174434
 20
47.5278306827
 30
0.0
 10
20.0207885834
 20
47.5064505242
 30
0.0
 10
20.0313995318
 20
47.4857697597
 30
0.0
 10
20.0401614878
 20
47.4705845841
 30
0.0
  0
SPLINE
  5
2B1
100
AcDbEntity
  8
0
100
AcDbSpline
 62
7
  6
BYLAYER
 70
0
 71
3
 72
11
 73
7
 74
0
 42
0.0000001
 43
0.0000001
 44
0.0000000001
 40
0.0
 40
0.0
 40
0.0
 40
0.0
 40
0.2418538603
 40
0.487564387
 40
0.7398751911
 40
1.0
 40
1.0
 40
1.0
 40
1.0
 10
22.3892299905
 20
49.7368232909
 30
0.0
 10
22.3892299909
 20
49.5504746259
 30
0.0
 10
22.3602532667
 20
49.1742370079
 30
0.0
 10
22.2341858689
 20
48.6165501314
 30
0.0
 10
22.0345607175
 20
48.0662426327
 30
0.0
 10
21.8627927442
 20
47.7100634806
 30
0.0
 10
21.768722281
 20
47.5330846395
 30
0.0
  0
SPLINE
  5
2B2
100
AcDbEntity
  8
0
100
AcDbSpline
 62
7
  6
BYLAYER
 70
0
 71
3
 72
11
 73
7
 74
0
 42
0.0000001
 43
0.0000001
 44
0.0000000001
 40
0.0
 40
0.0
 40
0.0
 40
0.0
 40
0.2601204618
 40
0.5124282095
 40
0.7581430563
 40
1.0
 40
1.0
 40
1.0
 40
1.0
 10
21.7687222813
 20
51.9405619276
 30
0.0
 10
21.8627912253
 20
51.7635859446
 30
0.0
 10
22.0345801878
 20
51.4074219227
 30
0.0
 10
22.2341690915
 20
50.8571036156
 30
0.0
 10
22.3602624003
 20
50.2994197138
 30
0.0
 10
22.3892299902
 20
49.9231744364
 30
0.0
 10
22.3892299905
 20
49.7368232909
 30
0.0
  0
SPLINE
  5
2B3
100
AcDbEntity
  8
0
100
AcDbSpline
 62
7
  6
BYLAYER
 70
0
 71
3
 72
11
 73
7
 74
0
 42
0.0000001
 43
0.0000001
 44
0.0000000001
 40
0.0
 40
0.0
 40
0.0
 40
0.0
 40
0.2499931421
 40
0.4999886579
 40
0.7499909321
 40
1.0
 40
1.0
 40
1.0
 40
1.0
 10
22.3892299905
 20
57.0980392157
 30
0.0
 10
22.3892299905
 20
56.7088783092
 30
0.0
 10
22.3581165622
 20
55.9302175494
 30
0.0
 10
22.2220297893
 20
54.7696688466
 30
0.0
 10
22.0062688766
 20
53.6214526586
 30
0.0
 10
21.817869674
 20
52.8658039188
 30
0.0
 10
21.7146274564
 20
52.4905619276
 30
0.0
  0
SPLINE
  5
2B4
100
AcDbEntity
  8
0
100
AcDbSpline
 62
7
  6
BYLAYER
 70
0
 71
3
 72
11
 73
7
 74
0
 42
0.0000001
 43
0.0000001
 44
0.0000000001
 40
0.0
 40
0.0
 40
0.0
 40
0.0
 40
0.2418532609
 40
0.4875643675
 40
0.7398736046
 40
1.0
 40
1.0
 40
1.0
 40
1.0
 10
19.3892299905
 20
49.7368232841
 30
0.0
 10
19.3892299906
 20
49.9231717456
 30
0.0
 10
19.4181836838
 20
50.2994126235
 30
0.0
 10
19.5442826812
 20
50.8570920071
 30
0.0
 10
19.743875561
 20
51.4074118976
 30
0.0
 10
19.9156664339
 20
51.7635817644
 30
0.0
 10
20.009737606
 20
51.9405619276
 30
0.0
  0
SPLINE
  5
2B5
100
AcDbEntity
  8
0
100
AcDbSpline
 62
7
  6
BYLAYER
 70
0
 71
3
 72
11
 73
7
 74
0
 42
0.0000001
 43
0.0000001
 44
0.0000000001
 40
0.0
 40
0.0
 40
0.0
 40
0.0
 40
0.2500090906
 40
0.5000113781
 40
0.750006891
 40
1.0
 40
1.0
 40
1.0
 40
1.0
 10
20.0638325246
 20
52.4905619276
 30
0.0
 10
19.9605902955
 20
52.8658039523
 30
0.0
 10
19.7721910454
 20
53.6214527384
 30
0.0
 10
19.5564301647
 20
54.7696689869
 30
0.0
 10
19.4203434452
 20
55.9302176584
 30
0.0
 10
19.3892299905
 20
56.7088783607
 30
0.0
 10
19.3892299905
 20
57.0980392157
 30
0.0
  0
ELLIPSE
  5
2B6
100
AcDbEntity
  8
0
100
AcDbEllipse
 62
7
  6
BYLAYER
 10
18.4286567348
 20
56.5910399932
 30
0.0
 11
6.769687539
 21
-4.761806636
 31
0.0
 40
0.8141833296
 41
4.9261133898
 42
4.9279264011
  0
ELLIPSE
  5
2B7
100
AcDbEntity
  8
0
100
AcDbEllipse
 62
7
  6
BYLAYER
 10
18.4286567348
 20
56.1003361429
 30
0.0
 11
6.7778954833
 21
-5.7498567937
 31
0.0
 40
0.6717760696
 41
-1.3775981148
 42
-1.3573799308
  0
ELLIPSE
  5
2B8
100
AcDbEntity
  8
0
100
AcDbEllipse
 62
7
  6
BYLAYER
 10
18.4286567348
 20
55.6416992903
 30
0.0
 11
6.9892805436
 21
-6.3556937277
 31
0.0
 40
0.5452577243
 41
-1.4468268092
 42
-1.4150555219
  0
ELLIPSE
  5
2B9
100
AcDbEntity
  8
0
100
AcDbEllipse
 62
7
  6
BYLAYER
 10
18.4286567348
 20
55.2298704011
 30
0.0
 11
7.2216881888
 21
-6.8211355117
 31
0.0
 40
0.4325884012
 41
-1.5276013277
 42
-1.487467482
  0
ELLIPSE
  5
2BA
100
AcDbEntity
  8
0
100
AcDbEllipse
 62
7
  6
BYLAYER
 10
18.4286567348
 20
54.8780859948
 30
0.0
 11
7.4303153681
 21
-7.1896323761
 31
0.0
 40
0.3306136582
 41
-1.6125941643
 42
-1.5657448926
  0
ELLIPSE
  5
2BB
100
AcDbEntity
  8
0
100
AcDbEllipse
 62
7
  6
BYLAYER
 10
18.4286567348
 20
54.5976527116
 30
0.0
 11
7.5984400747
 21
-7.4711827883
 31
0.0
 40
0.2365500347
 41
-1.6995452328
 42
-1.6468358367
  0
ELLIPSE
  5
2BC
100
AcDbEntity
  8
0
100
AcDbEllipse
 62
7
  6
BYLAYER
 10
18.4286567348
 20
54.397583908
 30
0.0
 11
7.7182939033
 21
-7.6671333883
 31
0.0
 40
0.1479991431
 41
-1.7875736354
 42
-1.7293886949
  0
ELLIPSE
  5
2BD
100
AcDbEntity
  8
0
100
AcDbEllipse
 62
7
  6
BYLAYER
 10
18.4286567348
 20
54.2843099599
 30
0.0
 11
7.785942562
 21
-7.776570827
 31
0.0
 40
0.0628349518
 41
-1.8761933735
 42
-1.8126840089
  0
ELLIPSE
  5
2BE
100
AcDbEntity
  8
0
100
AcDbEllipse
 62
7
  6
BYLAYER
 10
13.4959281862
 20
56.7242657456
 30
0.0
 11
6.4571461231
 21
5.3215173093
 31
0.0
 40
0.8263497679
 41
-1.8974052139
 42
-1.8302981196
  0
ELLIPSE
  5
2BF
100
AcDbEntity
  8
0
100
AcDbEllipse
 62
7
  6
BYLAYER
 10
13.4959281862
 20
57.0980392157
 30
0.0
 11
7.8123086895
 21
-0.0
 31
0.0
 40
0.963433044
 41
-1.2995325731
 42
-1.2324254787
  0
ELLIPSE
  5
2C0
100
AcDbEntity
  8
0
100
AcDbEllipse
 62
7
  6
BYLAYER
 10
13.4959281862
 20
56.3625056624
 30
0.0
 11
6.6270509456
 21
6.0601069723
 31
0.0
 40
0.6826531162
 41
-1.8575939396
 42
-1.7904868453
  0
ELLIPSE
  5
2C1
100
AcDbEntity
  8
0
100
AcDbEllipse
 62
7
  6
BYLAYER
 10
13.4959281862
 20
56.0243862328
 30
0.0
 11
6.9078851538
 21
6.5607671043
 31
0.0
 40
0.5561450433
 41
-1.7854840708
 42
-1.7183769765
  0
ELLIPSE
  5
2C2
100
AcDbEntity
  8
0
100
AcDbEllipse
 62
7
  6
BYLAYER
 10
13.4959281862
 20
55.7207748935
 30
0.0
 11
7.1783004868
 21
6.9596182974
 31
0.0
 40
0.4429672902
 41
-1.7051854317
 42
-1.6380783374
  0
ELLIPSE
  5
2C3
100
AcDbEntity
  8
0
100
AcDbEllipse
 62
7
  6
BYLAYER
 10
13.4959281862
 20
55.4614299627
 30
0.0
 11
7.4104872802
 21
7.279395874
 31
0.0
 40
0.3397569986
 41
-1.6216551135
 42
-1.5545480192
  0
ELLIPSE
  5
2C4
100
AcDbEntity
  8
0
100
AcDbEllipse
 62
7
  6
BYLAYER
 10
13.4959281862
 20
55.2546869999
 30
0.0
 11
7.5938540461
 21
7.5246575103
 31
0.0
 40
0.2438041777
 41
-1.536573414
 42
-1.4694663196
  0
ELLIPSE
  5
2C5
100
AcDbEntity
  8
0
100
AcDbEllipse
 62
7
  6
BYLAYER
 10
13.4959281862
 20
55.1071908941
 30
0.0
 11
7.7232380929
 21
7.6954506012
 31
0.0
 40
0.1528608948
 41
-1.450681815
 42
-1.3835747207
  0
ELLIPSE
  5
2C6
100
AcDbEntity
  8
0
100
AcDbEllipse
 62
7
  6
BYLAYER
 10
13.4959281862
 20
55.0236822913
 30
0.0
 11
7.7958900717
 21
7.7908030039
 31
0.0
 40
0.0649774206
 41
-1.3643765566
 42
-1.2972694622
  0
ELLIPSE
  5
2C7
100
AcDbEntity
  8
0
100
AcDbEllipse
 62
7
  6
BYLAYER
 10
13.4959281862
 20
57.2856813428
 30
0.0
 11
6.6576717293
 21
-4.5189586685
 31
0.0
 40
0.9045203251
 41
1.7830405902
 42
1.8501476846
  0
ELLIPSE
  5
2C8
100
AcDbEntity
  8
0
100
AcDbEllipse
 62
7
  6
BYLAYER
 10
13.4959281862
 20
57.6549346245
 30
0.0
 11
6.5090715451
 21
-5.7438845358
 31
0.0
 40
0.7521396115
 41
1.8183855327
 42
1.8854926271
  0
ELLIPSE
  5
2C9
100
AcDbEntity
  8
0
100
AcDbEllipse
 62
7
  6
BYLAYER
 10
13.4959281862
 20
58.0062888297
 30
0.0
 11
6.7654754064
 21
-6.3263364658
 31
0.0
 40
0.6174932746
 41
1.7560709431
 42
1.8231780374
  0
ELLIPSE
  5
2CA
100
AcDbEntity
  8
0
100
AcDbEllipse
 62
7
  6
BYLAYER
 10
13.4959281862
 20
58.3284511449
 30
0.0
 11
7.0468101624
 21
-6.7707526428
 31
0.0
 40
0.4981174544
 41
1.6788100772
 42
1.7459171715
  0
ELLIPSE
  5
2CB
100
AcDbEntity
  8
0
100
AcDbEllipse
 62
7
  6
BYLAYER
 10
13.4959281862
 20
58.6110670083
 30
0.0
 11
7.3000243014
 21
-7.128928855
 31
0.0
 40
0.3902986392
 41
1.5965778316
 42
1.663684926
  0
ELLIPSE
  5
2CC
100
AcDbEntity
  8
0
100
AcDbEllipse
 62
7
  6
BYLAYER
 10
13.4959281862
 20
58.8450529136
 30
0.0
 11
7.508671714
 21
-7.4112915527
 31
0.0
 40
0.2910225948
 41
1.5121428159
 42
1.5792499103
  0
ELLIPSE
  5
2CD
100
AcDbEntity
  8
0
100
AcDbEllipse
 62
7
  6
BYLAYER
 10
13.4959281862
 20
59.0228883611
 30
0.0
 11
7.6655060057
 21
-7.6194188564
 31
0.0
 40
0.1978335621
 41
1.4265921697
 42
1.493699264
  0
ELLIPSE
  5
2CE
100
AcDbEntity
  8
0
100
AcDbEllipse
 62
7
  6
BYLAYER
 10
13.4959281862
 20
59.1388575734
 30
0.0
 11
7.7667659793
 21
-7.7526181998
 31
0.0
 40
0.108650535
 41
1.3404558684
 42
1.4075629627
  0
ELLIPSE
  5
2CF
100
AcDbEntity
  8
0
100
AcDbEllipse
 62
7
  6
BYLAYER
 10
18.4286567348
 20
57.85343135
 30
0.0
 11
6.7213029091
 21
5.3438259075
 31
0.0
 40
0.7410930986
 41
1.3429117237
 42
1.3551978658
  0
ELLIPSE
  5
2D0
100
AcDbEntity
  8
0
100
AcDbEllipse
 62
7
  6
BYLAYER
 10
18.4286567348
 20
58.3300203085
 30
0.0
 11
6.8756759107
 21
6.0762217966
 31
0.0
 40
0.6065857959
 41
1.3832861887
 42
1.4098291498
  0
ELLIPSE
  5
2D1
100
AcDbEntity
  8
0
100
AcDbEllipse
 62
7
  6
BYLAYER
 10
18.4286567348
 20
58.7670123809
 30
0.0
 11
7.1067502841
 21
6.6018876611
 31
0.0
 40
0.4873950986
 41
1.4502055444
 42
1.4864347757
  0
ELLIPSE
  5
2D2
100
AcDbEntity
  8
0
100
AcDbEllipse
 62
7
  6
BYLAYER
 10
18.4286567348
 20
59.1503622827
 30
0.0
 11
7.3303344293
 21
7.0165429758
 31
0.0
 40
0.3804483491
 41
1.5261255966
 42
1.569760596
  0
ELLIPSE
  5
2D3
100
AcDbEntity
  8
0
100
AcDbEllipse
 62
7
  6
BYLAYER
 10
18.4286567348
 20
59.4677488324
 30
0.0
 11
7.5200493134
 21
7.341096966
 31
0.0
 40
0.2827506224
 41
1.6060449324
 42
1.6558988179
  0
ELLIPSE
  5
2D4
100
AcDbEntity
  8
0
100
AcDbEllipse
 62
7
  6
BYLAYER
 10
18.4286567348
 20
59.7089709652
 30
0.0
 11
7.6647083204
 21
7.5798977311
 31
0.0
 40
0.1917233997
 41
1.6879833724
 42
1.743454256
  0
ELLIPSE
  5
2D5
100
AcDbEntity
  8
0
100
AcDbEllipse
 62
7
  6
BYLAYER
 10
18.4286567348
 20
59.8662756033
 30
0.0
 11
7.7587971111
 21
7.7327395204
 31
0.0
 40
0.1051190463
 41
1.7709759127
 42
1.8315636138
  0
ELLIPSE
  5
2D6
100
AcDbEntity
  8
0
100
AcDbEllipse
 62
7
  6
BYLAYER
 10
18.4286567348
 20
59.9346068462
 30
0.0
 11
7.7995571123
 21
7.7985162524
 31
0.0
 40
0.0209057077
 41
1.8544612505
 42
1.9209338703
  0
ELLIPSE
  5
2D7
100
AcDbEntity
  8
0
100
AcDbEllipse
 62
7
  6
BYLAYER
 10
13.4959281862
 20
56.1897896017
 30
0.0
 11
6.7654754064
 21
6.3263364658
 31
0.0
 40
0.6174932746
 41
0.7087800143
 42
0.7758871087
  0
ELLIPSE
  5
2D8
100
AcDbEntity
  8
0
100
AcDbEllipse
 62
7
  6
BYLAYER
 10
13.4959281862
 20
55.8676272865
 30
0.0
 11
7.0468101624
 21
6.7707526428
 31
0.0
 40
0.4981174544
 41
0.7860408803
 42
0.8531479746
  0
ELLIPSE
  5
2D9
100
AcDbEntity
  8
0
100
AcDbEllipse
 62
7
  6
BYLAYER
 10
13.4959281862
 20
57.4718126858
 30
0.0
 11
6.4571461231
 21
-5.3215173093
 31
0.0
 40
0.8263497679
 41
-0.7016599322
 42
-0.6345528378
  0
ELLIPSE
  5
2DA
100
AcDbEntity
  8
0
100
AcDbEllipse
 62
7
  6
BYLAYER
 10
13.4959281862
 20
55.585011423
 30
0.0
 11
7.3000243014
 21
7.128928855
 31
0.0
 40
0.3902986392
 41
0.8682731258
 42
0.9353802201
  0
ELLIPSE
  5
2DB
100
AcDbEntity
  8
0
100
AcDbEllipse
 62
7
  6
BYLAYER
 10
13.4959281862
 20
55.3510255178
 30
0.0
 11
7.508671714
 21
7.4112915527
 31
0.0
 40
0.2910225948
 41
0.9527081415
 42
1.0198152359
  0
ELLIPSE
  5
2DC
100
AcDbEntity
  8
0
100
AcDbEllipse
 62
7
  6
BYLAYER
 10
13.4959281862
 20
55.1731900702
 30
0.0
 11
7.6655060057
 21
7.6194188564
 31
0.0
 40
0.1978335621
 41
1.0382587878
 42
1.1053658821
  0
ELLIPSE
  5
2DD
100
AcDbEntity
  8
0
100
AcDbEllipse
 62
7
  6
BYLAYER
 10
13.4959281862
 20
55.057220858
 30
0.0
 11
7.7667659793
 21
7.7526181998
 31
0.0
 40
0.108650535
 41
1.1243950891
 42
1.1915021834
  0
ELLIPSE
  5
2DE
100
AcDbEntity
  8
0
100
AcDbEllipse
 62
7
  6
BYLAYER
 10
13.4959281862
 20
59.17239614
 30
0.0
 11
7.7958900717
 21
-7.7908030039
 31
0.0
 40
0.0649774206
 41
-1.2346885895
 42
-1.1675814952
  0
ELLIPSE
  5
2DF
100
AcDbEntity
  8
0
100
AcDbEllipse
 62
7
  6
BYLAYER
 10
13.4959281862
 20
59.0888875373
 30
0.0
 11
7.7232380929
 21
-7.6954506012
 31
0.0
 40
0.1528608948
 41
-1.1483833311
 42
-1.0812762368
  0
ELLIPSE
  5
2E0
100
AcDbEntity
  8
0
100
AcDbEllipse
 62
7
  6
BYLAYER
 10
13.4959281862
 20
58.9413914314
 30
0.0
 11
7.5938540461
 21
-7.5246575103
 31
0.0
 40
0.2438041777
 41
-1.0624917322
 42
-0.9953846378
  0
ELLIPSE
  5
2E1
100
AcDbEntity
  8
0
100
AcDbEllipse
 62
7
  6
BYLAYER
 10
13.4959281862
 20
55.0068452269
 30
0.0
 11
7.8104831204
 21
7.8099182007
 31
0.0
 40
0.0216237981
 41
1.2108066133
 42
1.2779137076
  0
ELLIPSE
  5
2E2
100
AcDbEntity
  8
0
100
AcDbEllipse
 62
7
  6
BYLAYER
 10
13.4959281862
 20
58.7346484687
 30
0.0
 11
7.4104872802
 21
-7.279395874
 31
0.0
 40
0.3397569986
 41
-0.9774100326
 42
-0.9103029382
  0
ELLIPSE
  5
2E3
100
AcDbEntity
  8
0
100
AcDbEllipse
 62
7
  6
BYLAYER
 10
13.4959281862
 20
58.4753035379
 30
0.0
 11
7.1783004868
 21
-6.9596182974
 31
0.0
 40
0.4429672902
 41
-0.8938797144
 42
-0.82677262
  0
ELLIPSE
  5
2E4
100
AcDbEntity
  8
0
100
AcDbEllipse
 62
7
  6
BYLAYER
 10
13.4959281862
 20
56.9103970886
 30
0.0
 11
6.6576717293
 21
4.5189586685
 31
0.0
 40
0.9045203251
 41
0.6818103672
 42
0.7489174616
  0
ELLIPSE
  5
2E5
100
AcDbEntity
  8
0
100
AcDbEllipse
 62
7
  6
BYLAYER
 10
13.4959281862
 20
58.1716921985
 30
0.0
 11
6.9078851538
 21
-6.5607671043
 31
0.0
 40
0.5561450433
 41
-0.8135810753
 42
-0.746473981
  0
ELLIPSE
  5
2E6
100
AcDbEntity
  8
0
100
AcDbEllipse
 62
7
  6
BYLAYER
 10
13.4959281862
 20
57.8335727689
 30
0.0
 11
6.6270509456
 21
-6.0601069723
 31
0.0
 40
0.6826531162
 41
-0.7414712065
 42
-0.6743641122
  0
ELLIPSE
  5
2E7
100
AcDbEntity
  8
0
100
AcDbEllipse
 62
7
  6
BYLAYER
 10
13.4959281862
 20
56.5411438068
 30
0.0
 11
6.5090715451
 21
5.7438845358
 31
0.0
 40
0.7521396115
 41
0.6464654247
 42
0.713572519
  0
ELLIPSE
  5
2E8
100
AcDbEntity
  8
0
100
AcDbEllipse
 62
7
  6
BYLAYER
 10
16.3498032462
 20
57.85343135
 30
0.0
 11
6.7213029091
 21
-5.3438259075
 31
0.0
 40
0.7410930986
 41
1.7863947399
 42
1.7986809299
  0
ELLIPSE
  5
2E9
100
AcDbEntity
  8
0
100
AcDbEllipse
 62
7
  6
BYLAYER
 10
16.3498032462
 20
58.3300203085
 30
0.0
 11
6.8756759107
 21
-6.0762217966
 31
0.0
 40
0.6065857959
 41
1.7317634819
 42
1.7583064649
  0
ELLIPSE
  5
2EA
100
AcDbEntity
  8
0
100
AcDbEllipse
 62
7
  6
BYLAYER
 10
16.3498032462
 20
58.7670123809
 30
0.0
 11
7.1067502841
 21
-6.6018876611
 31
0.0
 40
0.4873950986
 41
1.6551578627
 42
1.6913871092
  0
ELLIPSE
  5
2EB
100
AcDbEntity
  8
0
100
AcDbEllipse
 62
7
  6
BYLAYER
 10
16.3498032462
 20
59.1503622827
 30
0.0
 11
7.3303344293
 21
-7.0165429758
 31
0.0
 40
0.3804483491
 41
1.5718320053
 42
1.615467057
  0
ELLIPSE
  5
2EC
100
AcDbEntity
  8
0
100
AcDbEllipse
 62
7
  6
BYLAYER
 10
16.3498032462
 20
59.4677488324
 30
0.0
 11
7.5200493134
 21
-7.341096966
 31
0.0
 40
0.2827506224
 41
1.4856941074
 42
1.5355477211
  0
ELLIPSE
  5
2ED
100
AcDbEntity
  8
0
100
AcDbEllipse
 62
7
  6
BYLAYER
 10
16.3498032462
 20
59.7089709652
 30
0.0
 11
7.6647083204
 21
-7.5798977311
 31
0.0
 40
0.1917233997
 41
1.3981386149
 42
1.4536092812
  0
ELLIPSE
  5
2EE
100
AcDbEntity
  8
0
100
AcDbEllipse
 62
7
  6
BYLAYER
 10
16.3498032462
 20
59.8662756033
 30
0.0
 11
7.7587971111
 21
-7.7327395204
 31
0.0
 40
0.1051190463
 41
1.3100291931
 42
1.3706167409
  0
ELLIPSE
  5
2EF
100
AcDbEntity
  8
0
100
AcDbEllipse
 62
7
  6
BYLAYER
 10
16.3498032462
 20
59.9346068462
 30
0.0
 11
7.7995571123
 21
-7.7985162524
 31
0.0
 40
0.0209057077
 41
1.2206588168
 42
1.2871314031
  0
ELLIPSE
  5
2F0
100
AcDbEntity
  8
0
100
AcDbEllipse
 62
7
  6
BYLAYER
 10
21.2825317949
 20
56.7242657456
 30
0.0
 11
6.4571461231
 21
-5.3215173093
 31
0.0
 40
0.8263497679
 41
-1.311294534
 42
-1.2441874396
  0
ELLIPSE
  5
2F1
100
AcDbEntity
  8
0
100
AcDbEllipse
 62
7
  6
BYLAYER
 10
21.2825317949
 20
56.3625056624
 30
0.0
 11
6.6270509456
 21
-6.0601069723
 31
0.0
 40
0.6826531162
 41
-1.3511058083
 42
-1.283998714
  0
ELLIPSE
  5
2F2
100
AcDbEntity
  8
0
100
AcDbEllipse
 62
7
  6
BYLAYER
 10
21.2825317949
 20
56.0243862328
 30
0.0
 11
6.9078851538
 21
-6.5607671043
 31
0.0
 40
0.5561450433
 41
-1.4232156771
 42
-1.3561085828
  0
ELLIPSE
  5
2F3
100
AcDbEntity
  8
0
100
AcDbEllipse
 62
7
  6
BYLAYER
 10
21.2825317949
 20
55.7207748935
 30
0.0
 11
7.1783004868
 21
-6.9596182974
 31
0.0
 40
0.4429672902
 41
-1.5035143162
 42
-1.4364072218
  0
ELLIPSE
  5
2F4
100
AcDbEntity
  8
0
100
AcDbEllipse
 62
7
  6
BYLAYER
 10
21.2825317949
 20
55.4614299627
 30
0.0
 11
7.4104872802
 21
-7.279395874
 31
0.0
 40
0.3397569986
 41
-1.5870446344
 42
-1.5199375401
  0
ELLIPSE
  5
2F5
100
AcDbEntity
  8
0
100
AcDbEllipse
 62
7
  6
BYLAYER
 10
21.2825317949
 20
55.2546869999
 30
0.0
 11
7.5938540461
 21
-7.5246575103
 31
0.0
 40
0.2438041777
 41
-1.672126334
 42
-1.6050192396
  0
ELLIPSE
  5
2F6
100
AcDbEntity
  8
0
100
AcDbEllipse
 62
7
  6
BYLAYER
 10
21.2825317949
 20
55.1071908941
 30
0.0
 11
7.7232380929
 21
-7.6954506012
 31
0.0
 40
0.1528608948
 41
-1.7580179329
 42
-1.6909108386
  0
ELLIPSE
  5
2F7
100
AcDbEntity
  8
0
100
AcDbEllipse
 62
7
  6
BYLAYER
 10
21.2825317949
 20
55.0236822913
 30
0.0
 11
7.7958900717
 21
-7.7908030039
 31
0.0
 40
0.0649774206
 41
-1.8443231913
 42
-1.777216097
  0
ELLIPSE
  5
2F8
100
AcDbEntity
  8
0
100
AcDbEllipse
 62
7
  6
BYLAYER
 10
16.3498032462
 20
56.5910399932
 30
0.0
 11
6.769687539
 21
4.761806636
 31
0.0
 40
0.8141833296
 41
-1.7863337475
 42
-1.784520737
  0
ELLIPSE
  5
2F9
100
AcDbEntity
  8
0
100
AcDbEllipse
 62
7
  6
BYLAYER
 10
21.2825317949
 20
57.0980392157
 30
0.0
 11
7.8123086895
 21
0.0
 31
0.0
 40
0.963433044
 41
4.3740181323
 42
4.4411252267
  0
ELLIPSE
  5
2FA
100
AcDbEntity
  8
0
100
AcDbEllipse
 62
7
  6
BYLAYER
 10
16.3498032462
 20
56.1003361429
 30
0.0
 11
6.7778954833
 21
5.7498567937
 31
0.0
 40
0.6717760696
 41
-1.7842127228
 42
-1.7639946709
  0
ELLIPSE
  5
2FB
100
AcDbEntity
  8
0
100
AcDbEllipse
 62
7
  6
BYLAYER
 10
16.3498032462
 20
55.6416992903
 30
0.0
 11
6.9892805436
 21
6.3556937277
 31
0.0
 40
0.5452577243
 41
-1.7265371317
 42
-1.6947658549
  0
ELLIPSE
  5
2FC
100
AcDbEntity
  8
0
100
AcDbEllipse
 62
7
  6
BYLAYER
 10
16.3498032462
 20
55.2298704011
 30
0.0
 11
7.2216881888
 21
6.8211355117
 31
0.0
 40
0.4325884012
 41
-1.6541251716
 42
-1.613991356
  0
ELLIPSE
  5
2FD
100
AcDbEntity
  8
0
100
AcDbEllipse
 62
7
  6
BYLAYER
 10
16.3498032462
 20
54.8780859948
 30
0.0
 11
7.4303153681
 21
7.1896323761
 31
0.0
 40
0.3306136582
 41
-1.575847761
 42
-1.5289981995
  0
ELLIPSE
  5
2FE
100
AcDbEntity
  8
0
100
AcDbEllipse
 62
7
  6
BYLAYER
 10
16.3498032462
 20
54.5976527116
 30
0.0
 11
7.5984400747
 21
7.4711827883
 31
0.0
 40
0.2365500347
 41
-1.4947568169
 42
-1.4420471734
  0
ELLIPSE
  5
2FF
100
AcDbEntity
  8
0
100
AcDbEllipse
 62
7
  6
BYLAYER
 10
16.3498032462
 20
54.397583908
 30
0.0
 11
7.7182939033
 21
7.6671333883
 31
0.0
 40
0.1479991431
 41
-1.4122039587
 42
-1.3540188368
  0
ELLIPSE
  5
300
100
AcDbEntity
  8
0
100
AcDbEllipse
 62
7
  6
BYLAYER
 10
16.3498032462
 20
54.2843099599
 30
0.0
 11
7.785942562
 21
7.776570827
 31
0.0
 40
0.0628349518
 41
-1.3289086446
 42
-1.265399183
  0
ELLIPSE
  5
301
100
AcDbEntity
  8
0
100
AcDbEllipse
 62
7
  6
BYLAYER
 10
21.2825317949
 20
59.1388575734
 30
0.0
 11
7.7667659793
 21
7.7526181998
 31
0.0
 40
0.108650535
 41
1.7340296909
 42
1.8011367852
  0
ELLIPSE
  5
302
100
AcDbEntity
  8
0
100
AcDbEllipse
 62
7
  6
BYLAYER
 10
21.2825317949
 20
59.0228883611
 30
0.0
 11
7.6655060057
 21
7.6194188564
 31
0.0
 40
0.1978335621
 41
1.6478933896
 42
1.7150004839
  0
ELLIPSE
  5
303
100
AcDbEntity
  8
0
100
AcDbEllipse
 62
7
  6
BYLAYER
 10
21.2825317949
 20
58.8450529136
 30
0.0
 11
7.508671714
 21
7.4112915527
 31
0.0
 40
0.2910225948
 41
1.5623427433
 42
1.6294498377
  0
ELLIPSE
  5
304
100
AcDbEntity
  8
0
100
AcDbEllipse
 62
7
  6
BYLAYER
 10
21.2825317949
 20
58.6110670083
 30
0.0
 11
7.3000243014
 21
7.128928855
 31
0.0
 40
0.3902986392
 41
1.4779077276
 42
1.545014822
  0
ELLIPSE
  5
305
100
AcDbEntity
  8
0
100
AcDbEllipse
 62
7
  6
BYLAYER
 10
21.2825317949
 20
58.3284511449
 30
0.0
 11
7.0468101624
 21
6.7707526428
 31
0.0
 40
0.4981174544
 41
1.3956754821
 42
1.4627825764
  0
ELLIPSE
  5
306
100
AcDbEntity
  8
0
100
AcDbEllipse
 62
7
  6
BYLAYER
 10
21.2825317949
 20
58.0062888297
 30
0.0
 11
6.7654754064
 21
6.3263364658
 31
0.0
 40
0.6174932746
 41
1.3184146161
 42
1.3855217105
  0
ELLIPSE
  5
307
100
AcDbEntity
  8
0
100
AcDbEllipse
 62
7
  6
BYLAYER
 10
21.2825317949
 20
57.6549346245
 30
0.0
 11
6.5090715451
 21
5.7438845358
 31
0.0
 40
0.7521396115
 41
1.2561000265
 42
1.3232071208
  0
ELLIPSE
  5
308
100
AcDbEntity
  8
0
100
AcDbEllipse
 62
7
  6
BYLAYER
 10
21.2825317949
 20
57.2856813428
 30
0.0
 11
6.6576717293
 21
4.5189586685
 31
0.0
 40
0.9045203251
 41
1.291444969
 42
1.3585520634
  0
ELLIPSE
  5
309
100
AcDbEntity
  8
0
100
AcDbEllipse
 62
7
  6
BYLAYER
 10
21.2825317949
 20
57.8335727689
 30
0.0
 11
6.6270509456
 21
6.0601069723
 31
0.0
 40
0.6826531162
 41
-2.4672285414
 42
-2.4001214471
  0
ELLIPSE
  5
30A
100
AcDbEntity
  8
0
100
AcDbEllipse
 62
7
  6
BYLAYER
 10
21.2825317949
 20
58.1716921985
 30
0.0
 11
6.9078851538
 21
6.5607671043
 31
0.0
 40
0.5561450433
 41
-2.3951186726
 42
-2.3280115783
  0
ELLIPSE
  5
30B
100
AcDbEntity
  8
0
100
AcDbEllipse
 62
7
  6
BYLAYER
 10
21.2825317949
 20
58.4753035379
 30
0.0
 11
7.1783004868
 21
6.9596182974
 31
0.0
 40
0.4429672902
 41
-2.3148200336
 42
-2.2477129392
  0
ELLIPSE
  5
30C
100
AcDbEntity
  8
0
100
AcDbEllipse
 62
7
  6
BYLAYER
 10
21.2825317949
 20
58.7346484687
 30
0.0
 11
7.4104872802
 21
7.279395874
 31
0.0
 40
0.3397569986
 41
-2.2312897153
 42
-2.164182621
  0
ELLIPSE
  5
30D
100
AcDbEntity
  8
0
100
AcDbEllipse
 62
7
  6
BYLAYER
 10
21.2825317949
 20
55.0068452269
 30
0.0
 11
7.8104831204
 21
-7.8099182007
 31
0.0
 40
0.0216237981
 41
1.863678946
 42
1.9307860403
  0
ELLIPSE
  5
30E
100
AcDbEntity
  8
0
100
AcDbEllipse
 62
7
  6
BYLAYER
 10
21.2825317949
 20
55.057220858
 30
0.0
 11
7.7667659793
 21
-7.7526181998
 31
0.0
 40
0.108650535
 41
1.9500904702
 42
2.0171975645
  0
ELLIPSE
  5
30F
100
AcDbEntity
  8
0
100
AcDbEllipse
 62
7
  6
BYLAYER
 10
21.2825317949
 20
55.1731900702
 30
0.0
 11
7.6655060057
 21
-7.6194188564
 31
0.0
 40
0.1978335621
 41
2.0362267715
 42
2.1033338658
  0
ELLIPSE
  5
310
100
AcDbEntity
  8
0
100
AcDbEllipse
 62
7
  6
BYLAYER
 10
21.2825317949
 20
55.3510255178
 30
0.0
 11
7.508671714
 21
-7.4112915527
 31
0.0
 40
0.2910225948
 41
2.1217774177
 42
2.1888845121
  0
ELLIPSE
  5
311
100
AcDbEntity
  8
0
100
AcDbEllipse
 62
7
  6
BYLAYER
 10
21.2825317949
 20
55.585011423
 30
0.0
 11
7.3000243014
 21
-7.128928855
 31
0.0
 40
0.3902986392
 41
2.2062124334
 42
2.2733195278
  0
ELLIPSE
  5
312
100
AcDbEntity
  8
0
100
AcDbEllipse
 62
7
  6
BYLAYER
 10
21.2825317949
 20
55.8676272865
 30
0.0
 11
7.0468101624
 21
-6.7707526428
 31
0.0
 40
0.4981174544
 41
2.288444679
 42
2.3555517733
  0
ELLIPSE
  5
313
100
AcDbEntity
  8
0
100
AcDbEllipse
 62
7
  6
BYLAYER
 10
21.2825317949
 20
56.1897896017
 30
0.0
 11
6.7654754064
 21
-6.3263364658
 31
0.0
 40
0.6174932746
 41
2.3657055449
 42
2.4328126392
  0
ELLIPSE
  5
314
100
AcDbEntity
  8
0
100
AcDbEllipse
 62
7
  6
BYLAYER
 10
21.2825317949
 20
56.5411438068
 30
0.0
 11
6.5090715451
 21
-5.7438845358
 31
0.0
 40
0.7521396115
 41
2.4280201346
 42
2.4951272289
  0
ELLIPSE
  5
315
100
AcDbEntity
  8
0
100
AcDbEllipse
 62
7
  6
BYLAYER
 10
21.2825317949
 20
56.9103970886
 30
0.0
 11
6.6576717293
 21
-4.5189586685
 31
0.0
 40
0.9045203251
 41
2.392675192
 42
2.4597822864
  0
ELLIPSE
  5
316
100
AcDbEntity
  8
0
100
AcDbEllipse
 62
7
  6
BYLAYER
 10
21.2825317949
 20
58.9413914314
 30
0.0
 11
7.5938540461
 21
7.5246575103
 31
0.0
 40
0.2438041777
 41
-2.1462080158
 42
-2.0791009214
  0
ELLIPSE
  5
317
100
AcDbEntity
  8
0
100
AcDbEllipse
 62
7
  6
BYLAYER
 10
21.2825317949
 20
59.0888875373
 30
0.0
 11
7.7232380929
 21
7.6954506012
 31
0.0
 40
0.1528608948
 41
-2.0603164168
 42
-1.9932093225
  0
ELLIPSE
  5
318
100
AcDbEntity
  8
0
100
AcDbEllipse
 62
7
  6
BYLAYER
 10
21.2825317949
 20
59.17239614
 30
0.0
 11
7.7958900717
 21
7.7908030039
 31
0.0
 40
0.0649774206
 41
-1.9740111584
 42
-1.9069040641
  0
ELLIPSE
  5
319
100
AcDbEntity
  8
0
100
AcDbEllipse
 62
7
  6
BYLAYER
 10
21.2825317949
 20
57.4718126858
 30
0.0
 11
6.4571461231
 21
5.3215173093
 31
0.0
 40
0.8263497679
 41
-2.5070398158
 42
-2.4399327214
  0
ENDSEC
  0
SECTION
  2
OBJECTS
  0
DICTIONARY
  5
C
100
AcDbDictionary
280
0
281
1
  3
ACAD_GROUP
350
D
  3
ACAD_MLINESTYLE
350
17
  3
ACAD_LAYOUT
350
1A
  3
ACAD_PLOTSETTINGS
350
19
  3
ACAD_PLOTSTYLENAME
350
E
  0
DICTIONARY
  5
D
102
{ACAD_REACTORS
330
C
102
}
100
AcDbDictionary
280
0
281
1
  0
ACDBDICTIONARYWDFLT
  5
E
102
{ACAD_REACTORS
330
C
102
}
100
AcDbDictionary
281
1
  3
Normal
350
F
100
AcDbDictionaryWithDefault
340
F
  0
DICTIONARY
  5
17
102
{ACAD_REACTORS
330
C
102
}
100
AcDbDictionary
280
0
281
1
  3
Standard
350
18
  0
DICTIONARY
  5
19
102
{ACAD_REACTORS
330
C
102
}
100
AcDbDictionary
281
1
  0
DICTIONARY
  5
1A
102
{ACAD_REACTORS
330
C
102
}
100
AcDbDictionary
281
1
  3
Model
350
31A
  3
Layout1
350
31B
  0
ACDBPLACEHOLDER
  5
F
102
{ACAD_REACTORS
330
E
102
}
  0
MLINESTYLE
  5
18
102
{ACAD_REACTORS
330
17
102
}
100
AcDbMlineStyle
  2
STANDARD
 70
0
  3

 62
256
 51
90.0
 52
90.0
 71
2
 49
0.5
 62
256
  6
BYLAYER
 49
-0.5
 62
256
  6
BYLAYER
  0
LAYOUT
  5
31A
102
{ACAD_REACTORS
330
1A
102
}
100
AcDbPlotSettings
  1

  2
none_device
  4

  6

 40
0.0
 41
0.0
 42
0.0
 43
0.0
 44
210.0
 45
297.0
 46
0.0
 47
0.0
 48
0.0
 49
0.0
140
0.0
141
0.0
142
1.0
143
1.0
 70
1024
 72
1
 73
0
 74
0
  7

 75
0
147
1.0
148
0.0
149
0.0
100
AcDbLayout
  1
Model
 70
0
 71
0
 10
0.0
 20
0.0
 11
210.0
 21
297.0
 12
0.0
 22
0.0
 32
0.0
 14
0.0
 24
0.0
 34
0.0
 15
0.0
 25
0.0
 35
0.0
146
0.0
 13
0.0
 23
0.0
 33
0.0
 16
1.0
 26
0.0
 36
0.0
 17
0.0
 27
1.0
 37
0.0
 76
0
330
210
345
0
346
0
  0
LAYOUT
  5
31B
102
{ACAD_REACTORS
330
1A
102
}
100
AcDbPlotSettings
  1

  2
none_device
  4

  6

 40
0.0
 41
0.0
 42
0.0
 43
0.0
 44
210.0
 45
297.0
 46
0.0
 47
0.0
 48
0.0
 49
0.0
140
0.0
141
0.0
142
1.0
143
1.0
 70
0
 72
1
 73
0
 74
0
  7

 75
0
147
1.0
148
0.0
149
0.0
100
AcDbLayout
  1
Layout1
 70
0
 71
1
 10
0.0
 20
0.0
 11
210.0
 21
297.0
 12
0.0
 22
0.0
 32
0.0
 14
0.0
 24
0.0
 34
0.0
 15
0.0
 25
0.0
 35
0.0
146
0.0
 13
0.0
 23
0.0
 33
0.0
 16
1.0
 26
0.0
 36
0.0
 17
0.0
 27
1.0
 37
0.0
 76
0
330
211
345
0
346
0
  0
ENDSEC
  0
EOF
