999
DXF file: C:\Users\sesa63760\Dev\_Creo\CAD\MCADID0004122_3D-CAD\drw0001_2.dxf
999
Pro/ENGINEER 2019471 by Parametric Technology Corporation
  0
SECTION
  2
HEADER
  9
$ACADVER
  1
AC1024
  9
$DWGCODEPAGE
  3
ANSI_1252
  9
$EXTMAX
 10
94.7774566078
 20
134.0424029168
 30
0.0
  9
$EXTMIN
 10
0.0
 20
0.0
 30
0.0
  9
$LIMMIN
 10
0.0
 20
0.0
  9
$LIMMAX
 10
94.7774566078
 20
134.0424029168
  9
$VIEWCTR
 10
47.3887283039
 20
67.0212014584
  9
$VIEWSIZE
 40
134.0424029168
  9
$CLAYER
  8
0
  9
$LTSCALE
 40
8.7375788568
  9
$CELTYPE
  6
BYLAYER
  9
$DIMSCALE
 40
1.0
  9
$DIMASZ
 40
1.1283030549
  9
$DIMEXO
 40
1.0
  9
$DIMDLI
 40
6.0368726647
  9
$DIMEXE
 40
1.0
  9
$DIMCEN
 40
1.4297856311
  9
$DIMLFAC
 40
1.0
  9
$DIMBLK
  1
_FILLED
  9
$DIMALT
 70
0
  9
$DIMALTF
 40
0.0393700787
  9
$DIMTXT
 40
1.5796242768
  9
$DIMTOL
 70
1
  9
$DIMLIM
 70
0
  9
$DIMTFAC
 40
1.0
  9
$DIMTP
 40
0.01
  9
$DIMTM
 40
0.01
  9
$DIMGAP
 40
0.625
  9
$DIMDSEP
 70
46
  9
$AUNITS
 70
0
  9
$PDMODE
 70
3
  9
$PDSIZE
 40
0.3125
  9
$HANDSEED
  5
2A0
  9
$TILEMODE
 70
1
  9
$MEASUREMENT
 70
1
  9
$INSUNITS
 70
4
  0
ENDSEC
  0
SECTION
  2
CLASSES
  0
CLASS
  1
ACDBDICTIONARYWDFLT
  2
AcDbDictionaryWithDefault
  3
AutoCAD 2000
 90
0
 91
1
280
0
281
0
  0
CLASS
  1
ACDBPLACEHOLDER
  2
AcDbPlaceHolder
  3
AutoCAD 2000
 90
0
 91
1
280
0
281
0
  0
CLASS
  1
LAYOUT
  2
AcDbLayout
  3
AutoCAD 2000
 90
0
 91
0
280
0
281
0
  0
ENDSEC
  0
SECTION
  2
TABLES
  0
TABLE
  2
VPORT
  5
8
100
AcDbSymbolTable
 70
2
  0
VPORT
  5
1F4
100
AcDbSymbolTableRecord
100
AcDbViewportTableRecord
  2
*ACTIVE
 70
0
 10
0.0
 20
0.0
 11
1.0
 21
1.0
 12
47.3887283039
 22
67.0212014584
 13
0.0
 23
0.0
 14
1.0
 24
1.0
 15
0.0
 25
0.0
 16
0.0
 26
0.0
 36
1.0
 17
0.0
 27
0.0
 37
0.0
 40
134.0424029168
 41
0.7070707071
 42
50.0
 43
0.0
 44
0.0
 50
0.0
 51
0.0
 71
0
 72
100
 73
1
 74
1
 75
0
 76
0
 77
0
 78
0
  0
ENDTAB
  0
TABLE
  2
LTYPE
  5
5
100
AcDbSymbolTable
 70
6
  0
LTYPE
  5
14
100
AcDbSymbolTableRecord
100
AcDbLinetypeTableRecord
  2
BYBLOCK
 70
0
  3

 72
65
 73
0
 40
0.0
  0
LTYPE
  5
15
100
AcDbSymbolTableRecord
100
AcDbLinetypeTableRecord
  2
BYLAYER
 70
0
  3

 72
65
 73
0
 40
0.0
  0
LTYPE
  5
16
100
AcDbSymbolTableRecord
100
AcDbLinetypeTableRecord
  2
CONTINUOUS
 70
64
  3
Solid line
 72
65
 73
0
 40
0.0
  0
LTYPE
  5
1F5
100
AcDbSymbolTableRecord
100
AcDbLinetypeTableRecord
  2
CENTER
 70
64
  3
____ _ ____ _ ____ _ ____ _ ____ _ ____ _ ____
 72
65
 73
4
 40
0.6
 49
0.375
 74
0
 49
-0.075
 74
0
 49
0.075
 74
0
 49
-0.075
 74
0
  0
LTYPE
  5
1F6
100
AcDbSymbolTableRecord
100
AcDbLinetypeTableRecord
  2
HIDDEN
 70
64
  3
- - - - - - - - - - - - - - - - - - - -
 72
65
 73
2
 40
0.2
 49
0.1
 74
0
 49
-0.1
 74
0
  0
LTYPE
  5
1F7
100
AcDbSymbolTableRecord
100
AcDbLinetypeTableRecord
  2
PHANTOM
 70
64
  3
_____ _ _ _____ _ _ _____ _ _ _____
 72
65
 73
6
 40
0.8
 49
0.45
 74
0
 49
-0.05
 74
0
 49
0.1
 74
0
 49
-0.05
 74
0
 49
0.1
 74
0
 49
-0.05
 74
0
  0
LTYPE
  5
1F8
100
AcDbSymbolTableRecord
100
AcDbLinetypeTableRecord
  2
DOT
 70
64
  3
. . . . . . . . . . . . . . . . . . . .
 72
65
 73
2
 40
0.2
 49
0.1
 74
0
 49
-0.1
 74
0
  0
LTYPE
  5
1F9
100
AcDbSymbolTableRecord
100
AcDbLinetypeTableRecord
  2
DASHED
 70
64
  3
- - - - - - - - - - - - - - - - - - - -
 72
65
 73
2
 40
0.2
 49
0.1
 74
0
 49
-0.1
 74
0
  0
ENDTAB
  0
TABLE
  2
LAYER
  5
2
100
AcDbSymbolTable
 70
36
  0
LAYER
  5
10
100
AcDbSymbolTableRecord
100
AcDbLayerTableRecord
  2
0
 70
0
 62
7
  6
CONTINUOUS
370
-3
390
F
  0
LAYER
  5
1FA
100
AcDbSymbolTableRecord
100
AcDbLayerTableRecord
  2
DEFAULT_1
 70
0
 62
7
  6
CENTER
370
-3
390
F
  0
LAYER
  5
1FB
100
AcDbSymbolTableRecord
100
AcDbLayerTableRecord
  2
DEFAULT_2
 70
0
 62
7
  6
HIDDEN
370
-3
390
F
  0
LAYER
  5
1FC
100
AcDbSymbolTableRecord
100
AcDbLayerTableRecord
  2
DEFAULT_3
 70
0
 62
7
  6
PHANTOM
370
-3
390
F
  0
LAYER
  5
1FD
100
AcDbSymbolTableRecord
100
AcDbLayerTableRecord
  2
00_COMPONENTS
 70
0
 62
7
  6
CONTINUOUS
370
-3
390
F
  0
LAYER
  5
1FE
100
AcDbSymbolTableRecord
100
AcDbLayerTableRecord
  2
01_1_DEFAULT_DATUMS
 70
0
 62
7
  6
CONTINUOUS
370
-3
390
F
  0
LAYER
  5
1FF
100
AcDbSymbolTableRecord
100
AcDbLayerTableRecord
  2
01_PLANES
 70
0
 62
7
  6
CONTINUOUS
370
-3
390
F
  0
LAYER
  5
200
100
AcDbSymbolTableRecord
100
AcDbLayerTableRecord
  2
02_COORD_SYS
 70
0
 62
7
  6
CONTINUOUS
370
-3
390
F
  0
LAYER
  5
201
100
AcDbSymbolTableRecord
100
AcDbLayerTableRecord
  2
03_AXES
 70
0
 62
7
  6
CONTINUOUS
370
-3
390
F
  0
LAYER
  5
202
100
AcDbSymbolTableRecord
100
AcDbLayerTableRecord
  2
04_POINTS
 70
0
 62
7
  6
CONTINUOUS
370
-3
390
F
  0
LAYER
  5
203
100
AcDbSymbolTableRecord
100
AcDbLayerTableRecord
  2
05_CURVES
 70
0
 62
7
  6
CONTINUOUS
370
-3
390
F
  0
LAYER
  5
204
100
AcDbSymbolTableRecord
100
AcDbLayerTableRecord
  2
06_SURFS
 70
0
 62
7
  6
CONTINUOUS
370
-3
390
F
  0
LAYER
  5
205
100
AcDbSymbolTableRecord
100
AcDbLayerTableRecord
  2
07_COSMETICS
 70
0
 62
7
  6
CONTINUOUS
370
-3
390
F
  0
LAYER
  5
206
100
AcDbSymbolTableRecord
100
AcDbLayerTableRecord
  2
10_NOTES
 70
0
 62
7
  6
CONTINUOUS
370
-3
390
F
  0
LAYER
  5
207
100
AcDbSymbolTableRecord
100
AcDbLayerTableRecord
  2
11_NOTES_PUB
 70
0
 62
7
  6
CONTINUOUS
370
-3
390
F
  0
LAYER
  5
208
100
AcDbSymbolTableRecord
100
AcDbLayerTableRecord
  2
13_REF_GTOL
 70
0
 62
7
  6
CONTINUOUS
370
-3
390
F
  0
LAYER
  5
209
100
AcDbSymbolTableRecord
100
AcDbLayerTableRecord
  2
16_MISC
 70
0
 62
7
  6
CONTINUOUS
370
-3
390
F
  0
LAYER
  5
20A
100
AcDbSymbolTableRecord
100
AcDbLayerTableRecord
  2
17_NO_PRINT
 70
0
 62
7
  6
CONTINUOUS
370
-3
390
F
  0
LAYER
  5
20B
100
AcDbSymbolTableRecord
100
AcDbLayerTableRecord
  2
18_DATUM_CAMS_JOINTS
 70
0
 62
7
  6
CONTINUOUS
370
-3
390
F
  0
LAYER
  5
20C
100
AcDbSymbolTableRecord
100
AcDbLayerTableRecord
  2
19_DATUM_FUNCTIONAL
 70
0
 62
7
  6
CONTINUOUS
370
-3
390
F
  0
LAYER
  5
20D
100
AcDbSymbolTableRecord
100
AcDbLayerTableRecord
  2
20_DATUM_KINEMATIC_SCHEME
 70
0
 62
7
  6
CONTINUOUS
370
-3
390
F
  0
ENDTAB
  0
TABLE
  2
STYLE
  5
3
100
AcDbSymbolTable
 70
1
  0
STYLE
  5
11
100
AcDbSymbolTableRecord
100
AcDbTextStyleTableRecord
  2
STANDARD
 70
0
 40
0.0
 41
1.0
 50
0.0
 71
0
 42
0.2
  3
ARIAL.TTF
  4

  0
STYLE
  5
20E
100
AcDbSymbolTableRecord
100
AcDbTextStyleTableRecord
  2
TEXTSTYLE_1
 70
0
 40
0.0
 41
0.8
 50
0.0
 71
0
 42
0.2
  3
gdt
  4

  0
ENDTAB
  0
TABLE
  2
VIEW
  5
6
100
AcDbSymbolTable
 70
0
  0
ENDTAB
  0
TABLE
  2
UCS
  5
7
100
AcDbSymbolTable
 70
0
  0
ENDTAB
  0
TABLE
  2
APPID
  5
9
100
AcDbSymbolTable
 70
1
  0
APPID
  5
20F
100
AcDbSymbolTableRecord
100
AcDbRegAppTableRecord
  2
ACAD
 70
0
  0
ENDTAB
  0
TABLE
  2
BLOCK_RECORD
  5
1
100
AcDbSymbolTable
 70
0
  0
BLOCK_RECORD
  5
210
100
AcDbSymbolTableRecord
100
AcDbBlockTableRecord
  2
*Model_Space
  0
BLOCK_RECORD
  5
211
100
AcDbSymbolTableRecord
100
AcDbBlockTableRecord
  2
*Paper_Space
  0
BLOCK_RECORD
  5
212
100
AcDbSymbolTableRecord
100
AcDbBlockTableRecord
  2
_FILLED
  0
ENDTAB
  0
TABLE
  2
DIMSTYLE
  5
A
100
AcDbSymbolTable
 70
1
100
AcDbDimStyleTable
 71
0
  0
DIMSTYLE
105
213
100
AcDbSymbolTableRecord
100
AcDbDimStyleTableRecord
  2
STANDARD
 70
0
  3

  4

 40
1.0
 41
1.1283030549
 42
1.0
 43
0.38
 44
1.0
 45
0.0
 46
0.0
 47
0.01
 48
0.01
140
1.5796242768
141
0.09
142
0.0
143
25.4
144
1.0
145
0.0
146
1.0
147
0.625
 71
1
 72
0
 73
0
 74
0
 75
0
 76
0
 77
1
 78
8
 79
2
170
0
171
1
172
0
173
0
174
0
175
0
176
0
177
0
178
0
270
2
179
2
271
2
272
2
273
2
274
2
275
0
280
0
281
0
282
0
283
1
284
8
285
0
286
0
287
3
288
0
340
11
278
46
341
212
342
212
343
212
344
212
  0
ENDTAB
  0
ENDSEC
  0
SECTION
  2
BLOCKS
  0
BLOCK
  5
20
100
AcDbEntity
  8
0
100
AcDbBlockBegin
  2
*Model_Space
 70
0
 10
0.0
 20
0.0
 30
0.0
  3
*Model_Space
  1

  0
ENDBLK
  5
21
100
AcDbEntity
  8
0
100
AcDbBlockEnd
  0
BLOCK
  5
1C
100
AcDbEntity
  8
0
100
AcDbBlockBegin
  2
*Paper_Space
 70
0
 10
0.0
 20
0.0
 30
0.0
  3
*Paper_Space
  1

  0
ENDBLK
  5
1D
100
AcDbEntity
  8
0
100
AcDbBlockEnd
  0
BLOCK
  5
214
100
AcDbEntity
  8
0
100
AcDbBlockBegin
  2
_FILLED
 70
64
 10
0.0
 20
0.0
  3
_FILLED
  1

  0
SOLID
  5
215
100
AcDbEntity
  8
0
  6
BYBLOCK
 62
0
100
AcDbTrace
 10
0.0
 20
0.0
 11
-1.0
 21
0.25
 12
-1.0
 22
-0.25
 13
-1.0
 23
-0.25
  0
ENDBLK
  5
216
100
AcDbEntity
  8
0
  6
BYBLOCK
 62
0
100
AcDbBlockEnd
  0
ENDSEC
  0
SECTION
  2
ENTITIES
  0
LINE
  5
217
100
AcDbEntity
  8
0
100
AcDbLine
 62
7
  6
BYLAYER
 10
10.3917189235
 20
60.5751015754
 11
10.3917125662
 21
74.1251155613
  0
LINE
  5
218
100
AcDbEntity
  8
0
100
AcDbLine
 62
7
  6
BYLAYER
 10
11.390391306
 20
60.5751015754
 11
11.3868342454
 21
75.1202308831
  0
LINE
  5
219
100
AcDbEntity
  8
0
100
AcDbLine
 62
7
  6
BYLAYER
 10
24.7717189235
 20
58.4299722677
 11
24.7717189235
 21
60.5751015754
  0
LINE
  5
21A
100
AcDbEntity
  8
0
100
AcDbLine
 62
7
  6
BYLAYER
 10
27.2705680318
 20
75.1202308831
 11
27.2705680318
 21
58.4299722677
  0
LINE
  5
21B
100
AcDbEntity
  8
0
100
AcDbLine
 62
7
  6
BYLAYER
 10
27.4720169673
 20
58.4299722677
 11
27.4720169673
 21
75.1202308831
  0
LINE
  5
21C
100
AcDbEntity
  8
0
100
AcDbLine
 62
7
  6
BYLAYER
 10
28.4706893498
 20
58.3271047262
 11
28.4706893498
 21
75.2230984247
  0
LINE
  5
21D
100
AcDbEntity
  8
0
100
AcDbLine
 62
7
  6
BYLAYER
 10
29.0707500088
 20
57.7270440672
 11
29.0707500088
 21
75.8231590837
  0
LINE
  5
21E
100
AcDbEntity
  8
0
100
AcDbLine
 62
7
  6
BYLAYER
 10
29.0707500088
 20
75.8231590837
 11
28.4706893498
 21
75.2230984247
  0
LINE
  5
21F
100
AcDbEntity
  8
0
100
AcDbLine
 62
7
  6
BYLAYER
 10
28.4706893498
 20
58.3271047262
 11
29.0707500088
 21
57.7270440672
  0
LINE
  5
220
100
AcDbEntity
  8
0
100
AcDbLine
 62
7
  6
BYLAYER
 10
36.5917189235
 20
78.7801015754
 11
37.454857576
 21
80.2751015754
  0
LINE
  5
221
100
AcDbEntity
  8
0
100
AcDbLine
 62
7
  6
BYLAYER
 10
37.454857576
 20
53.2751015754
 11
36.5917189235
 21
54.7701015754
  0
LINE
  5
222
100
AcDbEntity
  8
0
100
AcDbLine
 62
7
  6
BYLAYER
 10
38.7285802711
 20
53.2751015754
 11
37.454857576
 21
53.2751015754
  0
LINE
  5
223
100
AcDbEntity
  8
0
100
AcDbLine
 62
7
  6
BYLAYER
 10
47.454857576
 20
53.2751015754
 11
48.7285802711
 21
53.2751015754
  0
LINE
  5
224
100
AcDbEntity
  8
0
100
AcDbLine
 62
7
  6
BYLAYER
 10
48.7285802711
 20
53.2909929189
 11
47.454857576
 21
53.2909929189
  0
LINE
  5
225
100
AcDbEntity
  8
0
100
AcDbLine
 62
7
  6
BYLAYER
 10
38.7285802711
 20
53.2909929189
 11
37.454857576
 21
53.2909929189
  0
LINE
  5
226
100
AcDbEntity
  8
0
100
AcDbLine
 62
7
  6
BYLAYER
 10
36.5917189235
 20
54.7701015754
 11
36.5917189235
 21
78.7801015754
  0
LINE
  5
227
100
AcDbEntity
  8
0
100
AcDbLine
 62
7
  6
BYLAYER
 10
37.454857576
 20
53.2751015754
 11
37.454857576
 21
53.2909929189
  0
LINE
  5
228
100
AcDbEntity
  8
0
100
AcDbLine
 62
7
  6
BYLAYER
 10
37.454857576
 20
59.4659402871
 11
37.454857576
 21
60.6001542072
  0
LINE
  5
229
100
AcDbEntity
  8
0
100
AcDbLine
 62
7
  6
BYLAYER
 10
37.454857576
 20
72.9500489436
 11
37.454857576
 21
74.0842628638
  0
LINE
  5
22A
100
AcDbEntity
  8
0
100
AcDbLine
 62
7
  6
BYLAYER
 10
37.454857576
 20
80.259210232
 11
37.454857576
 21
80.2751015754
  0
LINE
  5
22B
100
AcDbEntity
  8
0
100
AcDbLine
 62
7
  6
BYLAYER
 10
45.8930768706
 20
77.8239373039
 11
46.5917189235
 21
78.0755296287
  0
LINE
  5
22C
100
AcDbEntity
  8
0
100
AcDbLine
 62
7
  6
BYLAYER
 10
46.5917189235
 20
55.4746735222
 11
45.8930768706
 21
55.726265847
  0
LINE
  5
22D
100
AcDbEntity
  8
0
100
AcDbLine
 62
7
  6
BYLAYER
 10
38.7285802711
 20
80.2751015754
 11
38.7285802711
 21
80.259210232
  0
LINE
  5
22E
100
AcDbEntity
  8
0
100
AcDbLine
 62
7
  6
BYLAYER
 10
38.7285802711
 20
74.0842628638
 11
38.7285802711
 21
72.9500489436
  0
LINE
  5
22F
100
AcDbEntity
  8
0
100
AcDbLine
 62
7
  6
BYLAYER
 10
38.7285802711
 20
60.6001542072
 11
38.7285802711
 21
59.4659402871
  0
LINE
  5
230
100
AcDbEntity
  8
0
100
AcDbLine
 62
7
  6
BYLAYER
 10
38.7285802711
 20
53.2909929189
 11
38.7285802711
 21
53.2751015754
  0
LINE
  5
231
100
AcDbEntity
  8
0
100
AcDbLine
 62
7
  6
BYLAYER
 10
39.5917189235
 20
78.7801015754
 11
39.5917189235
 21
54.7701015754
  0
LINE
  5
232
100
AcDbEntity
  8
0
100
AcDbLine
 62
7
  6
BYLAYER
 10
40.2903609765
 20
77.8239373039
 11
40.2903609765
 21
55.726265847
  0
LINE
  5
233
100
AcDbEntity
  8
0
100
AcDbLine
 62
7
  6
BYLAYER
 10
63.1101064713
 20
58.4771198909
 11
73.4828013724
 21
59.8311243173
  0
LINE
  5
234
100
AcDbEntity
  8
0
100
AcDbLine
 62
7
  6
BYLAYER
 10
29.0707500088
 20
57.7270440672
 11
36.5917189235
 21
57.7270440672
  0
LINE
  5
235
100
AcDbEntity
  8
0
100
AcDbLine
 62
7
  6
BYLAYER
 10
40.2903609765
 20
57.7270440672
 11
45.8930768706
 21
57.7270440672
  0
LINE
  5
236
100
AcDbEntity
  8
0
100
AcDbLine
 62
7
  6
BYLAYER
 10
49.5917189235
 20
57.7270440672
 11
55.150477533
 21
57.7270440672
  0
LINE
  5
237
100
AcDbEntity
  8
0
100
AcDbLine
 62
7
  6
BYLAYER
 10
24.7717189235
 20
58.4299722677
 11
27.2705680318
 21
58.4299722677
  0
LINE
  5
238
100
AcDbEntity
  8
0
100
AcDbLine
 62
7
  6
BYLAYER
 10
27.4720169673
 20
58.4299722677
 11
28.4706893498
 21
58.4299722677
  0
LINE
  5
239
100
AcDbEntity
  8
0
100
AcDbLine
 62
7
  6
BYLAYER
 10
55.9005533567
 20
58.4771198909
 11
61.8895876516
 21
58.4771198909
  0
LINE
  5
23A
100
AcDbEntity
  8
0
100
AcDbLine
 62
7
  6
BYLAYER
 10
62.1896179811
 20
58.4771198909
 11
63.1101064713
 21
58.4771198909
  0
LINE
  5
23B
100
AcDbEntity
  8
0
100
AcDbLine
 62
7
  6
BYLAYER
 10
27.2705680318
 20
58.5299722677
 11
27.4720169673
 21
58.5299722677
  0
LINE
  5
23C
100
AcDbEntity
  8
0
100
AcDbLine
 62
7
  6
BYLAYER
 10
47.454857576
 20
80.2751015754
 11
46.5917189235
 21
78.7801015754
  0
LINE
  5
23D
100
AcDbEntity
  8
0
100
AcDbLine
 62
7
  6
BYLAYER
 10
61.8895876516
 20
59.2786294855
 11
62.1896179811
 21
59.2786294855
  0
LINE
  5
23E
100
AcDbEntity
  8
0
100
AcDbLine
 62
7
  6
BYLAYER
 10
37.454857576
 20
59.4659402871
 11
38.7285802711
 21
59.4659402871
  0
LINE
  5
23F
100
AcDbEntity
  8
0
100
AcDbLine
 62
7
  6
BYLAYER
 10
47.454857576
 20
59.4659402871
 11
48.7285802711
 21
59.4659402871
  0
LINE
  5
240
100
AcDbEntity
  8
0
100
AcDbLine
 62
7
  6
BYLAYER
 10
73.4828013724
 20
59.8311243173
 11
75.8067583704
 21
59.8311243173
  0
LINE
  5
241
100
AcDbEntity
  8
0
100
AcDbLine
 62
7
  6
BYLAYER
 10
75.8067583704
 20
59.878781133
 11
76.048200927
 21
59.878781133
  0
LINE
  5
242
100
AcDbEntity
  8
0
100
AcDbLine
 62
7
  6
BYLAYER
 10
76.7982767508
 20
59.878781133
 11
84.446721662
 21
59.878781133
  0
LINE
  5
243
100
AcDbEntity
  8
0
100
AcDbLine
 62
7
  6
BYLAYER
 10
10.3917189235
 20
60.5751015754
 11
24.7717189235
 21
60.5751015754
  0
LINE
  5
244
100
AcDbEntity
  8
0
100
AcDbLine
 62
7
  6
BYLAYER
 10
48.7285802711
 20
60.6001542072
 11
47.454857576
 21
60.6001542072
  0
LINE
  5
245
100
AcDbEntity
  8
0
100
AcDbLine
 62
7
  6
BYLAYER
 10
38.7285802711
 20
60.6001542072
 11
37.454857576
 21
60.6001542072
  0
LINE
  5
246
100
AcDbEntity
  8
0
100
AcDbLine
 62
7
  6
BYLAYER
 10
85.1967974857
 20
60.6288569567
 11
85.5954092092
 21
60.6288569567
  0
LINE
  5
247
100
AcDbEntity
  8
0
100
AcDbLine
 62
7
  6
BYLAYER
 10
46.5917189235
 20
54.7701015754
 11
47.454857576
 21
53.2751015754
  0
LINE
  5
248
100
AcDbEntity
  8
0
100
AcDbLine
 62
7
  6
BYLAYER
 10
45.8930768706
 20
55.726265847
 11
45.8930768706
 21
77.8239373039
  0
LINE
  5
249
100
AcDbEntity
  8
0
100
AcDbLine
 62
7
  6
BYLAYER
 10
46.5917189235
 20
54.7701015754
 11
46.5917189235
 21
78.7801015754
  0
LINE
  5
24A
100
AcDbEntity
  8
0
100
AcDbLine
 62
7
  6
BYLAYER
 10
47.454857576
 20
53.2751015754
 11
47.454857576
 21
53.2909929189
  0
LINE
  5
24B
100
AcDbEntity
  8
0
100
AcDbLine
 62
7
  6
BYLAYER
 10
47.454857576
 20
59.4659402871
 11
47.454857576
 21
60.6001542072
  0
LINE
  5
24C
100
AcDbEntity
  8
0
100
AcDbLine
 62
7
  6
BYLAYER
 10
47.454857576
 20
72.9500489436
 11
47.454857576
 21
74.0842628638
  0
LINE
  5
24D
100
AcDbEntity
  8
0
100
AcDbLine
 62
7
  6
BYLAYER
 10
47.454857576
 20
80.259210232
 11
47.454857576
 21
80.2751015754
  0
LINE
  5
24E
100
AcDbEntity
  8
0
100
AcDbLine
 62
7
  6
BYLAYER
 10
39.5917189235
 20
54.7701015754
 11
38.7285802711
 21
53.2751015754
  0
LINE
  5
24F
100
AcDbEntity
  8
0
100
AcDbLine
 62
7
  6
BYLAYER
 10
38.7285802711
 20
80.2751015754
 11
39.5917189235
 21
78.7801015754
  0
LINE
  5
250
100
AcDbEntity
  8
0
100
AcDbLine
 62
7
  6
BYLAYER
 10
48.7285802711
 20
80.2751015754
 11
48.7285802711
 21
80.259210232
  0
LINE
  5
251
100
AcDbEntity
  8
0
100
AcDbLine
 62
7
  6
BYLAYER
 10
48.7285802711
 20
74.0842628638
 11
48.7285802711
 21
72.9500489436
  0
LINE
  5
252
100
AcDbEntity
  8
0
100
AcDbLine
 62
7
  6
BYLAYER
 10
48.7285802711
 20
60.6001542072
 11
48.7285802711
 21
59.4659402871
  0
LINE
  5
253
100
AcDbEntity
  8
0
100
AcDbLine
 62
7
  6
BYLAYER
 10
48.7285802711
 20
53.2909929189
 11
48.7285802711
 21
53.2751015754
  0
LINE
  5
254
100
AcDbEntity
  8
0
100
AcDbLine
 62
7
  6
BYLAYER
 10
49.5917189235
 20
78.7801015754
 11
49.5917189235
 21
54.7701015754
  0
LINE
  5
255
100
AcDbEntity
  8
0
100
AcDbLine
 62
7
  6
BYLAYER
 10
85.5954092092
 20
71.1213461941
 11
85.1967974857
 21
71.1213461941
  0
LINE
  5
256
100
AcDbEntity
  8
0
100
AcDbLine
 62
7
  6
BYLAYER
 10
84.446721662
 20
71.8714220179
 11
76.7982767508
 21
71.8714220179
  0
LINE
  5
257
100
AcDbEntity
  8
0
100
AcDbLine
 62
7
  6
BYLAYER
 10
76.048200927
 20
71.8714220179
 11
75.8067583704
 21
71.8714220179
  0
LINE
  5
258
100
AcDbEntity
  8
0
100
AcDbLine
 62
7
  6
BYLAYER
 10
55.150477533
 20
75.8231590837
 11
55.150477533
 21
57.7270440672
  0
LINE
  5
259
100
AcDbEntity
  8
0
100
AcDbLine
 62
7
  6
BYLAYER
 10
55.9005533567
 20
58.4771198909
 11
55.9005533567
 21
75.0730832599
  0
LINE
  5
25A
100
AcDbEntity
  8
0
100
AcDbLine
 62
7
  6
BYLAYER
 10
48.7285802711
 20
53.2751015754
 11
49.5917189235
 21
54.7701015754
  0
LINE
  5
25B
100
AcDbEntity
  8
0
100
AcDbLine
 62
7
  6
BYLAYER
 10
39.5917189235
 20
55.4746735222
 11
40.2903609765
 21
55.726265847
  0
LINE
  5
25C
100
AcDbEntity
  8
0
100
AcDbLine
 62
7
  6
BYLAYER
 10
37.454857576
 20
72.9500489436
 11
38.7285802711
 21
72.9500489436
  0
LINE
  5
25D
100
AcDbEntity
  8
0
100
AcDbLine
 62
7
  6
BYLAYER
 10
47.454857576
 20
72.9500489436
 11
48.7285802711
 21
72.9500489436
  0
LINE
  5
25E
100
AcDbEntity
  8
0
100
AcDbLine
 62
7
  6
BYLAYER
 10
48.7285802711
 20
74.0842628638
 11
47.454857576
 21
74.0842628638
  0
LINE
  5
25F
100
AcDbEntity
  8
0
100
AcDbLine
 62
7
  6
BYLAYER
 10
38.7285802711
 20
74.0842628638
 11
37.454857576
 21
74.0842628638
  0
LINE
  5
260
100
AcDbEntity
  8
0
100
AcDbLine
 62
7
  6
BYLAYER
 10
62.1896179811
 20
74.2715736654
 11
61.8895876516
 21
74.2715736654
  0
LINE
  5
261
100
AcDbEntity
  8
0
100
AcDbLine
 62
7
  6
BYLAYER
 10
27.4720169673
 20
75.0202308831
 11
27.2705680318
 21
75.0202308831
  0
LINE
  5
262
100
AcDbEntity
  8
0
100
AcDbLine
 62
7
  6
BYLAYER
 10
63.1101064713
 20
75.0730832599
 11
62.1896179811
 21
75.0730832599
  0
LINE
  5
263
100
AcDbEntity
  8
0
100
AcDbLine
 62
7
  6
BYLAYER
 10
61.8895876516
 20
75.0730832599
 11
55.9005533567
 21
75.0730832599
  0
LINE
  5
264
100
AcDbEntity
  8
0
100
AcDbLine
 62
7
  6
BYLAYER
 10
28.4706893498
 20
75.1202308831
 11
27.4720169673
 21
75.1202308831
  0
LINE
  5
265
100
AcDbEntity
  8
0
100
AcDbLine
 62
7
  6
BYLAYER
 10
27.2705680318
 20
75.1202308831
 11
11.3868342454
 21
75.1202308831
  0
LINE
  5
266
100
AcDbEntity
  8
0
100
AcDbLine
 62
7
  6
BYLAYER
 10
40.2903609765
 20
77.8239373039
 11
39.5917189235
 21
78.0755296287
  0
LINE
  5
267
100
AcDbEntity
  8
0
100
AcDbLine
 62
7
  6
BYLAYER
 10
49.5917189235
 20
78.7801015754
 11
48.7285802711
 21
80.2751015754
  0
LINE
  5
268
100
AcDbEntity
  8
0
100
AcDbLine
 62
7
  6
BYLAYER
 10
55.150477533
 20
75.8231590837
 11
49.5917189235
 21
75.8231590837
  0
LINE
  5
269
100
AcDbEntity
  8
0
100
AcDbLine
 62
7
  6
BYLAYER
 10
45.8930768706
 20
75.8231590837
 11
40.2903609765
 21
75.8231590837
  0
LINE
  5
26A
100
AcDbEntity
  8
0
100
AcDbLine
 62
7
  6
BYLAYER
 10
36.5917189235
 20
75.8231590837
 11
29.0707500088
 21
75.8231590837
  0
LINE
  5
26B
100
AcDbEntity
  8
0
100
AcDbLine
 62
7
  6
BYLAYER
 10
63.4173183678
 20
75.0329812159
 11
63.1101064713
 21
75.0730832599
  0
LINE
  5
26C
100
AcDbEntity
  8
0
100
AcDbLine
 62
7
  6
BYLAYER
 10
69.5172014571
 20
72.7800853015
 11
75.8067583704
 21
71.8955499141
  0
LINE
  5
26D
100
AcDbEntity
  8
0
100
AcDbLine
 62
7
  6
BYLAYER
 10
55.150477533
 20
57.7270440672
 11
55.9005533567
 21
58.4771198909
  0
LINE
  5
26E
100
AcDbEntity
  8
0
100
AcDbLine
 62
7
  6
BYLAYER
 10
37.454857576
 20
80.259210232
 11
38.7285802711
 21
80.259210232
  0
LINE
  5
26F
100
AcDbEntity
  8
0
100
AcDbLine
 62
7
  6
BYLAYER
 10
47.454857576
 20
80.259210232
 11
48.7285802711
 21
80.259210232
  0
LINE
  5
270
100
AcDbEntity
  8
0
100
AcDbLine
 62
7
  6
BYLAYER
 10
48.7285802711
 20
80.2751015754
 11
47.454857576
 21
80.2751015754
  0
LINE
  5
271
100
AcDbEntity
  8
0
100
AcDbLine
 62
7
  6
BYLAYER
 10
37.454857576
 20
80.2751015754
 11
38.7285802711
 21
80.2751015754
  0
LINE
  5
272
100
AcDbEntity
  8
0
100
AcDbLine
 62
7
  6
BYLAYER
 10
69.5172014571
 20
72.7800853015
 11
63.4173183678
 21
75.0329812159
  0
LINE
  5
273
100
AcDbEntity
  8
0
100
AcDbLine
 62
7
  6
BYLAYER
 10
55.9005533567
 20
75.0730832599
 11
55.150477533
 21
75.8231590837
  0
LINE
  5
274
100
AcDbEntity
  8
0
100
AcDbLine
 62
7
  6
BYLAYER
 10
61.8895876516
 20
75.0730832599
 11
61.8895876516
 21
58.4771198909
  0
LINE
  5
275
100
AcDbEntity
  8
0
100
AcDbLine
 62
7
  6
BYLAYER
 10
62.1896179811
 20
58.4771198909
 11
62.1896179811
 21
75.0730832599
  0
LINE
  5
276
100
AcDbEntity
  8
0
100
AcDbLine
 62
7
  6
BYLAYER
 10
63.1101064713
 20
75.0730832599
 11
63.1101064713
 21
58.4771198909
  0
LINE
  5
277
100
AcDbEntity
  8
0
100
AcDbLine
 62
7
  6
BYLAYER
 10
76.7982767508
 20
71.1213461941
 11
76.048200927
 21
71.8714220179
  0
LINE
  5
278
100
AcDbEntity
  8
0
100
AcDbLine
 62
7
  6
BYLAYER
 10
73.4828013724
 20
59.8311243173
 11
73.4828013724
 21
72.2223809186
  0
LINE
  5
279
100
AcDbEntity
  8
0
100
AcDbLine
 62
7
  6
BYLAYER
 10
76.048200927
 20
59.878781133
 11
76.7982767508
 21
60.6288569567
  0
LINE
  5
27A
100
AcDbEntity
  8
0
100
AcDbLine
 62
7
  6
BYLAYER
 10
75.8067583704
 20
71.8955499141
 11
75.8067583704
 21
59.8311243173
  0
LINE
  5
27B
100
AcDbEntity
  8
0
100
AcDbLine
 62
7
  6
BYLAYER
 10
76.048200927
 20
71.8714220179
 11
76.048200927
 21
59.878781133
  0
LINE
  5
27C
100
AcDbEntity
  8
0
100
AcDbLine
 62
7
  6
BYLAYER
 10
76.7982767508
 20
59.878781133
 11
76.7982767508
 21
71.8714220179
  0
LINE
  5
27D
100
AcDbEntity
  8
0
100
AcDbLine
 62
7
  6
BYLAYER
 10
85.1967974857
 20
71.1213461941
 11
84.446721662
 21
71.8714220179
  0
LINE
  5
27E
100
AcDbEntity
  8
0
100
AcDbLine
 62
7
  6
BYLAYER
 10
84.446721662
 20
59.878781133
 11
85.1967974857
 21
60.6288569567
  0
LINE
  5
27F
100
AcDbEntity
  8
0
100
AcDbLine
 62
7
  6
BYLAYER
 10
84.446721662
 20
71.8714220179
 11
84.446721662
 21
59.878781133
  0
LINE
  5
280
100
AcDbEntity
  8
0
100
AcDbLine
 62
7
  6
BYLAYER
 10
85.1967974857
 20
60.6288569567
 11
85.1967974857
 21
71.1213461941
  0
LINE
  5
281
100
AcDbEntity
  8
0
100
AcDbLine
 62
7
  6
BYLAYER
 10
85.5954092092
 20
71.1213461941
 11
85.5954092092
 21
60.6288569567
  0
LINE
  5
282
100
AcDbEntity
  8
0
100
AcDbLine
 62
7
  6
BYLAYER
 10
85.6982767508
 20
71.0227648002
 11
85.6982767508
 21
60.7274383507
  0
ARC
  5
283
100
AcDbEntity
  8
0
100
AcDbCircle
 62
7
  6
BYLAYER
 10
11.3868342454
 20
74.1251155613
 40
0.9951216792
100
AcDbArc
 50
90.0
 51
180.2048040944
  0
ARC
  5
284
100
AcDbEntity
  8
0
100
AcDbCircle
 62
7
  6
BYLAYER
 10
85.5957840069
 20
71.0187765687
 40
0.1025703102
100
AcDbArc
 50
2.2283880183
 51
90.2093624525
  0
ARC
  5
285
100
AcDbEntity
  8
0
100
AcDbCircle
 62
7
  6
BYLAYER
 10
85.5957840069
 20
60.7314265822
 40
0.1025703102
100
AcDbArc
 50
269.7906375475
 51
357.7716119816
  0
SPLINE
  5
286
100
AcDbEntity
  8
0
100
AcDbSpline
 62
7
  6
BYLAYER
 70
0
 71
3
 72
11
 73
7
 74
0
 42
0.0000001
 43
0.0000001
 44
0.0000000001
 40
0.0
 40
0.0
 40
0.0
 40
0.0
 40
0.2600148887
 40
0.5122835388
 40
0.7580440966
 40
1.0
 40
1.0
 40
1.0
 40
1.0
 10
47.454857576
 20
53.2909929189
 30
0.0
 10
47.3238529882
 20
53.53903059
 30
0.0
 10
47.0846560642
 20
54.0381817536
 30
0.0
 10
46.8071460557
 20
54.8092781699
 30
0.0
 10
46.6318095914
 20
55.5904841018
 30
0.0
 10
46.5917189235
 20
56.1174406607
 30
0.0
 10
46.5917189235
 20
56.378466603
 30
0.0
  0
SPLINE
  5
287
100
AcDbEntity
  8
0
100
AcDbSpline
 62
7
  6
BYLAYER
 70
0
 71
3
 72
11
 73
7
 74
0
 42
0.0000001
 43
0.0000001
 44
0.0000000001
 40
0.0
 40
0.0
 40
0.0
 40
0.0
 40
0.24195279
 40
0.4877108078
 40
0.7399764187
 40
1.0
 40
1.0
 40
1.0
 40
1.0
 10
49.5917189235
 20
56.378466603
 30
0.0
 10
49.5917189235
 20
56.1174439951
 30
0.0
 10
49.5516438329
 20
55.5904890972
 30
0.0
 10
49.3762389721
 20
54.8093125784
 30
0.0
 10
49.0988592473
 20
54.0381657392
 30
0.0
 10
48.8595892508
 20
53.5390389053
 30
0.0
 10
48.7285802711
 20
53.2909929189
 30
0.0
  0
SPLINE
  5
288
100
AcDbEntity
  8
0
100
AcDbSpline
 62
7
  6
BYLAYER
 70
0
 71
3
 72
11
 73
7
 74
0
 42
0.0000001
 43
0.0000001
 44
0.0000000001
 40
0.0
 40
0.0
 40
0.0
 40
0.0
 40
0.24195279
 40
0.4877108078
 40
0.7399764187
 40
1.0
 40
1.0
 40
1.0
 40
1.0
 10
46.5917189235
 20
77.1717365479
 30
0.0
 10
46.5917189235
 20
77.4327591558
 30
0.0
 10
46.6317940142
 20
77.9597140537
 30
0.0
 10
46.807198875
 20
78.7408905725
 30
0.0
 10
47.0845785998
 20
79.5120374117
 30
0.0
 10
47.3238485963
 20
80.0111642456
 30
0.0
 10
47.454857576
 20
80.259210232
 30
0.0
  0
SPLINE
  5
289
100
AcDbEntity
  8
0
100
AcDbSpline
 62
7
  6
BYLAYER
 70
0
 71
3
 72
11
 73
7
 74
0
 42
0.0000001
 43
0.0000001
 44
0.0000000001
 40
0.0
 40
0.0
 40
0.0
 40
0.0
 40
0.2500036864
 40
0.5000032576
 40
0.7500026356
 40
1.0
 40
1.0
 40
1.0
 40
1.0
 10
47.454857576
 20
60.6001542072
 30
0.0
 10
47.3218371554
 20
61.1038629075
 30
0.0
 10
47.0797534504
 20
62.11785577
 30
0.0
 10
46.804199506
 20
63.6572847102
 30
0.0
 10
46.6310438893
 20
65.2117949401
 30
0.0
 10
46.5917189235
 20
66.2541378913
 30
0.0
 10
46.5917189235
 20
66.7751015754
 30
0.0
  0
SPLINE
  5
28A
100
AcDbEntity
  8
0
100
AcDbSpline
 62
7
  6
BYLAYER
 70
0
 71
3
 72
11
 73
7
 74
0
 42
0.0000001
 43
0.0000001
 44
0.0000000001
 40
0.0
 40
0.0
 40
0.0
 40
0.0
 40
0.2600148887
 40
0.5122835388
 40
0.7580440966
 40
1.0
 40
1.0
 40
1.0
 40
1.0
 10
48.7285802711
 20
80.259210232
 30
0.0
 10
48.8595848589
 20
80.0111725609
 30
0.0
 10
49.0987817829
 20
79.5120213973
 30
0.0
 10
49.3762917914
 20
78.740924981
 30
0.0
 10
49.5516282557
 20
77.9597190491
 30
0.0
 10
49.5917189235
 20
77.4327624902
 30
0.0
 10
49.5917189235
 20
77.1717365479
 30
0.0
  0
SPLINE
  5
28B
100
AcDbEntity
  8
0
100
AcDbSpline
 62
7
  6
BYLAYER
 70
0
 71
3
 72
11
 73
7
 74
0
 42
0.0000001
 43
0.0000001
 44
0.0000000001
 40
0.0
 40
0.0
 40
0.0
 40
0.0
 40
0.24195279
 40
0.4877108078
 40
0.7399764187
 40
1.0
 40
1.0
 40
1.0
 40
1.0
 10
46.5917189235
 20
56.378466603
 30
0.0
 10
46.5917189235
 20
56.6394892109
 30
0.0
 10
46.6317940142
 20
57.1664441088
 30
0.0
 10
46.807198875
 20
57.9476206276
 30
0.0
 10
47.0845785998
 20
58.7187674668
 30
0.0
 10
47.3238485963
 20
59.2178943007
 30
0.0
 10
47.454857576
 20
59.4659402871
 30
0.0
  0
SPLINE
  5
28C
100
AcDbEntity
  8
0
100
AcDbSpline
 62
7
  6
BYLAYER
 70
0
 71
3
 72
11
 73
7
 74
0
 42
0.0000001
 43
0.0000001
 44
0.0000000001
 40
0.0
 40
0.0
 40
0.0
 40
0.0
 40
0.2499941551
 40
0.4999898041
 40
0.7499912837
 40
1.0
 40
1.0
 40
1.0
 40
1.0
 10
46.5917189235
 20
66.7751015754
 30
0.0
 10
46.5917189235
 20
67.2960586
 30
0.0
 10
46.631026418
 20
68.338389642
 30
0.0
 10
46.8042576895
 20
69.8928782689
 30
0.0
 10
47.0796686006
 20
71.4323399692
 30
0.0
 10
47.3218344719
 20
72.4463300818
 30
0.0
 10
47.454857576
 20
72.9500489436
 30
0.0
  0
SPLINE
  5
28D
100
AcDbEntity
  8
0
100
AcDbSpline
 62
7
  6
BYLAYER
 70
0
 71
3
 72
11
 73
7
 74
0
 42
0.0000001
 43
0.0000001
 44
0.0000000001
 40
0.0
 40
0.0
 40
0.0
 40
0.0
 40
0.2600148887
 40
0.5122835388
 40
0.7580440966
 40
1.0
 40
1.0
 40
1.0
 40
1.0
 10
47.454857576
 20
74.0842628638
 30
0.0
 10
47.3238529882
 20
74.3323005349
 30
0.0
 10
47.0846560642
 20
74.8314516985
 30
0.0
 10
46.8071460557
 20
75.6025481147
 30
0.0
 10
46.6318095914
 20
76.3837540467
 30
0.0
 10
46.5917189235
 20
76.9107106056
 30
0.0
 10
46.5917189235
 20
77.1717365479
 30
0.0
  0
SPLINE
  5
28E
100
AcDbEntity
  8
0
100
AcDbSpline
 62
7
  6
BYLAYER
 70
0
 71
3
 72
11
 73
7
 74
0
 42
0.0000001
 43
0.0000001
 44
0.0000000001
 40
0.0
 40
0.0
 40
0.0
 40
0.0
 40
0.24195279
 40
0.4877108078
 40
0.7399764187
 40
1.0
 40
1.0
 40
1.0
 40
1.0
 10
49.5917189235
 20
77.1717365479
 30
0.0
 10
49.5917189235
 20
76.91071394
 30
0.0
 10
49.5516438329
 20
76.383759042
 30
0.0
 10
49.3762389721
 20
75.6025825233
 30
0.0
 10
49.0988592473
 20
74.831435684
 30
0.0
 10
48.8595892508
 20
74.3323088501
 30
0.0
 10
48.7285802711
 20
74.0842628638
 30
0.0
  0
SPLINE
  5
28F
100
AcDbEntity
  8
0
100
AcDbSpline
 62
7
  6
BYLAYER
 70
0
 71
3
 72
11
 73
7
 74
0
 42
0.0000001
 43
0.0000001
 44
0.0000000001
 40
0.0
 40
0.0
 40
0.0
 40
0.0
 40
0.2500036864
 40
0.5000032576
 40
0.7500026356
 40
1.0
 40
1.0
 40
1.0
 40
1.0
 10
48.7285802711
 20
72.9500489436
 30
0.0
 10
48.8616006917
 20
72.4463402434
 30
0.0
 10
49.1036843967
 20
71.4323473809
 30
0.0
 10
49.3792383411
 20
69.8929184407
 30
0.0
 10
49.5523939578
 20
68.3384082108
 30
0.0
 10
49.5917189235
 20
67.2960652596
 30
0.0
 10
49.5917189235
 20
66.7751015754
 30
0.0
  0
SPLINE
  5
290
100
AcDbEntity
  8
0
100
AcDbSpline
 62
7
  6
BYLAYER
 70
0
 71
3
 72
11
 73
7
 74
0
 42
0.0000001
 43
0.0000001
 44
0.0000000001
 40
0.0
 40
0.0
 40
0.0
 40
0.0
 40
0.2499941551
 40
0.4999898041
 40
0.7499912837
 40
1.0
 40
1.0
 40
1.0
 40
1.0
 10
49.5917189235
 20
66.7751015754
 30
0.0
 10
49.5917189235
 20
66.2541445509
 30
0.0
 10
49.5524114291
 20
65.2118135089
 30
0.0
 10
49.3791801576
 20
63.657324882
 30
0.0
 10
49.1037692465
 20
62.1178631817
 30
0.0
 10
48.8616033752
 20
61.1038730691
 30
0.0
 10
48.7285802711
 20
60.6001542072
 30
0.0
  0
SPLINE
  5
291
100
AcDbEntity
  8
0
100
AcDbSpline
 62
7
  6
BYLAYER
 70
0
 71
3
 72
11
 73
7
 74
0
 42
0.0000001
 43
0.0000001
 44
0.0000000001
 40
0.0
 40
0.0
 40
0.0
 40
0.0
 40
0.2600148887
 40
0.5122835388
 40
0.7580440966
 40
1.0
 40
1.0
 40
1.0
 40
1.0
 10
48.7285802711
 20
59.4659402871
 30
0.0
 10
48.8595848589
 20
59.217902616
 30
0.0
 10
49.0987817829
 20
58.7187514524
 30
0.0
 10
49.3762917914
 20
57.9476550362
 30
0.0
 10
49.5516282557
 20
57.1664491042
 30
0.0
 10
49.5917189235
 20
56.6394925453
 30
0.0
 10
49.5917189235
 20
56.378466603
 30
0.0
  0
SPLINE
  5
292
100
AcDbEntity
  8
0
100
AcDbSpline
 62
7
  6
BYLAYER
 70
0
 71
3
 72
11
 73
7
 74
0
 42
0.0000001
 43
0.0000001
 44
0.0000000001
 40
0.0
 40
0.0
 40
0.0
 40
0.0
 40
0.2499941551
 40
0.4999898041
 40
0.7499912837
 40
1.0
 40
1.0
 40
1.0
 40
1.0
 10
39.5917189235
 20
66.7751015754
 30
0.0
 10
39.5917189235
 20
66.2541445509
 30
0.0
 10
39.5524114291
 20
65.2118135089
 30
0.0
 10
39.3791801576
 20
63.657324882
 30
0.0
 10
39.1037692465
 20
62.1178631817
 30
0.0
 10
38.8616033752
 20
61.1038730691
 30
0.0
 10
38.7285802711
 20
60.6001542072
 30
0.0
  0
SPLINE
  5
293
100
AcDbEntity
  8
0
100
AcDbSpline
 62
7
  6
BYLAYER
 70
0
 71
3
 72
11
 73
7
 74
0
 42
0.0000001
 43
0.0000001
 44
0.0000000001
 40
0.0
 40
0.0
 40
0.0
 40
0.0
 40
0.2600148887
 40
0.5122835388
 40
0.7580440966
 40
1.0
 40
1.0
 40
1.0
 40
1.0
 10
38.7285802711
 20
59.4659402871
 30
0.0
 10
38.8595848589
 20
59.217902616
 30
0.0
 10
39.0987817829
 20
58.7187514524
 30
0.0
 10
39.3762917914
 20
57.9476550362
 30
0.0
 10
39.5516282557
 20
57.1664491042
 30
0.0
 10
39.5917189235
 20
56.6394925453
 30
0.0
 10
39.5917189235
 20
56.378466603
 30
0.0
  0
SPLINE
  5
294
100
AcDbEntity
  8
0
100
AcDbSpline
 62
7
  6
BYLAYER
 70
0
 71
3
 72
11
 73
7
 74
0
 42
0.0000001
 43
0.0000001
 44
0.0000000001
 40
0.0
 40
0.0
 40
0.0
 40
0.0
 40
0.24195279
 40
0.4877108078
 40
0.7399764187
 40
1.0
 40
1.0
 40
1.0
 40
1.0
 10
39.5917189235
 20
77.1717365479
 30
0.0
 10
39.5917189235
 20
76.91071394
 30
0.0
 10
39.5516438329
 20
76.383759042
 30
0.0
 10
39.3762389721
 20
75.6025825233
 30
0.0
 10
39.0988592473
 20
74.831435684
 30
0.0
 10
38.8595892508
 20
74.3323088501
 30
0.0
 10
38.7285802711
 20
74.0842628638
 30
0.0
  0
SPLINE
  5
295
100
AcDbEntity
  8
0
100
AcDbSpline
 62
7
  6
BYLAYER
 70
0
 71
3
 72
11
 73
7
 74
0
 42
0.0000001
 43
0.0000001
 44
0.0000000001
 40
0.0
 40
0.0
 40
0.0
 40
0.0
 40
0.2500036864
 40
0.5000032576
 40
0.7500026356
 40
1.0
 40
1.0
 40
1.0
 40
1.0
 10
38.7285802711
 20
72.9500489436
 30
0.0
 10
38.8616006917
 20
72.4463402434
 30
0.0
 10
39.1036843967
 20
71.4323473809
 30
0.0
 10
39.3792383411
 20
69.8929184407
 30
0.0
 10
39.5523939578
 20
68.3384082108
 30
0.0
 10
39.5917189235
 20
67.2960652596
 30
0.0
 10
39.5917189235
 20
66.7751015754
 30
0.0
  0
SPLINE
  5
296
100
AcDbEntity
  8
0
100
AcDbSpline
 62
7
  6
BYLAYER
 70
0
 71
3
 72
11
 73
7
 74
0
 42
0.0000001
 43
0.0000001
 44
0.0000000001
 40
0.0
 40
0.0
 40
0.0
 40
0.0
 40
0.2600148887
 40
0.5122835388
 40
0.7580440966
 40
1.0
 40
1.0
 40
1.0
 40
1.0
 10
37.454857576
 20
74.0842628638
 30
0.0
 10
37.3238529882
 20
74.3323005349
 30
0.0
 10
37.0846560642
 20
74.8314516985
 30
0.0
 10
36.8071460557
 20
75.6025481147
 30
0.0
 10
36.6318095914
 20
76.3837540467
 30
0.0
 10
36.5917189235
 20
76.9107106056
 30
0.0
 10
36.5917189235
 20
77.1717365479
 30
0.0
  0
SPLINE
  5
297
100
AcDbEntity
  8
0
100
AcDbSpline
 62
7
  6
BYLAYER
 70
0
 71
3
 72
11
 73
7
 74
0
 42
0.0000001
 43
0.0000001
 44
0.0000000001
 40
0.0
 40
0.0
 40
0.0
 40
0.0
 40
0.2499941551
 40
0.4999898041
 40
0.7499912837
 40
1.0
 40
1.0
 40
1.0
 40
1.0
 10
36.5917189235
 20
66.7751015754
 30
0.0
 10
36.5917189235
 20
67.2960586
 30
0.0
 10
36.631026418
 20
68.338389642
 30
0.0
 10
36.8042576895
 20
69.8928782689
 30
0.0
 10
37.0796686006
 20
71.4323399692
 30
0.0
 10
37.3218344719
 20
72.4463300818
 30
0.0
 10
37.454857576
 20
72.9500489436
 30
0.0
  0
SPLINE
  5
298
100
AcDbEntity
  8
0
100
AcDbSpline
 62
7
  6
BYLAYER
 70
0
 71
3
 72
11
 73
7
 74
0
 42
0.0000001
 43
0.0000001
 44
0.0000000001
 40
0.0
 40
0.0
 40
0.0
 40
0.0
 40
0.24195279
 40
0.4877108078
 40
0.7399764187
 40
1.0
 40
1.0
 40
1.0
 40
1.0
 10
36.5917189235
 20
77.1717365479
 30
0.0
 10
36.5917189235
 20
77.4327591558
 30
0.0
 10
36.6317940142
 20
77.9597140537
 30
0.0
 10
36.807198875
 20
78.7408905725
 30
0.0
 10
37.0845785998
 20
79.5120374117
 30
0.0
 10
37.3238485963
 20
80.0111642456
 30
0.0
 10
37.454857576
 20
80.259210232
 30
0.0
  0
SPLINE
  5
299
100
AcDbEntity
  8
0
100
AcDbSpline
 62
7
  6
BYLAYER
 70
0
 71
3
 72
11
 73
7
 74
0
 42
0.0000001
 43
0.0000001
 44
0.0000000001
 40
0.0
 40
0.0
 40
0.0
 40
0.0
 40
0.2600148887
 40
0.5122835388
 40
0.7580440966
 40
1.0
 40
1.0
 40
1.0
 40
1.0
 10
38.7285802711
 20
80.259210232
 30
0.0
 10
38.8595848589
 20
80.0111725609
 30
0.0
 10
39.0987817829
 20
79.5120213973
 30
0.0
 10
39.3762917914
 20
78.740924981
 30
0.0
 10
39.5516282557
 20
77.9597190491
 30
0.0
 10
39.5917189235
 20
77.4327624902
 30
0.0
 10
39.5917189235
 20
77.1717365479
 30
0.0
  0
SPLINE
  5
29A
100
AcDbEntity
  8
0
100
AcDbSpline
 62
7
  6
BYLAYER
 70
0
 71
3
 72
11
 73
7
 74
0
 42
0.0000001
 43
0.0000001
 44
0.0000000001
 40
0.0
 40
0.0
 40
0.0
 40
0.0
 40
0.24195279
 40
0.4877108078
 40
0.7399764187
 40
1.0
 40
1.0
 40
1.0
 40
1.0
 10
36.5917189235
 20
56.378466603
 30
0.0
 10
36.5917189235
 20
56.6394892109
 30
0.0
 10
36.6317940142
 20
57.1664441088
 30
0.0
 10
36.807198875
 20
57.9476206276
 30
0.0
 10
37.0845785998
 20
58.7187674668
 30
0.0
 10
37.3238485963
 20
59.2178943007
 30
0.0
 10
37.454857576
 20
59.4659402871
 30
0.0
  0
SPLINE
  5
29B
100
AcDbEntity
  8
0
100
AcDbSpline
 62
7
  6
BYLAYER
 70
0
 71
3
 72
11
 73
7
 74
0
 42
0.0000001
 43
0.0000001
 44
0.0000000001
 40
0.0
 40
0.0
 40
0.0
 40
0.0
 40
0.2500036864
 40
0.5000032576
 40
0.7500026356
 40
1.0
 40
1.0
 40
1.0
 40
1.0
 10
37.454857576
 20
60.6001542072
 30
0.0
 10
37.3218371554
 20
61.1038629075
 30
0.0
 10
37.0797534504
 20
62.11785577
 30
0.0
 10
36.804199506
 20
63.6572847102
 30
0.0
 10
36.6310438893
 20
65.2117949401
 30
0.0
 10
36.5917189235
 20
66.2541378913
 30
0.0
 10
36.5917189235
 20
66.7751015754
 30
0.0
  0
SPLINE
  5
29C
100
AcDbEntity
  8
0
100
AcDbSpline
 62
7
  6
BYLAYER
 70
0
 71
3
 72
11
 73
7
 74
0
 42
0.0000001
 43
0.0000001
 44
0.0000000001
 40
0.0
 40
0.0
 40
0.0
 40
0.0
 40
0.24195279
 40
0.4877108078
 40
0.7399764187
 40
1.0
 40
1.0
 40
1.0
 40
1.0
 10
39.5917189235
 20
56.378466603
 30
0.0
 10
39.5917189235
 20
56.1174439951
 30
0.0
 10
39.5516438329
 20
55.5904890972
 30
0.0
 10
39.3762389721
 20
54.8093125784
 30
0.0
 10
39.0988592473
 20
54.0381657392
 30
0.0
 10
38.8595892508
 20
53.5390389053
 30
0.0
 10
38.7285802711
 20
53.2909929189
 30
0.0
  0
SPLINE
  5
29D
100
AcDbEntity
  8
0
100
AcDbSpline
 62
7
  6
BYLAYER
 70
0
 71
3
 72
11
 73
7
 74
0
 42
0.0000001
 43
0.0000001
 44
0.0000000001
 40
0.0
 40
0.0
 40
0.0
 40
0.0
 40
0.2600148887
 40
0.5122835388
 40
0.7580440966
 40
1.0
 40
1.0
 40
1.0
 40
1.0
 10
37.454857576
 20
53.2909929189
 30
0.0
 10
37.3238529882
 20
53.53903059
 30
0.0
 10
37.0846560642
 20
54.0381817536
 30
0.0
 10
36.8071460557
 20
54.8092781699
 30
0.0
 10
36.6318095914
 20
55.5904841018
 30
0.0
 10
36.5917189235
 20
56.1174406607
 30
0.0
 10
36.5917189235
 20
56.378466603
 30
0.0
  0
ENDSEC
  0
SECTION
  2
OBJECTS
  0
DICTIONARY
  5
C
100
AcDbDictionary
280
0
281
1
  3
ACAD_GROUP
350
D
  3
ACAD_MLINESTYLE
350
17
  3
ACAD_LAYOUT
350
1A
  3
ACAD_PLOTSETTINGS
350
19
  3
ACAD_PLOTSTYLENAME
350
E
  0
DICTIONARY
  5
D
102
{ACAD_REACTORS
330
C
102
}
100
AcDbDictionary
280
0
281
1
  0
ACDBDICTIONARYWDFLT
  5
E
102
{ACAD_REACTORS
330
C
102
}
100
AcDbDictionary
281
1
  3
Normal
350
F
100
AcDbDictionaryWithDefault
340
F
  0
DICTIONARY
  5
17
102
{ACAD_REACTORS
330
C
102
}
100
AcDbDictionary
280
0
281
1
  3
Standard
350
18
  0
DICTIONARY
  5
19
102
{ACAD_REACTORS
330
C
102
}
100
AcDbDictionary
281
1
  0
DICTIONARY
  5
1A
102
{ACAD_REACTORS
330
C
102
}
100
AcDbDictionary
281
1
  3
Model
350
29E
  3
Layout1
350
29F
  0
ACDBPLACEHOLDER
  5
F
102
{ACAD_REACTORS
330
E
102
}
  0
MLINESTYLE
  5
18
102
{ACAD_REACTORS
330
17
102
}
100
AcDbMlineStyle
  2
STANDARD
 70
0
  3

 62
256
 51
90.0
 52
90.0
 71
2
 49
0.5
 62
256
  6
BYLAYER
 49
-0.5
 62
256
  6
BYLAYER
  0
LAYOUT
  5
29E
102
{ACAD_REACTORS
330
1A
102
}
100
AcDbPlotSettings
  1

  2
none_device
  4

  6

 40
0.0
 41
0.0
 42
0.0
 43
0.0
 44
210.0
 45
297.0
 46
0.0
 47
0.0
 48
0.0
 49
0.0
140
0.0
141
0.0
142
1.0
143
1.0
 70
1024
 72
1
 73
0
 74
0
  7

 75
0
147
1.0
148
0.0
149
0.0
100
AcDbLayout
  1
Model
 70
0
 71
0
 10
0.0
 20
0.0
 11
210.0
 21
297.0
 12
0.0
 22
0.0
 32
0.0
 14
0.0
 24
0.0
 34
0.0
 15
0.0
 25
0.0
 35
0.0
146
0.0
 13
0.0
 23
0.0
 33
0.0
 16
1.0
 26
0.0
 36
0.0
 17
0.0
 27
1.0
 37
0.0
 76
0
330
210
345
0
346
0
  0
LAYOUT
  5
29F
102
{ACAD_REACTORS
330
1A
102
}
100
AcDbPlotSettings
  1

  2
none_device
  4

  6

 40
0.0
 41
0.0
 42
0.0
 43
0.0
 44
210.0
 45
297.0
 46
0.0
 47
0.0
 48
0.0
 49
0.0
140
0.0
141
0.0
142
1.0
143
1.0
 70
0
 72
1
 73
0
 74
0
  7

 75
0
147
1.0
148
0.0
149
0.0
100
AcDbLayout
  1
Layout1
 70
0
 71
1
 10
0.0
 20
0.0
 11
210.0
 21
297.0
 12
0.0
 22
0.0
 32
0.0
 14
0.0
 24
0.0
 34
0.0
 15
0.0
 25
0.0
 35
0.0
146
0.0
 13
0.0
 23
0.0
 33
0.0
 16
1.0
 26
0.0
 36
0.0
 17
0.0
 27
1.0
 37
0.0
 76
0
330
211
345
0
346
0
  0
ENDSEC
  0
EOF
