  0
SECTION
  2
HEADER
  9
$ACADVER
  1
AC1014
  9
$ACADMAINTVER
 70
     0
  9
$DWGCODEPAGE
  3
ANSI_1252
  9
$INSBASE
 10
0.0
 20
0.0
 30
0.0
  9
$EXTMIN
 10
-1.190945
 20
0.0
 30
0.0
  9
$EXTMAX
 10
0.4921
 20
3.681102
 30
0.0
  9
$LIMMIN
 10
0.0
 20
0.0
  9
$LIMMAX
 10
0.0
 20
0.0
  9
$ORTHOMODE
 70
     0
  9
$REGENMODE
 70
     1
  9
$FILLMODE
 70
     1
  9
$QTEXTMODE
 70
     0
  9
$MIRRTEXT
 70
     1
  9
$DRAGMODE
 70
     2
  9
$LTSCALE
 40
1.0
  9
$OSMODE
 70
     0
  9
$ATTMODE
 70
     1
  9
$TEXTSIZE
 40
0.2
  9
$TRACEWID
 40
0.05
  9
$TEXTSTYLE
  7
STANDARD
  9
$CLAYER
  8
0
  9
$CELTYPE
  6
CONTINUOUS
  9
$CECOLOR
 62
   256
  9
$CELTSCALE
 40
1.0
  9
$DELOBJ
 70
     1
  9
$DISPSILH
 70
     0
  9
$DIMSCALE
 40
1.0
  9
$DIMASZ
 40
0.18
  9
$DIMEXO
 40
0.0625
  9
$DIMDLI
 40
0.38
  9
$DIMRND
 40
0.0
  9
$DIMDLE
 40
0.0
  9
$DIMEXE
 40
0.18
  9
$DIMTP
 40
0.0
  9
$DIMTM
 40
0.0
  9
$DIMTXT
 40
0.18
  9
$DIMCEN
 40
0.09
  9
$DIMTSZ
 40
0.0
  9
$DIMTOL
 70
     0
  9
$DIMLIM
 70
     0
  9
$DIMTIH
 70
     1
  9
$DIMTOH
 70
     1
  9
$DIMSE1
 70
     0
  9
$DIMSE2
 70
     0
  9
$DIMTAD
 70
     0
  9
$DIMZIN
 70
     0
  9
$DIMBLK
  1

  9
$DIMASO
 70
     1
  9
$DIMSHO
 70
     1
  9
$DIMPOST
  1

  9
$DIMAPOST
  1

  9
$DIMALT
 70
     0
  9
$DIMALTD
 70
     2
  9
$DIMALTF
 40
25.4
  9
$DIMLFAC
 40
1.0
  9
$DIMTOFL
 70
     0
  9
$DIMTVP
 40
0.0
  9
$DIMTIX
 70
     0
  9
$DIMSOXD
 70
     0
  9
$DIMSAH
 70
     0
  9
$DIMBLK1
  1

  9
$DIMBLK2
  1

  9
$DIMSTYLE
  2
STANDARD
  9
$DIMCLRD
 70
     0
  9
$DIMCLRE
 70
     0
  9
$DIMCLRT
 70
     0
  9
$DIMTFAC
 40
1.0
  9
$DIMGAP
 40
0.09
  9
$DIMJUST
 70
     0
  9
$DIMSD1
 70
     0
  9
$DIMSD2
 70
     0
  9
$DIMTOLJ
 70
     1
  9
$DIMTZIN
 70
     0
  9
$DIMALTZ
 70
     0
  9
$DIMALTTZ
 70
     0
  9
$DIMFIT
 70
     3
  9
$DIMUPT
 70
     0
  9
$DIMUNIT
 70
     2
  9
$DIMDEC
 70
     4
  9
$DIMTDEC
 70
     4
  9
$DIMALTU
 70
     2
  9
$DIMALTTD
 70
     2
  9
$DIMTXSTY
  7
STANDARD
  9
$DIMAUNIT
 70
     0
  9
$LUNITS
 70
     2
  9
$LUPREC
 70
     4
  9
$SKETCHINC
 40
0.1
  9
$FILLETRAD
 40
0.0
  9
$AUNITS
 70
     0
  9
$AUPREC
 70
     0
  9
$MENU
  1
acad
  9
$ELEVATION
 40
0.0
  9
$PELEVATION
 40
0.0
  9
$THICKNESS
 40
0.0
  9
$LIMCHECK
 70
     0
  9
$BLIPMODE
 70
     1
  9
$CHAMFERA
 40
0.0
  9
$CHAMFERB
 40
0.0
  9
$CHAMFERC
 40
0.0
  9
$CHAMFERD
 40
0.0
  9
$SKPOLY
 70
     0
  9
$TDCREATE
 40
0.000000000
  9
$TDUPDATE
 40
0.000000000
  9
$TDINDWG
 40
0.0000000000
  9
$TDUSRTIMER
 40
0.0000000000
  9
$USRTIMER
 70
     1
  9
$ANGBASE
 50
0.0
  9
$ANGDIR
 70
     0
  9
$PDMODE
 70
     0
  9
$PDSIZE
 40
0.0
  9
$PLINEWID
 40
0.0
  9
$COORDS
 70
     0
  9
$SPLFRAME
 70
     0
  9
$SPLINETYPE
 70
     6
  9
$SPLINESEGS
 70
     8
  9
$ATTDIA
 70
     0
  9
$ATTREQ
 70
     1
  9
$HANDLING
 70
     1
  9
$HANDSEED
  5
1D7
  9
$SURFTAB1
 70
     6
  9
$SURFTAB2
 70
     6
  9
$SURFTYPE
 70
     6
  9
$SURFU
 70
     6
  9
$SURFV
 70
     6
  9
$UCSNAME
  2

  9
$UCSORG
 10
0.0
 20
0.0
 30
0.0
  9
$UCSXDIR
 10
1.0
 20
0.0
 30
0.0
  9
$UCSYDIR
 10
0.0
 20
1.0
 30
0.0
  9
$PUCSNAME
  2

  9
$PUCSORG
 10
0.0
 20
0.0
 30
0.0
  9
$PUCSXDIR
 10
1.0
 20
0.0
 30
0.0
  9
$PUCSYDIR
 10
0.0
 20
1.0
 30
0.0
  9
$USERI1
 70
     0
  9
$USERI2
 70
     0
  9
$USERI3
 70
     0
  9
$USERI4
 70
     0
  9
$USERI5
 70
     0
  9
$USERR1
 40
0.0
  9
$USERR2
 40
0.0
  9
$USERR3
 40
0.0
  9
$USERR4
 40
0.0
  9
$USERR5
 40
0.0
  9
$WORLDVIEW
 70
     1
  9
$SHADEDGE
 70
     3
  9
$SHADEDIF
 70
    70
  9
$TILEMODE
 70
     1
  9
$MAXACTVP
 70
    16
  9
$PINSBASE
 10
0.0
 20
0.0
 30
0.0
  9
$PLIMCHECK
 70
     0
  9
$PEXTMIN
 10
1.000000E+20
 20
1.000000E+20
 30
1.000000E+20
  9
$PEXTMAX
 10
-1.000000E+20
 20
-1.000000E+20
 30
-1.000000E+20
  9
$PLIMMIN
 10
0.0
 20
0.0
  9
$PLIMMAX
 10
12.0
 20
9.0
  9
$UNITMODE
 70
     0
  9
$VISRETAIN
 70
     0
  9
$PLINEGEN
 70
     1
  9
$PSLTSCALE
 70
     0
  9
$TREEDEPTH
 70
  3020
  9
$PICKSTYLE
 70
     1
  9
$CMLSTYLE
  2
STANDARD
  9
$CMLJUST
 70
     0
  9
$CMLSCALE
 40
1.0
  9
$PROXYGRAPHICS
 70
     0
  9
$MEASUREMENT
 70
     0
  0
ENDSEC
  0
SECTION
  2
CLASSES
  0
CLASS
  1
LWPOLYLINE
  2
AcDbPolyline
  3
"AutoCAD"
 90
        0
280
     0
281
     1
  0
CLASS
  1
IMAGE
  2
AcDbRasterImage
  3
ISM
 90
      127
280
     0
281
     1
  0
CLASS
  1
OLE2FRAME
  2
AcDbOle2Frame
  3
""
 90
        0
280
     0
281
     1
  0
CLASS
  1
HATCH
  2
AcDbHatch
  3
"ACAD_SEDONA"
 90
        0
280
     0
281
     1
  0
CLASS
  1
DICTIONARYVAR
  2
AcDbDictionaryVar
  3
"AutoCAD"
 90
        0
280
     0
281
     0
  0
CLASS
  1
RASTERVARIABLES
  2
AcDbRasterVariables
  3
ISM
 90
        0
280
     0
281
     0
  0
CLASS
  1
IMAGEDEF
  2
AcDbRasterImageDef
  3
ISM
 90
        0
280
     0
281
     0
  0
CLASS
  1
IMAGEDEF_REACTOR
  2
AcDbRasterImageDefReactor
  3
ISM
 90
        1
280
     0
281
     0
  0
CLASS
  1
IDBUFFER
  2
AcDbIdBuffer
  3
"Acad"
 90
        0
280
     0
281
     0
  0
CLASS
  1
SPATIAL_FILTER
  2
AcDbSpatialFilter
  3
"Acad"
 90
        0
280
     0
281
     0
  0
CLASS
  1
XRECORD
  2
AcDbXrecord
  3
"<Built In>"
 90
        0
280
     0
281
     0
  0
CLASS
  1
SORTENTSTABLE
  2
AcDbSortentsTable
  3
"AutoCAD"
 90
        0
280
     0
281
     0
  0
CLASS
  1
LAYER_INDEX
  2
AcDbLayerIndex
  3
"Acad"
 90
        0
280
     0
281
     0
  0
CLASS
  1
SPATIAL_INDEX
  2
AcDbSpatialIndex
  3
"Acad"
 90
        0
280
     0
281
     0
  0
CLASS
  1
OBJECT_PTR
  2
CAseDLPNTableRecord
  3
"ASE-LPNTableRecord"
 90
        1
280
     0
281
     0
  0
CLASS
  1
LAYOUT
  2
AcDbLayout
  3
"AutoCAD 2000"
 90
        0
280
     0
281
     0
  0
CLASS
  1
PLOTSETTINGS
  2
AcDbPlotSettings
  3
"AutoCAD 2000"
 90
        0
280
     0
281
     0
  0
CLASS
  1
ACDBDICTIONARYWDFLT
  2
AcDbDictionaryWithDefault
  3
"AutoCAD 2000"
 90
        0
280
     0
281
     0
  0
CLASS
  1
ACDBPLACEHOLDER
  2
AcDbPlaceHolder
  3
"AutoCAD 2000"
 90
        0
280
     0
281
     0
  0
CLASS
  1
VBA_PROJECT
  2
AcDbVbaProject
  3
"acadvba"
 90
        0
280
     0
281
     0
  0
CLASS
  1
WIPEOUT
  2
AcDbWipeout
  3
WipeOut|AutoCAD Express Tool|expresstools@autodesk.com
 90
      127
280
     0
281
     1
  0
CLASS
  1
WIPEOUTVARIABLES
  2
AcDbWipeoutVariables
  3
WipeOut|AutoCAD Express Tool|expresstools@autodesk.com
 90
        0
280
     0
281
     0
  0
CLASS
  1
RTEXT
  2
RText
  3
RText|AutoCAD Express Tool|expresstools@autodesk.com
 90
        0
280
     0
281
     1
  0
CLASS
  1
ARCALIGNEDTEXT
  2
AcDbArcAlignedText
  3
ATEXT|AutoCAD Express Tool|expresstools@autodesk.com
 90
        0
280
     0
281
     1
  0
ENDSEC
  0
SECTION
  2
TABLES
  0
TABLE
  2
VPORT
  5
7
100
AcDbSymbolTable
 70
     1
  0
VPORT
  5
15
100
AcDbSymbolTableRecord
100
AcDbViewportTableRecord
  2
*ACTIVE
 70
     0
 10
0.0
 20
0.0
 11
1.0
 21
1.0
 12
6.591288
 22
4.579184
 13
0.0
 23
0.0
 14
1.0
 24
1.0
 15
0.0
 25
0.0
 16
0.0
 26
0.0
 36
1.0
 17
0.0
 27
0.0
 37
0.0
 40
9.158369
 41
0.688564
 42
50.0
 43
0.0
 44
0.0
 50
0.0
 51
0.0
 71
     0
 72
   100
 73
     1
 74
     1
 75
     0
 76
     0
 77
     0
 78
     0
  0
ENDTAB
  0
TABLE
  2
LTYPE
  5
4
100
AcDbSymbolTable
 70
     7
  0
LTYPE
  5
11
100
AcDbSymbolTableRecord
100
AcDbLinetypeTableRecord
  2
BYBLOCK
 70
    64
  3

 72
    65
 73
     0
 40
0.0
  0
LTYPE
  5
12
100
AcDbSymbolTableRecord
100
AcDbLinetypeTableRecord
  2
BYLAYER
 70
    64
  3

 72
    65
 73
     0
 40
0.0
  0
LTYPE
  5
13
100
AcDbSymbolTableRecord
100
AcDbLinetypeTableRecord
  2
CONTINUOUS
 70
    64
  3
Solid line
 72
    65
 73
     0
 40
0.0
  0
LTYPE
  5
1F
100
AcDbSymbolTableRecord
100
AcDbLinetypeTableRecord
  2
CENTER
 70
    64
  3
Center ____ _ ____ _ ____ _ ____ _ ____ _ ____
 72
    65
 73
     4
 40
50.8
 49
31.75
 74
     0
 49
-6.35
 74
     0
 49
6.35
 74
     0
 49
-6.35
 74
     0
  0
LTYPE
  5
20
100
AcDbSymbolTableRecord
100
AcDbLinetypeTableRecord
  2
HIDDEN
 70
    64
  3
Hidden __ __ __ __ __ __ __ __ __ __ __ __ __ __
 72
    65
 73
     2
 40
9.525
 49
6.35
 74
     0
 49
-3.175
 74
     0
  0
LTYPE
  5
21
100
AcDbSymbolTableRecord
100
AcDbLinetypeTableRecord
  2
CENTER2
 70
    64
  3
Center (.5x) ___ _ ___ _ ___ _ ___ _ ___ _ ___
 72
    65
 73
     4
 40
28.575
 49
19.05
 74
     0
 49
-3.175
 74
     0
 49
3.175
 74
     0
 49
-3.175
 74
     0
  0
LTYPE
  5
22
100
AcDbSymbolTableRecord
100
AcDbLinetypeTableRecord
  2
HIDDEN2
 70
    64
  3
Hidden (.5x) _ _ _ _ _ _ _ _ _ _ _ _ _ _ _ _ _
 72
    65
 73
     2
 40
4.7625
 49
3.175
 74
     0
 49
-1.5875
 74
     0
  0
ENDTAB
  0
TABLE
  2
LAYER
  5
2
100
AcDbSymbolTable
 70
     7
  0
LAYER
  5
14
100
AcDbSymbolTableRecord
100
AcDbLayerTableRecord
  2
0
 70
     0
 62
     7
  6
CONTINUOUS
  0
LAYER
  5
23
100
AcDbSymbolTableRecord
100
AcDbLayerTableRecord
  2
TRMODEL1
 70
     0
 62
     7
  6
CONTINUOUS
  0
LAYER
  5
24
100
AcDbSymbolTableRecord
100
AcDbLayerTableRecord
  2
TRMODEL3
 70
     0
 62
     7
  6
CONTINUOUS
  0
LAYER
  5
25
100
AcDbSymbolTableRecord
100
AcDbLayerTableRecord
  2
TRDETAIL2
 70
     0
 62
     7
  6
CONTINUOUS
  0
LAYER
  5
26
100
AcDbSymbolTableRecord
100
AcDbLayerTableRecord
  2
TRDETAIL3
 70
     0
 62
     7
  6
CONTINUOUS
  0
LAYER
  5
27
100
AcDbSymbolTableRecord
100
AcDbLayerTableRecord
  2
TRDETAIL4
 70
     0
 62
     7
  6
CONTINUOUS
  0
LAYER
  5
28
100
AcDbSymbolTableRecord
100
AcDbLayerTableRecord
  2
TRDETAIL5
 70
     0
 62
     7
  6
CONTINUOUS
  0
ENDTAB
  0
TABLE
  2
STYLE
  5
3
100
AcDbSymbolTable
 70
     1
  0
STYLE
  5
17
100
AcDbSymbolTableRecord
100
AcDbTextStyleTableRecord
  2
STANDARD
 70
     0
 40
0.0
 41
1.0
 50
0.0
 71
     0
 42
0.0
  3
txt
  4

  0
ENDTAB
  0
TABLE
  2
VIEW
  5
5
100
AcDbSymbolTable
 70
     0
  0
ENDTAB
  0
TABLE
  2
UCS
  5
6
100
AcDbSymbolTable
 70
     0
  0
ENDTAB
  0
TABLE
  2
APPID
  5
8
100
AcDbSymbolTable
 70
     1
  0
APPID
  5
16
100
AcDbSymbolTableRecord
100
AcDbRegAppTableRecord
  2
ACAD
 70
     0
  0
ENDTAB
  0
TABLE
  2
DIMSTYLE
  5
9
100
AcDbSymbolTable
 70
     1
  0
DIMSTYLE
105
18
100
AcDbSymbolTableRecord
100
AcDbDimStyleTableRecord
  2
STANDARD
 70
     0
  3

  4

  5

  6

  7

 40
1.0
 41
0.18
 42
0.0625
 43
0.38
 44
0.18
 45
0.0
 46
0.0
 47
0.0
 48
0.0
 71
     0
 72
     0
 73
     1
 74
     1
 75
     0
 76
     0
 77
     0
 78
     0
140
0.18
141
0.09
142
0.0
143
25.4
144
1.0
145
0.0
146
1.0
147
0.09
170
     0
171
     2
172
     0
173
     0
174
     0
175
     0
176
     0
177
     0
178
     0
270
     2
271
     4
272
     4
273
     2
274
     2
275
     0
280
     0
281
     0
282
     0
283
     1
284
     0
285
     0
286
     0
287
     3
288
     0
340
17
  0
ENDTAB
  0
TABLE
  2
BLOCK_RECORD
  5
1
100
AcDbSymbolTable
 70
     0
  0
BLOCK_RECORD
  5
A
100
AcDbSymbolTableRecord
100
AcDbBlockTableRecord
  2
*MODEL_SPACE
  0
BLOCK_RECORD
  5
B
100
AcDbSymbolTableRecord
100
AcDbBlockTableRecord
  2
*PAPER_SPACE
  0
ENDTAB
  0
ENDSEC
  0
SECTION
  2
BLOCKS
  0
BLOCK
  5
D
100
AcDbEntity
  8
0
100
AcDbBlockBegin
  2
*MODEL_SPACE
 70
     0
 10
0.0
 20
0.0
 30
0.0
  3
*MODEL_SPACE
  1

  0
ENDBLK
  5
E
100
AcDbEntity
  8
0
100
AcDbBlockEnd
  0
BLOCK
  5
F
100
AcDbEntity
 67
     1
  8
0
100
AcDbBlockBegin
  2
*PAPER_SPACE
 70
     0
 10
0.0
 20
0.0
 30
0.0
  3
*PAPER_SPACE
  1

  0
ENDBLK
  5
10
100
AcDbEntity
 67
     1
  8
0
100
AcDbBlockEnd
  0
ENDSEC
  0
SECTION
  2
ENTITIES
  0
LINE
  5
128
100
AcDbEntity
  8
TRMODEL1
  6
CONTINUOUS
 62
     7
100
AcDbLine
 10
-0.570892
 20
2.007874
 30
0.0
 11
-0.570892
 21
1.967717
 31
0.0
  0
LINE
  5
129
100
AcDbEntity
  8
TRMODEL1
  6
CONTINUOUS
 62
     7
100
AcDbLine
 10
-0.570892
 20
1.967717
 30
0.0
 11
0.4921
 21
1.967717
 31
0.0
  0
LINE
  5
12A
100
AcDbEntity
  8
TRMODEL1
  6
CONTINUOUS
 62
     7
100
AcDbLine
 10
0.4921
 20
1.967717
 30
0.0
 11
0.4921
 21
2.007874
 31
0.0
  0
LINE
  5
12B
100
AcDbEntity
  8
TRMODEL1
  6
CONTINUOUS
 62
     7
100
AcDbLine
 10
-0.295276
 20
2.007874
 30
0.0
 11
-0.294998
 21
2.007868
 31
0.0
  0
LINE
  5
12C
100
AcDbEntity
  8
TRMODEL1
  6
CONTINUOUS
 62
     7
100
AcDbLine
 10
-0.294998
 20
2.007868
 30
0.0
 11
-0.294151
 21
2.00785
 31
0.0
  0
LINE
  5
12D
100
AcDbEntity
  8
TRMODEL1
  6
CONTINUOUS
 62
     7
100
AcDbLine
 10
-0.294151
 20
2.00785
 30
0.0
 11
-0.292717
 21
2.007819
 31
0.0
  0
LINE
  5
12E
100
AcDbEntity
  8
TRMODEL1
  6
CONTINUOUS
 62
     7
100
AcDbLine
 10
-0.292717
 20
2.007819
 30
0.0
 11
-0.290684
 21
2.007776
 31
0.0
  0
LINE
  5
12F
100
AcDbEntity
  8
TRMODEL1
  6
CONTINUOUS
 62
     7
100
AcDbLine
 10
-0.290684
 20
2.007776
 30
0.0
 11
-0.288045
 21
2.007721
 31
0.0
  0
LINE
  5
130
100
AcDbEntity
  8
TRMODEL1
  6
CONTINUOUS
 62
     7
100
AcDbLine
 10
-0.288045
 20
2.007721
 30
0.0
 11
-0.2848
 21
2.007654
 31
0.0
  0
LINE
  5
131
100
AcDbEntity
  8
TRMODEL1
  6
CONTINUOUS
 62
     7
100
AcDbLine
 10
-0.2848
 20
2.007654
 30
0.0
 11
-0.280952
 21
2.007575
 31
0.0
  0
LINE
  5
132
100
AcDbEntity
  8
TRMODEL1
  6
CONTINUOUS
 62
     7
100
AcDbLine
 10
-0.280952
 20
2.007575
 30
0.0
 11
-0.276511
 21
2.007485
 31
0.0
  0
LINE
  5
133
100
AcDbEntity
  8
TRMODEL1
  6
CONTINUOUS
 62
     7
100
AcDbLine
 10
-0.276511
 20
2.007485
 30
0.0
 11
-0.271489
 21
2.007385
 31
0.0
  0
LINE
  5
134
100
AcDbEntity
  8
TRMODEL1
  6
CONTINUOUS
 62
     7
100
AcDbLine
 10
-0.271489
 20
2.007385
 30
0.0
 11
-0.265901
 21
2.007276
 31
0.0
  0
LINE
  5
135
100
AcDbEntity
  8
TRMODEL1
  6
CONTINUOUS
 62
     7
100
AcDbLine
 10
-0.265901
 20
2.007276
 30
0.0
 11
-0.259768
 21
2.00716
 31
0.0
  0
LINE
  5
136
100
AcDbEntity
  8
TRMODEL1
  6
CONTINUOUS
 62
     7
100
AcDbLine
 10
-0.259768
 20
2.00716
 30
0.0
 11
-0.253113
 21
2.007036
 31
0.0
  0
LINE
  5
137
100
AcDbEntity
  8
TRMODEL1
  6
CONTINUOUS
 62
     7
100
AcDbLine
 10
-0.253113
 20
2.007036
 30
0.0
 11
-0.245968
 21
2.006907
 31
0.0
  0
LINE
  5
138
100
AcDbEntity
  8
TRMODEL1
  6
CONTINUOUS
 62
     7
100
AcDbLine
 10
-0.245968
 20
2.006907
 30
0.0
 11
-0.238367
 21
2.006773
 31
0.0
  0
LINE
  5
139
100
AcDbEntity
  8
TRMODEL1
  6
CONTINUOUS
 62
     7
100
AcDbLine
 10
-0.238367
 20
2.006773
 30
0.0
 11
-0.230351
 21
2.006637
 31
0.0
  0
LINE
  5
13A
100
AcDbEntity
  8
TRMODEL1
  6
CONTINUOUS
 62
     7
100
AcDbLine
 10
-0.230351
 20
2.006637
 30
0.0
 11
-0.221964
 21
2.006499
 31
0.0
  0
LINE
  5
13B
100
AcDbEntity
  8
TRMODEL1
  6
CONTINUOUS
 62
     7
100
AcDbLine
 10
-0.221964
 20
2.006499
 30
0.0
 11
-0.213253
 21
2.006362
 31
0.0
  0
LINE
  5
13C
100
AcDbEntity
  8
TRMODEL1
  6
CONTINUOUS
 62
     7
100
AcDbLine
 10
-0.213253
 20
2.006362
 30
0.0
 11
-0.204232
 21
2.006225
 31
0.0
  0
LINE
  5
13D
100
AcDbEntity
  8
TRMODEL1
  6
CONTINUOUS
 62
     7
100
AcDbLine
 10
-0.204232
 20
2.006225
 30
0.0
 11
-0.194729
 21
2.006088
 31
0.0
  0
LINE
  5
13E
100
AcDbEntity
  8
TRMODEL1
  6
CONTINUOUS
 62
     7
100
AcDbLine
 10
-0.194729
 20
2.006088
 30
0.0
 11
-0.184732
 21
2.00595
 31
0.0
  0
LINE
  5
13F
100
AcDbEntity
  8
TRMODEL1
  6
CONTINUOUS
 62
     7
100
AcDbLine
 10
-0.184732
 20
2.00595
 30
0.0
 11
-0.174266
 21
2.005814
 31
0.0
  0
LINE
  5
140
100
AcDbEntity
  8
TRMODEL1
  6
CONTINUOUS
 62
     7
100
AcDbLine
 10
-0.174266
 20
2.005814
 30
0.0
 11
-0.163363
 21
2.005681
 31
0.0
  0
LINE
  5
141
100
AcDbEntity
  8
TRMODEL1
  6
CONTINUOUS
 62
     7
100
AcDbLine
 10
-0.163363
 20
2.005681
 30
0.0
 11
-0.152058
 21
2.005551
 31
0.0
  0
LINE
  5
142
100
AcDbEntity
  8
TRMODEL1
  6
CONTINUOUS
 62
     7
100
AcDbLine
 10
-0.152058
 20
2.005551
 30
0.0
 11
-0.140387
 21
2.005428
 31
0.0
  0
LINE
  5
143
100
AcDbEntity
  8
TRMODEL1
  6
CONTINUOUS
 62
     7
100
AcDbLine
 10
-0.140387
 20
2.005428
 30
0.0
 11
-0.128391
 21
2.005311
 31
0.0
  0
LINE
  5
144
100
AcDbEntity
  8
TRMODEL1
  6
CONTINUOUS
 62
     7
100
AcDbLine
 10
-0.128391
 20
2.005311
 30
0.0
 11
-0.116109
 21
2.005202
 31
0.0
  0
LINE
  5
145
100
AcDbEntity
  8
TRMODEL1
  6
CONTINUOUS
 62
     7
100
AcDbLine
 10
-0.116109
 20
2.005202
 30
0.0
 11
-0.103581
 21
2.005102
 31
0.0
  0
LINE
  5
146
100
AcDbEntity
  8
TRMODEL1
  6
CONTINUOUS
 62
     7
100
AcDbLine
 10
-0.103581
 20
2.005102
 30
0.0
 11
-0.090848
 21
2.005012
 31
0.0
  0
LINE
  5
147
100
AcDbEntity
  8
TRMODEL1
  6
CONTINUOUS
 62
     7
100
AcDbLine
 10
-0.090848
 20
2.005012
 30
0.0
 11
-0.077953
 21
2.004934
 31
0.0
  0
LINE
  5
148
100
AcDbEntity
  8
TRMODEL1
  6
CONTINUOUS
 62
     7
100
AcDbLine
 10
-0.077953
 20
2.004934
 30
0.0
 11
-0.064944
 21
2.004866
 31
0.0
  0
LINE
  5
149
100
AcDbEntity
  8
TRMODEL1
  6
CONTINUOUS
 62
     7
100
AcDbLine
 10
-0.064944
 20
2.004866
 30
0.0
 11
-0.051872
 21
2.004811
 31
0.0
  0
LINE
  5
14A
100
AcDbEntity
  8
TRMODEL1
  6
CONTINUOUS
 62
     7
100
AcDbLine
 10
-0.051872
 20
2.004811
 30
0.0
 11
-0.038788
 21
2.004768
 31
0.0
  0
LINE
  5
14B
100
AcDbEntity
  8
TRMODEL1
  6
CONTINUOUS
 62
     7
100
AcDbLine
 10
-0.038788
 20
2.004768
 30
0.0
 11
-0.025747
 21
2.004737
 31
0.0
  0
LINE
  5
14C
100
AcDbEntity
  8
TRMODEL1
  6
CONTINUOUS
 62
     7
100
AcDbLine
 10
-0.025747
 20
2.004737
 30
0.0
 11
-0.012801
 21
2.004719
 31
0.0
  0
LINE
  5
14D
100
AcDbEntity
  8
TRMODEL1
  6
CONTINUOUS
 62
     7
100
AcDbLine
 10
-0.012801
 20
2.004719
 30
0.0
 11
0.0
 21
2.004713
 31
0.0
  0
LINE
  5
14E
100
AcDbEntity
  8
TRMODEL1
  6
CONTINUOUS
 62
     7
100
AcDbLine
 10
0.0
 20
2.004713
 30
0.0
 11
0.012801
 21
2.004719
 31
0.0
  0
LINE
  5
14F
100
AcDbEntity
  8
TRMODEL1
  6
CONTINUOUS
 62
     7
100
AcDbLine
 10
0.012801
 20
2.004719
 30
0.0
 11
0.025747
 21
2.004737
 31
0.0
  0
LINE
  5
150
100
AcDbEntity
  8
TRMODEL1
  6
CONTINUOUS
 62
     7
100
AcDbLine
 10
0.025747
 20
2.004737
 30
0.0
 11
0.038788
 21
2.004768
 31
0.0
  0
LINE
  5
151
100
AcDbEntity
  8
TRMODEL1
  6
CONTINUOUS
 62
     7
100
AcDbLine
 10
0.038788
 20
2.004768
 30
0.0
 11
0.051872
 21
2.004811
 31
0.0
  0
LINE
  5
152
100
AcDbEntity
  8
TRMODEL1
  6
CONTINUOUS
 62
     7
100
AcDbLine
 10
0.051872
 20
2.004811
 30
0.0
 11
0.064944
 21
2.004866
 31
0.0
  0
LINE
  5
153
100
AcDbEntity
  8
TRMODEL1
  6
CONTINUOUS
 62
     7
100
AcDbLine
 10
0.064944
 20
2.004866
 30
0.0
 11
0.077953
 21
2.004934
 31
0.0
  0
LINE
  5
154
100
AcDbEntity
  8
TRMODEL1
  6
CONTINUOUS
 62
     7
100
AcDbLine
 10
0.077953
 20
2.004934
 30
0.0
 11
0.090848
 21
2.005012
 31
0.0
  0
LINE
  5
155
100
AcDbEntity
  8
TRMODEL1
  6
CONTINUOUS
 62
     7
100
AcDbLine
 10
0.090848
 20
2.005012
 30
0.0
 11
0.103581
 21
2.005102
 31
0.0
  0
LINE
  5
156
100
AcDbEntity
  8
TRMODEL1
  6
CONTINUOUS
 62
     7
100
AcDbLine
 10
0.103581
 20
2.005102
 30
0.0
 11
0.116109
 21
2.005202
 31
0.0
  0
LINE
  5
157
100
AcDbEntity
  8
TRMODEL1
  6
CONTINUOUS
 62
     7
100
AcDbLine
 10
0.116109
 20
2.005202
 30
0.0
 11
0.128391
 21
2.005311
 31
0.0
  0
LINE
  5
158
100
AcDbEntity
  8
TRMODEL1
  6
CONTINUOUS
 62
     7
100
AcDbLine
 10
0.128391
 20
2.005311
 30
0.0
 11
0.140387
 21
2.005428
 31
0.0
  0
LINE
  5
159
100
AcDbEntity
  8
TRMODEL1
  6
CONTINUOUS
 62
     7
100
AcDbLine
 10
0.140387
 20
2.005428
 30
0.0
 11
0.152058
 21
2.005551
 31
0.0
  0
LINE
  5
15A
100
AcDbEntity
  8
TRMODEL1
  6
CONTINUOUS
 62
     7
100
AcDbLine
 10
0.152058
 20
2.005551
 30
0.0
 11
0.163363
 21
2.005681
 31
0.0
  0
LINE
  5
15B
100
AcDbEntity
  8
TRMODEL1
  6
CONTINUOUS
 62
     7
100
AcDbLine
 10
0.163363
 20
2.005681
 30
0.0
 11
0.174266
 21
2.005814
 31
0.0
  0
LINE
  5
15C
100
AcDbEntity
  8
TRMODEL1
  6
CONTINUOUS
 62
     7
100
AcDbLine
 10
0.174266
 20
2.005814
 30
0.0
 11
0.184732
 21
2.00595
 31
0.0
  0
LINE
  5
15D
100
AcDbEntity
  8
TRMODEL1
  6
CONTINUOUS
 62
     7
100
AcDbLine
 10
0.184732
 20
2.00595
 30
0.0
 11
0.194729
 21
2.006088
 31
0.0
  0
LINE
  5
15E
100
AcDbEntity
  8
TRMODEL1
  6
CONTINUOUS
 62
     7
100
AcDbLine
 10
0.194729
 20
2.006088
 30
0.0
 11
0.204232
 21
2.006225
 31
0.0
  0
LINE
  5
15F
100
AcDbEntity
  8
TRMODEL1
  6
CONTINUOUS
 62
     7
100
AcDbLine
 10
0.204232
 20
2.006225
 30
0.0
 11
0.213253
 21
2.006362
 31
0.0
  0
LINE
  5
160
100
AcDbEntity
  8
TRMODEL1
  6
CONTINUOUS
 62
     7
100
AcDbLine
 10
0.213253
 20
2.006362
 30
0.0
 11
0.221964
 21
2.006499
 31
0.0
  0
LINE
  5
161
100
AcDbEntity
  8
TRMODEL1
  6
CONTINUOUS
 62
     7
100
AcDbLine
 10
0.221964
 20
2.006499
 30
0.0
 11
0.230351
 21
2.006637
 31
0.0
  0
LINE
  5
162
100
AcDbEntity
  8
TRMODEL1
  6
CONTINUOUS
 62
     7
100
AcDbLine
 10
0.230351
 20
2.006637
 30
0.0
 11
0.238367
 21
2.006773
 31
0.0
  0
LINE
  5
163
100
AcDbEntity
  8
TRMODEL1
  6
CONTINUOUS
 62
     7
100
AcDbLine
 10
0.238367
 20
2.006773
 30
0.0
 11
0.245968
 21
2.006907
 31
0.0
  0
LINE
  5
164
100
AcDbEntity
  8
TRMODEL1
  6
CONTINUOUS
 62
     7
100
AcDbLine
 10
0.245968
 20
2.006907
 30
0.0
 11
0.253113
 21
2.007036
 31
0.0
  0
LINE
  5
165
100
AcDbEntity
  8
TRMODEL1
  6
CONTINUOUS
 62
     7
100
AcDbLine
 10
0.253113
 20
2.007036
 30
0.0
 11
0.259768
 21
2.00716
 31
0.0
  0
LINE
  5
166
100
AcDbEntity
  8
TRMODEL1
  6
CONTINUOUS
 62
     7
100
AcDbLine
 10
0.259768
 20
2.00716
 30
0.0
 11
0.265901
 21
2.007276
 31
0.0
  0
LINE
  5
167
100
AcDbEntity
  8
TRMODEL1
  6
CONTINUOUS
 62
     7
100
AcDbLine
 10
0.265901
 20
2.007276
 30
0.0
 11
0.271489
 21
2.007385
 31
0.0
  0
LINE
  5
168
100
AcDbEntity
  8
TRMODEL1
  6
CONTINUOUS
 62
     7
100
AcDbLine
 10
0.271489
 20
2.007385
 30
0.0
 11
0.276511
 21
2.007485
 31
0.0
  0
LINE
  5
169
100
AcDbEntity
  8
TRMODEL1
  6
CONTINUOUS
 62
     7
100
AcDbLine
 10
0.276511
 20
2.007485
 30
0.0
 11
0.280952
 21
2.007575
 31
0.0
  0
LINE
  5
16A
100
AcDbEntity
  8
TRMODEL1
  6
CONTINUOUS
 62
     7
100
AcDbLine
 10
0.280952
 20
2.007575
 30
0.0
 11
0.2848
 21
2.007654
 31
0.0
  0
LINE
  5
16B
100
AcDbEntity
  8
TRMODEL1
  6
CONTINUOUS
 62
     7
100
AcDbLine
 10
0.2848
 20
2.007654
 30
0.0
 11
0.288045
 21
2.007721
 31
0.0
  0
LINE
  5
16C
100
AcDbEntity
  8
TRMODEL1
  6
CONTINUOUS
 62
     7
100
AcDbLine
 10
0.288045
 20
2.007721
 30
0.0
 11
0.290684
 21
2.007776
 31
0.0
  0
LINE
  5
16D
100
AcDbEntity
  8
TRMODEL1
  6
CONTINUOUS
 62
     7
100
AcDbLine
 10
0.290684
 20
2.007776
 30
0.0
 11
0.292717
 21
2.007819
 31
0.0
  0
LINE
  5
16E
100
AcDbEntity
  8
TRMODEL1
  6
CONTINUOUS
 62
     7
100
AcDbLine
 10
0.292717
 20
2.007819
 30
0.0
 11
0.294151
 21
2.00785
 31
0.0
  0
LINE
  5
16F
100
AcDbEntity
  8
TRMODEL1
  6
CONTINUOUS
 62
     7
100
AcDbLine
 10
0.294151
 20
2.00785
 30
0.0
 11
0.294998
 21
2.007868
 31
0.0
  0
LINE
  5
170
100
AcDbEntity
  8
TRMODEL1
  6
CONTINUOUS
 62
     7
100
AcDbLine
 10
0.294998
 20
2.007868
 30
0.0
 11
0.295276
 21
2.007874
 31
0.0
  0
CIRCLE
  5
171
100
AcDbEntity
  8
TRMODEL1
  6
CONTINUOUS
 62
     7
100
AcDbCircle
 10
-0.070892
 20
0.75
 30
0.0
 40
0.358809
  0
CIRCLE
  5
172
100
AcDbEntity
  8
TRMODEL1
  6
CONTINUOUS
 62
     7
100
AcDbCircle
 10
-0.070892
 20
0.75
 30
0.0
 40
0.417785
  0
CIRCLE
  5
173
100
AcDbEntity
  8
TRMODEL1
  6
CONTINUOUS
 62
     7
100
AcDbCircle
 10
-0.070892
 20
0.75
 30
0.0
 40
0.34401
  0
LINE
  5
174
100
AcDbEntity
  8
TRMODEL1
  6
CONTINUOUS
 62
     7
100
AcDbLine
 10
-0.570892
 20
1.967717
 30
0.0
 11
-0.570892
 21
1.42352
 31
0.0
  0
LINE
  5
175
100
AcDbEntity
  8
TRMODEL1
  6
CONTINUOUS
 62
     7
100
AcDbLine
 10
0.4921
 20
1.967717
 30
0.0
 11
0.4921
 21
1.325
 31
0.0
  0
LINE
  5
176
100
AcDbEntity
  8
TRMODEL1
  6
CONTINUOUS
 62
     7
100
AcDbLine
 10
0.4921
 20
1.325
 30
0.0
 11
0.4921
 21
0.175
 31
0.0
  0
LINE
  5
177
100
AcDbEntity
  8
TRMODEL1
  6
CONTINUOUS
 62
     7
100
AcDbLine
 10
0.4921
 20
0.175
 30
0.0
 11
0.4921
 21
0.0
 31
0.0
  0
LINE
  5
178
100
AcDbEntity
  8
TRMODEL1
  6
CONTINUOUS
 62
     7
100
AcDbLine
 10
-0.675813
 20
1.687441
 30
0.0
 11
-0.675813
 21
1.628386
 31
0.0
  0
LINE
  5
179
100
AcDbEntity
  8
TRMODEL1
  6
CONTINUOUS
 62
     7
100
AcDbLine
 10
-0.675813
 20
1.628386
 30
0.0
 11
-0.675813
 21
1.569331
 31
0.0
  0
LINE
  5
17A
100
AcDbEntity
  8
TRMODEL1
  6
CONTINUOUS
 62
     7
100
AcDbLine
 10
-0.668332
 20
1.463329
 30
0.0
 11
-0.668332
 21
1.817126
 31
0.0
  0
LINE
  5
17B
100
AcDbEntity
  8
TRMODEL1
  6
CONTINUOUS
 62
     7
100
AcDbLine
 10
-0.668332
 20
1.817126
 30
0.0
 11
-0.668332
 21
1.855476
 31
0.0
  0
LINE
  5
17C
100
AcDbEntity
  8
TRMODEL1
  6
CONTINUOUS
 62
     7
100
AcDbLine
 10
-0.570892
 20
1.463329
 30
0.0
 11
-0.668332
 21
1.463329
 31
0.0
  0
LINE
  5
17D
100
AcDbEntity
  8
TRMODEL1
  6
CONTINUOUS
 62
     7
100
AcDbLine
 10
-0.668332
 20
1.855476
 30
0.0
 11
-0.570892
 21
1.855476
 31
0.0
  0
ARC
  5
17E
100
AcDbEntity
  8
TRMODEL1
  6
CONTINUOUS
 62
     7
100
AcDbCircle
 10
-0.070892
 20
0.75
 30
0.0
 40
0.5
100
AcDbArc
 50
180.0
 51
262.808693
  0
LINE
  5
17F
100
AcDbEntity
  8
TRMODEL1
  6
CONTINUOUS
 62
     7
100
AcDbLine
 10
0.4921
 20
0.175
 30
0.0
 11
-0.133483
 21
0.253933
 31
0.0
  0
LINE
  5
180
100
AcDbEntity
  8
TRMODEL1
  6
CONTINUOUS
 62
     7
100
AcDbLine
 10
-0.133483
 20
1.246067
 30
0.0
 11
0.4921
 21
1.325
 31
0.0
  0
ARC
  5
181
100
AcDbEntity
  8
TRMODEL1
  6
CONTINUOUS
 62
     7
100
AcDbCircle
 10
-0.070892
 20
0.75
 30
0.0
 40
0.5
100
AcDbArc
 50
97.191307
 51
180.0
  0
LINE
  5
182
100
AcDbEntity
  8
TRMODEL1
  6
CONTINUOUS
 62
     7
100
AcDbLine
 10
-0.259292
 20
0.0
 30
0.0
 11
-0.31455
 21
0.313387
 31
0.0
  0
LINE
  5
183
100
AcDbEntity
  8
TRMODEL1
  6
CONTINUOUS
 62
     7
100
AcDbLine
 10
-0.509989
 20
1.421776
 30
0.0
 11
-0.510297
 21
1.42352
 31
0.0
  0
LINE
  5
184
100
AcDbEntity
  8
TRMODEL1
  6
CONTINUOUS
 62
     7
100
AcDbLine
 10
-0.449186
 20
1.076946
 30
0.0
 11
-0.509989
 21
1.421776
 31
0.0
  0
LINE
  5
185
100
AcDbEntity
  8
TRMODEL1
  6
CONTINUOUS
 62
     7
100
AcDbLine
 10
0.4921
 20
0.0
 30
0.0
 11
-0.259292
 21
0.0
 31
0.0
  0
LINE
  5
186
100
AcDbEntity
  8
TRMODEL1
  6
CONTINUOUS
 62
     7
100
AcDbLine
 10
-0.510297
 20
1.42352
 30
0.0
 11
-0.570892
 21
1.42352
 31
0.0
  0
LINE
  5
187
100
AcDbEntity
  8
TRMODEL1
  6
CONTINUOUS
 62
     7
100
AcDbLine
 10
-0.689002
 20
1.421776
 30
0.0
 11
-0.689002
 21
1.465748
 31
0.0
  0
LINE
  5
188
100
AcDbEntity
  8
TRMODEL1
  6
CONTINUOUS
 62
     7
100
AcDbLine
 10
-0.689002
 20
1.421776
 30
0.0
 11
-0.509989
 21
1.421776
 31
0.0
  0
LINE
  5
189
100
AcDbEntity
  8
TRMODEL1
  6
CONTINUOUS
 62
     7
100
AcDbLine
 10
-0.259292
 20
0.0
 30
0.0
 11
-0.689002
 21
0.0
 31
0.0
  0
LINE
  5
18A
100
AcDbEntity
  8
TRMODEL1
  6
CONTINUOUS
 62
     7
100
AcDbLine
 10
-0.689002
 20
1.421776
 30
0.0
 11
-0.689002
 21
0.0
 31
0.0
  0
LINE
  5
18B
100
AcDbEntity
  8
TRMODEL1
  6
CONTINUOUS
 62
     7
100
AcDbLine
 10
-0.826
 20
2.78189
 30
0.0
 11
-0.826
 21
2.38189
 31
0.0
  0
LINE
  5
18C
100
AcDbEntity
  8
TRMODEL1
  6
CONTINUOUS
 62
     7
100
AcDbLine
 10
-0.826
 20
2.38189
 30
0.0
 11
-0.826
 21
2.272288
 31
0.0
  0
LINE
  5
18D
100
AcDbEntity
  8
TRMODEL1
  6
CONTINUOUS
 62
     7
100
AcDbLine
 10
-0.826
 20
2.12189
 30
0.0
 11
-0.826
 21
2.066929
 31
0.0
  0
LINE
  5
18E
100
AcDbEntity
  8
TRMODEL1
  6
CONTINUOUS
 62
     7
100
AcDbLine
 10
-0.876
 20
2.066929
 30
0.0
 11
-0.876
 21
2.38189
 31
0.0
  0
LINE
  5
18F
100
AcDbEntity
  8
TRMODEL1
  6
CONTINUOUS
 62
     7
100
AcDbLine
 10
-0.876
 20
2.766125
 30
0.0
 11
-0.876
 21
2.38189
 31
0.0
  0
LINE
  5
190
100
AcDbEntity
  8
TRMODEL1
  6
CONTINUOUS
 62
     7
100
AcDbLine
 10
-0.974409
 20
3.681102
 30
0.0
 11
-0.974409
 21
3.105375
 31
0.0
  0
LINE
  5
191
100
AcDbEntity
  8
TRMODEL1
  6
CONTINUOUS
 62
     7
100
AcDbLine
 10
-1.190945
 20
2.933071
 30
0.0
 11
-1.190945
 21
3.307087
 31
0.0
  0
LINE
  5
192
100
AcDbEntity
  8
TRMODEL1
  6
CONTINUOUS
 62
     7
100
AcDbLine
 10
-1.190945
 20
3.307087
 30
0.0
 11
-1.190945
 21
3.681102
 31
0.0
  0
LINE
  5
193
100
AcDbEntity
  8
TRMODEL1
  6
CONTINUOUS
 62
     7
100
AcDbLine
 10
-0.974409
 20
3.105375
 30
0.0
 11
-0.974409
 21
2.906668
 31
0.0
  0
LINE
  5
194
100
AcDbEntity
  8
TRMODEL1
  6
CONTINUOUS
 62
     7
100
AcDbLine
 10
-0.974409
 20
2.906668
 30
0.0
 11
-0.876
 21
2.766125
 31
0.0
  0
LINE
  5
195
100
AcDbEntity
  8
TRMODEL1
  6
CONTINUOUS
 62
     7
100
AcDbLine
 10
-0.924409
 20
2.922433
 30
0.0
 11
-0.826
 21
2.78189
 31
0.0
  0
LINE
  5
196
100
AcDbEntity
  8
TRMODEL1
  6
CONTINUOUS
 62
     7
100
AcDbLine
 10
-0.924409
 20
3.307087
 30
0.0
 11
-0.924409
 21
2.922433
 31
0.0
  0
LINE
  5
197
100
AcDbEntity
  8
TRMODEL1
  6
CONTINUOUS
 62
     7
100
AcDbLine
 10
-0.924409
 20
3.622047
 30
0.0
 11
-0.924409
 21
3.307087
 31
0.0
  0
LINE
  5
198
100
AcDbEntity
  8
TRMODEL1
  6
CONTINUOUS
 62
     7
100
AcDbLine
 10
-0.826
 20
2.17189
 30
0.0
 11
-0.826
 21
2.12189
 31
0.0
  0
LINE
  5
199
100
AcDbEntity
  8
TRMODEL1
  6
CONTINUOUS
 62
     7
100
AcDbLine
 10
-0.826
 20
2.272288
 30
0.0
 11
-0.826
 21
2.17189
 31
0.0
  0
LINE
  5
19A
100
AcDbEntity
  8
TRMODEL1
  6
CONTINUOUS
 62
     7
100
AcDbLine
 10
-0.164401
 20
2.12189
 30
0.0
 11
-0.826
 21
2.12189
 31
0.0
  0
LINE
  5
19B
100
AcDbEntity
  8
TRMODEL1
  6
CONTINUOUS
 62
     7
100
AcDbLine
 10
0.0
 20
2.17189
 30
0.0
 11
-0.004586
 21
2.170003
 31
0.0
  0
LINE
  5
19C
100
AcDbEntity
  8
TRMODEL1
  6
CONTINUOUS
 62
     7
100
AcDbLine
 10
-0.004586
 20
2.170003
 30
0.0
 11
-0.009252
 21
2.168085
 31
0.0
  0
LINE
  5
19D
100
AcDbEntity
  8
TRMODEL1
  6
CONTINUOUS
 62
     7
100
AcDbLine
 10
-0.009252
 20
2.168085
 30
0.0
 11
-0.013989
 21
2.166141
 31
0.0
  0
LINE
  5
19E
100
AcDbEntity
  8
TRMODEL1
  6
CONTINUOUS
 62
     7
100
AcDbLine
 10
-0.013989
 20
2.166141
 30
0.0
 11
-0.018786
 21
2.164179
 31
0.0
  0
LINE
  5
19F
100
AcDbEntity
  8
TRMODEL1
  6
CONTINUOUS
 62
     7
100
AcDbLine
 10
-0.018786
 20
2.164179
 30
0.0
 11
-0.023634
 21
2.162203
 31
0.0
  0
LINE
  5
1A0
100
AcDbEntity
  8
TRMODEL1
  6
CONTINUOUS
 62
     7
100
AcDbLine
 10
-0.023634
 20
2.162203
 30
0.0
 11
-0.028523
 21
2.16022
 31
0.0
  0
LINE
  5
1A1
100
AcDbEntity
  8
TRMODEL1
  6
CONTINUOUS
 62
     7
100
AcDbLine
 10
-0.028523
 20
2.16022
 30
0.0
 11
-0.033443
 21
2.158237
 31
0.0
  0
LINE
  5
1A2
100
AcDbEntity
  8
TRMODEL1
  6
CONTINUOUS
 62
     7
100
AcDbLine
 10
-0.033443
 20
2.158237
 30
0.0
 11
-0.038383
 21
2.156261
 31
0.0
  0
LINE
  5
1A3
100
AcDbEntity
  8
TRMODEL1
  6
CONTINUOUS
 62
     7
100
AcDbLine
 10
-0.038383
 20
2.156261
 30
0.0
 11
-0.043334
 21
2.154297
 31
0.0
  0
LINE
  5
1A4
100
AcDbEntity
  8
TRMODEL1
  6
CONTINUOUS
 62
     7
100
AcDbLine
 10
-0.043334
 20
2.154297
 30
0.0
 11
-0.048286
 21
2.152353
 31
0.0
  0
LINE
  5
1A5
100
AcDbEntity
  8
TRMODEL1
  6
CONTINUOUS
 62
     7
100
AcDbLine
 10
-0.048286
 20
2.152353
 30
0.0
 11
-0.053228
 21
2.150435
 31
0.0
  0
LINE
  5
1A6
100
AcDbEntity
  8
TRMODEL1
  6
CONTINUOUS
 62
     7
100
AcDbLine
 10
-0.053228
 20
2.150435
 30
0.0
 11
-0.05815
 21
2.148548
 31
0.0
  0
LINE
  5
1A7
100
AcDbEntity
  8
TRMODEL1
  6
CONTINUOUS
 62
     7
100
AcDbLine
 10
-0.05815
 20
2.148548
 30
0.0
 11
-0.063044
 21
2.1467
 31
0.0
  0
LINE
  5
1A8
100
AcDbEntity
  8
TRMODEL1
  6
CONTINUOUS
 62
     7
100
AcDbLine
 10
-0.063044
 20
2.1467
 30
0.0
 11
-0.067897
 21
2.144897
 31
0.0
  0
LINE
  5
1A9
100
AcDbEntity
  8
TRMODEL1
  6
CONTINUOUS
 62
     7
100
AcDbLine
 10
-0.067897
 20
2.144897
 30
0.0
 11
-0.072702
 21
2.143143
 31
0.0
  0
LINE
  5
1AA
100
AcDbEntity
  8
TRMODEL1
  6
CONTINUOUS
 62
     7
100
AcDbLine
 10
-0.072702
 20
2.143143
 30
0.0
 11
-0.077448
 21
2.141444
 31
0.0
  0
LINE
  5
1AB
100
AcDbEntity
  8
TRMODEL1
  6
CONTINUOUS
 62
     7
100
AcDbLine
 10
-0.077448
 20
2.141444
 30
0.0
 11
-0.082127
 21
2.139806
 31
0.0
  0
LINE
  5
1AC
100
AcDbEntity
  8
TRMODEL1
  6
CONTINUOUS
 62
     7
100
AcDbLine
 10
-0.082127
 20
2.139806
 30
0.0
 11
-0.086728
 21
2.138233
 31
0.0
  0
LINE
  5
1AD
100
AcDbEntity
  8
TRMODEL1
  6
CONTINUOUS
 62
     7
100
AcDbLine
 10
-0.086728
 20
2.138233
 30
0.0
 11
-0.091244
 21
2.136729
 31
0.0
  0
LINE
  5
1AE
100
AcDbEntity
  8
TRMODEL1
  6
CONTINUOUS
 62
     7
100
AcDbLine
 10
-0.091244
 20
2.136729
 30
0.0
 11
-0.095738
 21
2.135274
 31
0.0
  0
LINE
  5
1AF
100
AcDbEntity
  8
TRMODEL1
  6
CONTINUOUS
 62
     7
100
AcDbLine
 10
-0.095738
 20
2.135274
 30
0.0
 11
-0.100312
 21
2.133841
 31
0.0
  0
LINE
  5
1B0
100
AcDbEntity
  8
TRMODEL1
  6
CONTINUOUS
 62
     7
100
AcDbLine
 10
-0.100312
 20
2.133841
 30
0.0
 11
-0.104952
 21
2.132439
 31
0.0
  0
LINE
  5
1B1
100
AcDbEntity
  8
TRMODEL1
  6
CONTINUOUS
 62
     7
100
AcDbLine
 10
-0.104952
 20
2.132439
 30
0.0
 11
-0.109644
 21
2.13108
 31
0.0
  0
LINE
  5
1B2
100
AcDbEntity
  8
TRMODEL1
  6
CONTINUOUS
 62
     7
100
AcDbLine
 10
-0.109644
 20
2.13108
 30
0.0
 11
-0.114371
 21
2.129775
 31
0.0
  0
LINE
  5
1B3
100
AcDbEntity
  8
TRMODEL1
  6
CONTINUOUS
 62
     7
100
AcDbLine
 10
-0.114371
 20
2.129775
 30
0.0
 11
-0.119118
 21
2.128535
 31
0.0
  0
LINE
  5
1B4
100
AcDbEntity
  8
TRMODEL1
  6
CONTINUOUS
 62
     7
100
AcDbLine
 10
-0.119118
 20
2.128535
 30
0.0
 11
-0.12387
 21
2.127371
 31
0.0
  0
LINE
  5
1B5
100
AcDbEntity
  8
TRMODEL1
  6
CONTINUOUS
 62
     7
100
AcDbLine
 10
-0.12387
 20
2.127371
 30
0.0
 11
-0.128611
 21
2.126294
 31
0.0
  0
LINE
  5
1B6
100
AcDbEntity
  8
TRMODEL1
  6
CONTINUOUS
 62
     7
100
AcDbLine
 10
-0.128611
 20
2.126294
 30
0.0
 11
-0.133325
 21
2.125314
 31
0.0
  0
LINE
  5
1B7
100
AcDbEntity
  8
TRMODEL1
  6
CONTINUOUS
 62
     7
100
AcDbLine
 10
-0.133325
 20
2.125314
 30
0.0
 11
-0.137999
 21
2.124441
 31
0.0
  0
LINE
  5
1B8
100
AcDbEntity
  8
TRMODEL1
  6
CONTINUOUS
 62
     7
100
AcDbLine
 10
-0.137999
 20
2.124441
 30
0.0
 11
-0.142616
 21
2.123684
 31
0.0
  0
LINE
  5
1B9
100
AcDbEntity
  8
TRMODEL1
  6
CONTINUOUS
 62
     7
100
AcDbLine
 10
-0.142616
 20
2.123684
 30
0.0
 11
-0.147164
 21
2.123051
 31
0.0
  0
LINE
  5
1BA
100
AcDbEntity
  8
TRMODEL1
  6
CONTINUOUS
 62
     7
100
AcDbLine
 10
-0.147164
 20
2.123051
 30
0.0
 11
-0.151628
 21
2.122549
 31
0.0
  0
LINE
  5
1BB
100
AcDbEntity
  8
TRMODEL1
  6
CONTINUOUS
 62
     7
100
AcDbLine
 10
-0.151628
 20
2.122549
 30
0.0
 11
-0.155997
 21
2.122185
 31
0.0
  0
LINE
  5
1BC
100
AcDbEntity
  8
TRMODEL1
  6
CONTINUOUS
 62
     7
100
AcDbLine
 10
-0.155997
 20
2.122185
 30
0.0
 11
-0.160258
 21
2.121964
 31
0.0
  0
LINE
  5
1BD
100
AcDbEntity
  8
TRMODEL1
  6
CONTINUOUS
 62
     7
100
AcDbLine
 10
-0.160258
 20
2.121964
 30
0.0
 11
-0.164401
 21
2.12189
 31
0.0
  0
LINE
  5
1BE
100
AcDbEntity
  8
TRMODEL1
  6
CONTINUOUS
 62
     7
100
AcDbLine
 10
0.0
 20
2.64189
 30
0.0
 11
-0.826
 21
2.64189
 31
0.0
  0
LINE
  5
1BF
100
AcDbEntity
  8
TRMODEL1
  6
CONTINUOUS
 62
     7
100
AcDbLine
 10
0.245276
 20
2.64189
 30
0.0
 11
0.0
 21
2.64189
 31
0.0
  0
LINE
  5
1C0
100
AcDbEntity
  8
TRMODEL1
  6
CONTINUOUS
 62
     7
100
AcDbLine
 10
-1.026
 20
2.25689
 30
0.0
 11
-1.026
 21
2.38189
 31
0.0
  0
LINE
  5
1C1
100
AcDbEntity
  8
TRMODEL1
  6
CONTINUOUS
 62
     7
100
AcDbLine
 10
-1.026
 20
2.38189
 30
0.0
 11
-1.026
 21
2.50689
 31
0.0
  0
LINE
  5
1C2
100
AcDbEntity
  8
TRMODEL1
  6
CONTINUOUS
 62
     7
100
AcDbLine
 10
-0.926
 20
2.18189
 30
0.0
 11
-0.926
 21
2.38189
 31
0.0
  0
LINE
  5
1C3
100
AcDbEntity
  8
TRMODEL1
  6
CONTINUOUS
 62
     7
100
AcDbLine
 10
-0.926
 20
2.38189
 30
0.0
 11
-0.926
 21
2.58189
 31
0.0
  0
LINE
  5
1C4
100
AcDbEntity
  8
TRMODEL1
  6
CONTINUOUS
 62
     7
100
AcDbLine
 10
0.4921
 20
2.007874
 30
0.0
 11
0.295276
 21
2.007874
 31
0.0
  0
LINE
  5
1C5
100
AcDbEntity
  8
TRMODEL1
  6
CONTINUOUS
 62
     7
100
AcDbLine
 10
-0.295276
 20
2.007874
 30
0.0
 11
-0.570892
 21
2.007874
 31
0.0
  0
LINE
  5
1C6
100
AcDbEntity
  8
TRMODEL1
  6
CONTINUOUS
 62
     7
100
AcDbLine
 10
-0.668332
 20
1.687441
 30
0.0
 11
-0.675813
 21
1.687441
 31
0.0
  0
LINE
  5
1C7
100
AcDbEntity
  8
TRMODEL1
  6
CONTINUOUS
 62
     7
100
AcDbLine
 10
-0.675813
 20
1.569331
 30
0.0
 11
-0.668332
 21
1.569331
 31
0.0
  0
LINE
  5
1C8
100
AcDbEntity
  8
TRMODEL1
  6
CONTINUOUS
 62
     7
100
AcDbLine
 10
-0.668332
 20
1.465748
 30
0.0
 11
-0.689002
 21
1.465748
 31
0.0
  0
LINE
  5
1C9
100
AcDbEntity
  8
TRMODEL1
  6
CONTINUOUS
 62
     7
100
AcDbLine
 10
-1.190945
 20
2.933071
 30
0.0
 11
-0.974409
 21
2.933071
 31
0.0
  0
LINE
  5
1CA
100
AcDbEntity
  8
TRMODEL1
  6
CONTINUOUS
 62
     7
100
AcDbLine
 10
-0.974409
 20
3.681102
 30
0.0
 11
-1.190945
 21
3.681102
 31
0.0
  0
LINE
  5
1CB
100
AcDbEntity
  8
TRMODEL1
  6
CONTINUOUS
 62
     7
100
AcDbLine
 10
-0.924409
 20
3.622047
 30
0.0
 11
-0.974409
 21
3.622047
 31
0.0
  0
LINE
  5
1CC
100
AcDbEntity
  8
TRMODEL1
  6
CONTINUOUS
 62
     7
100
AcDbLine
 10
-0.876
 20
2.066929
 30
0.0
 11
-0.826
 21
2.066929
 31
0.0
  0
ARC
  5
1CD
100
AcDbEntity
  8
TRMODEL1
  6
CONTINUOUS
 62
     7
100
AcDbCircle
 10
0.245276
 20
2.59189
 30
0.0
 40
0.05
100
AcDbArc
 50
0.0
 51
90.0
  0
LINE
  5
1CE
100
AcDbEntity
  8
TRMODEL1
  6
CONTINUOUS
 62
     7
100
AcDbLine
 10
0.295276
 20
2.007874
 30
0.0
 11
0.295276
 21
2.59189
 31
0.0
  0
LINE
  5
1CF
100
AcDbEntity
  8
TRMODEL1
  6
CONTINUOUS
 62
     7
100
AcDbLine
 10
-0.295276
 20
2.12189
 30
0.0
 11
-0.295276
 21
2.007874
 31
0.0
  0
LINE
  5
1D0
100
AcDbEntity
  8
TRMODEL1
  6
CONTINUOUS
 62
     7
100
AcDbLine
 10
-1.026
 20
2.25689
 30
0.0
 11
-0.926
 21
2.25689
 31
0.0
  0
LINE
  5
1D1
100
AcDbEntity
  8
TRMODEL1
  6
CONTINUOUS
 62
     7
100
AcDbLine
 10
-0.926
 20
2.50689
 30
0.0
 11
-1.026
 21
2.50689
 31
0.0
  0
LINE
  5
1D2
100
AcDbEntity
  8
TRMODEL1
  6
CONTINUOUS
 62
     7
100
AcDbLine
 10
-0.926
 20
2.18189
 30
0.0
 11
-0.876
 21
2.18189
 31
0.0
  0
LINE
  5
1D3
100
AcDbEntity
  8
TRMODEL1
  6
CONTINUOUS
 62
     7
100
AcDbLine
 10
-0.876
 20
2.58189
 30
0.0
 11
-0.926
 21
2.58189
 31
0.0
  0
LINE
  5
1D4
100
AcDbEntity
  8
TRDETAIL3
  6
CENTER2
 62
     4
100
AcDbLine
 10
-0.070892
 20
0.248658
 30
0.0
 11
-0.070892
 21
1.251342
 31
0.0
  0
LINE
  5
1D5
100
AcDbEntity
  8
TRDETAIL3
  6
CENTER2
 62
     4
100
AcDbLine
 10
-0.572234
 20
0.75
 30
0.0
 11
0.43045
 21
0.75
 31
0.0
  0
LINE
  5
1D6
100
AcDbEntity
  8
TRDETAIL3
  6
CENTER2
 62
     4
100
AcDbLine
 10
0.0
 20
1.944472
 30
0.0
 11
0.0
 21
2.705291
 31
0.0
  0
ENDSEC
  0
SECTION
  2
OBJECTS
  0
DICTIONARY
  5
19
100
AcDbDictionary
  3
ACAD_GROUP
350
1A
  3
ACAD_MLINESTYLE
350
1B
  0
DICTIONARY
  5
1A
102
{ACAD_REACTORS
330
19
102
}
100
AcDbDictionary
  0
DICTIONARY
  5
1B
102
{ACAD_REACTORS
330
19
102
}
100
AcDbDictionary
  3
STANDARD
350
1C
  0
MLINESTYLE
  5
1C
102
{ACAD_REACTORS
330
1B
102
}
100
AcDbMlineStyle
  2
STANDARD
 70
     0
  3

 62
     0
 51
90.0
 52
90.0
 71
     2
 49
0.5
 62
   256
  6
BYLAYER
 49
-0.5
 62
   256
  6
BYLAYER
  0
ENDSEC
  0
EOF
