999
DXF file: C:\Users\sesa63760\Dev\_Creo\CAD\MCADID0002909_3D-CAD\drw0001_1.dxf
999
Pro/ENGINEER 2019471 by Parametric Technology Corporation
  0
SECTION
  2
HEADER
  9
$ACADVER
  1
AC1024
  9
$DWGCODEPAGE
  3
ANSI_1252
  9
$EXTMAX
 10
77.5528977029
 20
109.6819553227
 30
0.0
  9
$EXTMIN
 10
-0.0
 20
0.0
 30
0.0
  9
$LIMMIN
 10
-0.0
 20
0.0
  9
$LIMMAX
 10
77.5528977029
 20
109.6819553227
  9
$VIEWCTR
 10
38.7764488515
 20
54.8409776613
  9
$VIEWSIZE
 40
109.6819553227
  9
$CLAYER
  8
0
  9
$LTSCALE
 40
7.1496385692
  9
$CELTYPE
  6
BYLAYER
  9
$DIMSCALE
 40
1.0
  9
$DIMASZ
 40
0.9232487822
  9
$DIMEXO
 40
1.0
  9
$DIMDLI
 40
4.9397502842
  9
$DIMEXE
 40
1.0
  9
$DIMCEN
 40
1.1699408568
  9
$DIMLFAC
 40
1.0
  9
$DIMBLK
  1
_FILLED
  9
$DIMALT
 70
0
  9
$DIMALTF
 40
0.0393700787
  9
$DIMTXT
 40
1.292548295
  9
$DIMTOL
 70
1
  9
$DIMLIM
 70
0
  9
$DIMTFAC
 40
1.0
  9
$DIMTP
 40
0.01
  9
$DIMTM
 40
0.01
  9
$DIMGAP
 40
0.625
  9
$DIMDSEP
 70
46
  9
$AUNITS
 70
0
  9
$PDMODE
 70
3
  9
$PDSIZE
 40
0.3125
  9
$HANDSEED
  5
260
  9
$TILEMODE
 70
1
  9
$MEASUREMENT
 70
1
  9
$INSUNITS
 70
4
  0
ENDSEC
  0
SECTION
  2
CLASSES
  0
CLASS
  1
ACDBDICTIONARYWDFLT
  2
AcDbDictionaryWithDefault
  3
AutoCAD 2000
 90
0
 91
1
280
0
281
0
  0
CLASS
  1
ACDBPLACEHOLDER
  2
AcDbPlaceHolder
  3
AutoCAD 2000
 90
0
 91
1
280
0
281
0
  0
CLASS
  1
LAYOUT
  2
AcDbLayout
  3
AutoCAD 2000
 90
0
 91
0
280
0
281
0
  0
ENDSEC
  0
SECTION
  2
TABLES
  0
TABLE
  2
VPORT
  5
8
100
AcDbSymbolTable
 70
2
  0
VPORT
  5
1F4
100
AcDbSymbolTableRecord
100
AcDbViewportTableRecord
  2
*ACTIVE
 70
0
 10
0.0
 20
0.0
 11
1.0
 21
1.0
 12
38.7764488515
 22
54.8409776613
 13
0.0
 23
0.0
 14
1.0
 24
1.0
 15
0.0
 25
0.0
 16
0.0
 26
0.0
 36
1.0
 17
0.0
 27
0.0
 37
0.0
 40
109.6819553227
 41
0.7070707071
 42
50.0
 43
0.0
 44
0.0
 50
0.0
 51
0.0
 71
0
 72
100
 73
1
 74
1
 75
0
 76
0
 77
0
 78
0
  0
ENDTAB
  0
TABLE
  2
LTYPE
  5
5
100
AcDbSymbolTable
 70
6
  0
LTYPE
  5
14
100
AcDbSymbolTableRecord
100
AcDbLinetypeTableRecord
  2
BYBLOCK
 70
0
  3

 72
65
 73
0
 40
0.0
  0
LTYPE
  5
15
100
AcDbSymbolTableRecord
100
AcDbLinetypeTableRecord
  2
BYLAYER
 70
0
  3

 72
65
 73
0
 40
0.0
  0
LTYPE
  5
16
100
AcDbSymbolTableRecord
100
AcDbLinetypeTableRecord
  2
CONTINUOUS
 70
64
  3
Solid line
 72
65
 73
0
 40
0.0
  0
LTYPE
  5
1F5
100
AcDbSymbolTableRecord
100
AcDbLinetypeTableRecord
  2
CENTER
 70
64
  3
____ _ ____ _ ____ _ ____ _ ____ _ ____ _ ____
 72
65
 73
4
 40
0.6
 49
0.375
 74
0
 49
-0.075
 74
0
 49
0.075
 74
0
 49
-0.075
 74
0
  0
LTYPE
  5
1F6
100
AcDbSymbolTableRecord
100
AcDbLinetypeTableRecord
  2
HIDDEN
 70
64
  3
- - - - - - - - - - - - - - - - - - - -
 72
65
 73
2
 40
0.2
 49
0.1
 74
0
 49
-0.1
 74
0
  0
LTYPE
  5
1F7
100
AcDbSymbolTableRecord
100
AcDbLinetypeTableRecord
  2
PHANTOM
 70
64
  3
_____ _ _ _____ _ _ _____ _ _ _____
 72
65
 73
6
 40
0.8
 49
0.45
 74
0
 49
-0.05
 74
0
 49
0.1
 74
0
 49
-0.05
 74
0
 49
0.1
 74
0
 49
-0.05
 74
0
  0
LTYPE
  5
1F8
100
AcDbSymbolTableRecord
100
AcDbLinetypeTableRecord
  2
DOT
 70
64
  3
. . . . . . . . . . . . . . . . . . . .
 72
65
 73
2
 40
0.2
 49
0.1
 74
0
 49
-0.1
 74
0
  0
LTYPE
  5
1F9
100
AcDbSymbolTableRecord
100
AcDbLinetypeTableRecord
  2
DASHED
 70
64
  3
- - - - - - - - - - - - - - - - - - - -
 72
65
 73
2
 40
0.2
 49
0.1
 74
0
 49
-0.1
 74
0
  0
ENDTAB
  0
TABLE
  2
LAYER
  5
2
100
AcDbSymbolTable
 70
36
  0
LAYER
  5
10
100
AcDbSymbolTableRecord
100
AcDbLayerTableRecord
  2
0
 70
0
 62
7
  6
CONTINUOUS
370
-3
390
F
  0
LAYER
  5
1FA
100
AcDbSymbolTableRecord
100
AcDbLayerTableRecord
  2
DEFAULT_1
 70
0
 62
7
  6
CENTER
370
-3
390
F
  0
LAYER
  5
1FB
100
AcDbSymbolTableRecord
100
AcDbLayerTableRecord
  2
DEFAULT_2
 70
0
 62
7
  6
HIDDEN
370
-3
390
F
  0
LAYER
  5
1FC
100
AcDbSymbolTableRecord
100
AcDbLayerTableRecord
  2
DEFAULT_3
 70
0
 62
7
  6
PHANTOM
370
-3
390
F
  0
LAYER
  5
1FD
100
AcDbSymbolTableRecord
100
AcDbLayerTableRecord
  2
00_COMPONENTS
 70
0
 62
7
  6
CONTINUOUS
370
-3
390
F
  0
LAYER
  5
1FE
100
AcDbSymbolTableRecord
100
AcDbLayerTableRecord
  2
01_1_DEFAULT_DATUMS
 70
0
 62
7
  6
CONTINUOUS
370
-3
390
F
  0
LAYER
  5
1FF
100
AcDbSymbolTableRecord
100
AcDbLayerTableRecord
  2
01_PLANES
 70
0
 62
7
  6
CONTINUOUS
370
-3
390
F
  0
LAYER
  5
200
100
AcDbSymbolTableRecord
100
AcDbLayerTableRecord
  2
02_COORD_SYS
 70
0
 62
7
  6
CONTINUOUS
370
-3
390
F
  0
LAYER
  5
201
100
AcDbSymbolTableRecord
100
AcDbLayerTableRecord
  2
03_AXES
 70
0
 62
7
  6
CONTINUOUS
370
-3
390
F
  0
LAYER
  5
202
100
AcDbSymbolTableRecord
100
AcDbLayerTableRecord
  2
04_POINTS
 70
0
 62
7
  6
CONTINUOUS
370
-3
390
F
  0
LAYER
  5
203
100
AcDbSymbolTableRecord
100
AcDbLayerTableRecord
  2
05_CURVES
 70
0
 62
7
  6
CONTINUOUS
370
-3
390
F
  0
LAYER
  5
204
100
AcDbSymbolTableRecord
100
AcDbLayerTableRecord
  2
06_SURFS
 70
0
 62
7
  6
CONTINUOUS
370
-3
390
F
  0
LAYER
  5
205
100
AcDbSymbolTableRecord
100
AcDbLayerTableRecord
  2
07_COSMETICS
 70
0
 62
7
  6
CONTINUOUS
370
-3
390
F
  0
LAYER
  5
206
100
AcDbSymbolTableRecord
100
AcDbLayerTableRecord
  2
10_NOTES
 70
0
 62
7
  6
CONTINUOUS
370
-3
390
F
  0
LAYER
  5
207
100
AcDbSymbolTableRecord
100
AcDbLayerTableRecord
  2
11_NOTES_PUB
 70
0
 62
7
  6
CONTINUOUS
370
-3
390
F
  0
LAYER
  5
208
100
AcDbSymbolTableRecord
100
AcDbLayerTableRecord
  2
13_REF_GTOL
 70
0
 62
7
  6
CONTINUOUS
370
-3
390
F
  0
LAYER
  5
209
100
AcDbSymbolTableRecord
100
AcDbLayerTableRecord
  2
16_MISC
 70
0
 62
7
  6
CONTINUOUS
370
-3
390
F
  0
LAYER
  5
20A
100
AcDbSymbolTableRecord
100
AcDbLayerTableRecord
  2
17_NO_PRINT
 70
0
 62
7
  6
CONTINUOUS
370
-3
390
F
  0
LAYER
  5
20B
100
AcDbSymbolTableRecord
100
AcDbLayerTableRecord
  2
18_DATUM_CAMS_JOINTS
 70
0
 62
7
  6
CONTINUOUS
370
-3
390
F
  0
LAYER
  5
20C
100
AcDbSymbolTableRecord
100
AcDbLayerTableRecord
  2
19_DATUM_FUNCTIONAL
 70
0
 62
7
  6
CONTINUOUS
370
-3
390
F
  0
LAYER
  5
20D
100
AcDbSymbolTableRecord
100
AcDbLayerTableRecord
  2
20_DATUM_KINEMATIC_SCHEME
 70
0
 62
7
  6
CONTINUOUS
370
-3
390
F
  0
ENDTAB
  0
TABLE
  2
STYLE
  5
3
100
AcDbSymbolTable
 70
1
  0
STYLE
  5
11
100
AcDbSymbolTableRecord
100
AcDbTextStyleTableRecord
  2
STANDARD
 70
0
 40
0.0
 41
1.0
 50
0.0
 71
0
 42
0.2
  3
ARIAL.TTF
  4

  0
STYLE
  5
20E
100
AcDbSymbolTableRecord
100
AcDbTextStyleTableRecord
  2
TEXTSTYLE_1
 70
0
 40
0.0
 41
0.8
 50
0.0
 71
0
 42
0.2
  3
gdt
  4

  0
ENDTAB
  0
TABLE
  2
VIEW
  5
6
100
AcDbSymbolTable
 70
0
  0
ENDTAB
  0
TABLE
  2
UCS
  5
7
100
AcDbSymbolTable
 70
0
  0
ENDTAB
  0
TABLE
  2
APPID
  5
9
100
AcDbSymbolTable
 70
1
  0
APPID
  5
20F
100
AcDbSymbolTableRecord
100
AcDbRegAppTableRecord
  2
ACAD
 70
0
  0
ENDTAB
  0
TABLE
  2
BLOCK_RECORD
  5
1
100
AcDbSymbolTable
 70
0
  0
BLOCK_RECORD
  5
210
100
AcDbSymbolTableRecord
100
AcDbBlockTableRecord
  2
*Model_Space
  0
BLOCK_RECORD
  5
211
100
AcDbSymbolTableRecord
100
AcDbBlockTableRecord
  2
*Paper_Space
  0
BLOCK_RECORD
  5
212
100
AcDbSymbolTableRecord
100
AcDbBlockTableRecord
  2
_FILLED
  0
ENDTAB
  0
TABLE
  2
DIMSTYLE
  5
A
100
AcDbSymbolTable
 70
1
100
AcDbDimStyleTable
 71
0
  0
DIMSTYLE
105
213
100
AcDbSymbolTableRecord
100
AcDbDimStyleTableRecord
  2
STANDARD
 70
0
  3

  4

 40
1.0
 41
0.9232487822
 42
1.0
 43
0.38
 44
1.0
 45
0.0
 46
0.0
 47
0.01
 48
0.01
140
1.292548295
141
0.09
142
0.0
143
25.4
144
1.0
145
0.0
146
1.0
147
0.625
 71
1
 72
0
 73
0
 74
0
 75
0
 76
0
 77
1
 78
8
 79
2
170
0
171
1
172
0
173
0
174
0
175
0
176
0
177
0
178
0
270
2
179
2
271
2
272
2
273
2
274
2
275
0
280
0
281
0
282
0
283
1
284
8
285
0
286
0
287
3
288
0
340
11
278
46
341
212
342
212
343
212
344
212
  0
ENDTAB
  0
ENDSEC
  0
SECTION
  2
BLOCKS
  0
BLOCK
  5
20
100
AcDbEntity
  8
0
100
AcDbBlockBegin
  2
*Model_Space
 70
0
 10
0.0
 20
0.0
 30
0.0
  3
*Model_Space
  1

  0
ENDBLK
  5
21
100
AcDbEntity
  8
0
100
AcDbBlockEnd
  0
BLOCK
  5
1C
100
AcDbEntity
  8
0
100
AcDbBlockBegin
  2
*Paper_Space
 70
0
 10
0.0
 20
0.0
 30
0.0
  3
*Paper_Space
  1

  0
ENDBLK
  5
1D
100
AcDbEntity
  8
0
100
AcDbBlockEnd
  0
BLOCK
  5
214
100
AcDbEntity
  8
0
100
AcDbBlockBegin
  2
_FILLED
 70
64
 10
0.0
 20
0.0
  3
_FILLED
  1

  0
SOLID
  5
215
100
AcDbEntity
  8
0
  6
BYBLOCK
 62
0
100
AcDbTrace
 10
0.0
 20
0.0
 11
-1.0
 21
0.25
 12
-1.0
 22
-0.25
 13
-1.0
 23
-0.25
  0
ENDBLK
  5
216
100
AcDbEntity
  8
0
  6
BYBLOCK
 62
0
100
AcDbBlockEnd
  0
ENDSEC
  0
SECTION
  2
ENTITIES
  0
LINE
  5
217
100
AcDbEntity
  8
0
100
AcDbLine
 62
7
  6
BYLAYER
 10
8.9888845754
 20
45.371958859
 11
8.9888845754
 21
32.4099829871
  0
LINE
  5
218
100
AcDbEntity
  8
0
100
AcDbLine
 62
7
  6
BYLAYER
 10
12.1638845754
 20
45.371958859
 11
12.1638845754
 21
49.3901713793
  0
LINE
  5
219
100
AcDbEntity
  8
0
100
AcDbLine
 62
7
  6
BYLAYER
 10
14.7832595754
 20
49.9086504142
 11
14.7832595754
 21
49.3901713793
  0
LINE
  5
21A
100
AcDbEntity
  8
0
100
AcDbLine
 62
7
  6
BYLAYER
 10
19.0695095754
 20
49.9086504142
 11
19.0695095754
 21
49.3901713793
  0
LINE
  5
21B
100
AcDbEntity
  8
0
100
AcDbLine
 62
7
  6
BYLAYER
 10
20.1214033933
 20
43.6569803524
 11
20.1214033933
 21
46.8974743204
  0
LINE
  5
21C
100
AcDbEntity
  8
0
100
AcDbLine
 62
7
  6
BYLAYER
 10
21.6888845754
 20
48.9365022238
 11
21.6888845754
 21
49.3901713793
  0
LINE
  5
21D
100
AcDbEntity
  8
0
100
AcDbLine
 62
7
  6
BYLAYER
 10
24.8638845754
 20
45.371958859
 11
24.8638845754
 21
32.4099829871
  0
LINE
  5
21E
100
AcDbEntity
  8
0
100
AcDbLine
 62
7
  6
BYLAYER
 10
51.6983959082
 20
76.8468408112
 11
47.9437065786
 21
74.4505968801
  0
LINE
  5
21F
100
AcDbEntity
  8
0
100
AcDbLine
 62
7
  6
BYLAYER
 10
46.6107938076
 20
71.9796845393
 11
15.1170823822
 21
51.8779456289
  0
LINE
  5
220
100
AcDbEntity
  8
0
100
AcDbLine
 62
7
  6
BYLAYER
 10
58.3120761039
 20
68.464551366
 11
67.1525096017
 21
73.0818731396
  0
LINE
  5
221
100
AcDbEntity
  8
0
100
AcDbLine
 62
7
  6
BYLAYER
 10
47.9437065786
 20
74.4505968801
 11
46.6107938076
 21
71.9796845393
  0
LINE
  5
222
100
AcDbEntity
  8
0
100
AcDbLine
 62
7
  6
BYLAYER
 10
20.1214033933
 20
46.8974743204
 11
56.8386705209
 21
66.0747507531
  0
LINE
  5
223
100
AcDbEntity
  8
0
100
AcDbLine
 62
7
  6
BYLAYER
 10
56.8386705209
 20
62.8342567851
 11
20.1214033933
 21
43.6569803524
  0
LINE
  5
224
100
AcDbEntity
  8
0
100
AcDbLine
 62
7
  6
BYLAYER
 10
67.1525096017
 20
66.6008852036
 11
58.3120761039
 21
61.9835634301
  0
LINE
  5
225
100
AcDbEntity
  8
0
100
AcDbLine
 62
7
  6
BYLAYER
 10
48.7305908851
 20
74.9527866962
 11
48.7305701917
 21
77.8223606971
  0
LINE
  5
226
100
AcDbEntity
  8
0
100
AcDbLine
 62
7
  6
BYLAYER
 10
56.8386705209
 20
66.0747507531
 11
58.3120761039
 21
68.464551366
  0
LINE
  5
227
100
AcDbEntity
  8
0
100
AcDbLine
 62
7
  6
BYLAYER
 10
52.6993201916
 20
81.0628832851
 11
52.6993453073
 21
77.5800675768
  0
LINE
  5
228
100
AcDbEntity
  8
0
100
AcDbLine
 62
7
  6
BYLAYER
 10
56.2714876704
 20
76.4802528826
 11
56.3076305731
 21
76.8468518904
  0
LINE
  5
229
100
AcDbEntity
  8
0
100
AcDbLine
 62
7
  6
BYLAYER
 10
58.3120761039
 20
61.9835634301
 11
56.8386705209
 21
62.8342567851
  0
LINE
  5
22A
100
AcDbEntity
  8
0
100
AcDbLine
 62
7
  6
BYLAYER
 10
56.3076305731
 20
76.3411166829
 11
56.3076305731
 21
76.8468518904
  0
LINE
  5
22B
100
AcDbEntity
  8
0
100
AcDbLine
 62
7
  6
BYLAYER
 10
56.6079982015
 20
77.580076972
 11
56.6079982015
 21
75.4421370757
  0
LINE
  5
22C
100
AcDbEntity
  8
0
100
AcDbLine
 62
7
  6
BYLAYER
 10
56.8386705209
 20
66.0747507531
 11
46.6107938076
 21
71.9796845393
  0
LINE
  5
22D
100
AcDbEntity
  8
0
100
AcDbLine
 62
7
  6
BYLAYER
 10
56.3076305731
 20
76.8468518904
 11
51.6983959082
 21
76.8468408112
  0
LINE
  5
22E
100
AcDbEntity
  8
0
100
AcDbLine
 62
7
  6
BYLAYER
 10
58.3120761039
 20
68.464551366
 11
47.9437065786
 21
74.4505968801
  0
LINE
  5
22F
100
AcDbEntity
  8
0
100
AcDbLine
 62
7
  6
BYLAYER
 10
52.6993453073
 20
77.5800675768
 11
56.6079982015
 21
77.580076972
  0
LINE
  5
230
100
AcDbEntity
  8
0
100
AcDbLine
 62
7
  6
BYLAYER
 10
61.8274451915
 20
81.0629052264
 11
52.6993201916
 21
81.0628832851
  0
LINE
  5
231
100
AcDbEntity
  8
0
100
AcDbLine
 62
7
  6
BYLAYER
 10
67.1525096017
 20
73.0818731396
 11
67.1525096017
 21
66.6008852036
  0
LINE
  5
232
100
AcDbEntity
  8
0
100
AcDbLine
 62
7
  6
BYLAYER
 10
69.7649782385
 20
69.9992650427
 11
69.7649782385
 21
76.4802529786
  0
ARC
  5
233
100
AcDbEntity
  8
0
100
AcDbCircle
 62
7
  6
BYLAYER
 10
17.9784918248
 20
47.4387527153
 40
4.6313974472
100
AcDbArc
 50
297.5609684758
 51
299.8228099871
  0
SPLINE
  5
234
100
AcDbEntity
  8
0
100
AcDbSpline
 62
7
  6
BYLAYER
 70
0
 71
3
 72
11
 73
7
 74
0
 42
0.0000001
 43
0.0000001
 44
0.0000000001
 40
0.0
 40
0.0
 40
0.0
 40
0.0
 40
0.2430573971
 40
0.4968412472
 40
0.7522417102
 40
1.0
 40
1.0
 40
1.0
 40
1.0
 10
19.2531299978
 20
28.0665758961
 30
0.0
 10
18.9169086424
 20
27.9578933819
 30
0.0
 10
18.2105542747
 20
27.7922219066
 30
0.0
 10
17.1182361137
 20
27.6935556195
 30
0.0
 10
16.0157035397
 20
27.7415758457
 30
0.0
 10
15.2931388422
 20
27.8734199422
 30
0.0
 10
14.9448951254
 20
27.9653945598
 30
0.0
  0
SPLINE
  5
235
100
AcDbEntity
  8
0
100
AcDbSpline
 62
7
  6
BYLAYER
 70
0
 71
3
 72
17
 73
13
 74
0
 42
0.0000001
 43
0.0000001
 44
0.0000000001
 40
0.0
 40
0.0
 40
0.0
 40
0.0
 40
0.1043271175
 40
0.1613861977
 40
0.2214034794
 40
0.3487939377
 40
0.4830210787
 40
0.6197083242
 40
0.7542309481
 40
0.8821736979
 40
0.9425757647
 40
1.0
 40
1.0
 40
1.0
 40
1.0
 10
40.1226868048
 20
58.0496662585
 30
0.0
 10
39.9007150131
 20
58.2612243462
 30
0.0
 10
39.5127017343
 20
58.543044549
 30
0.0
 10
38.9368051656
 20
58.8467363079
 30
0.0
 10
38.2730645693
 20
59.1244528279
 30
0.0
 10
37.3591003352
 20
59.3808120917
 30
0.0
 10
36.1956250012
 20
59.537882152
 30
0.0
 10
35.0005566871
 20
59.5427768751
 30
0.0
 10
33.8333917743
 20
59.3951836209
 30
0.0
 10
32.913485859
 20
59.1464626239
 30
0.0
 10
32.243574793
 20
58.8743379027
 30
0.0
 10
31.9347852856
 20
58.7162093563
 30
0.0
 10
31.7886151716
 20
58.6318185053
 30
0.0
  0
SPLINE
  5
236
100
AcDbEntity
  8
0
100
AcDbSpline
 62
7
  6
BYLAYER
 70
0
 71
3
 72
9
 73
5
 74
0
 42
0.0000001
 43
0.0000001
 44
0.0000000001
 40
0.0
 40
0.0
 40
0.0
 40
0.0
 40
0.4830977743
 40
1.0
 40
1.0
 40
1.0
 40
1.0
 10
22.5390680187
 20
29.1695719981
 30
0.0
 10
22.2154890773
 20
28.9827547243
 30
0.0
 10
21.5164773011
 20
28.6456044053
 30
0.0
 10
20.782252624
 20
28.3967575582
 30
0.0
 10
20.3973511218
 20
28.2887028575
 30
0.0
  0
SPLINE
  5
237
100
AcDbEntity
  8
0
100
AcDbSpline
 62
7
  6
BYLAYER
 70
0
 71
3
 72
21
 73
17
 74
0
 42
0.0000001
 43
0.0000001
 44
0.0000000001
 40
0.0
 40
0.0
 40
0.0
 40
0.0
 40
0.0705767587
 40
0.1431225943
 40
0.2910307083
 40
0.4376200499
 40
0.5085563075
 40
0.5769609596
 40
0.6422487941
 40
0.703959123
 40
0.761799271
 40
0.8156856305
 40
0.8657936813
 40
0.9126127438
 40
0.9569699296
 40
1.0
 40
1.0
 40
1.0
 40
1.0
 10
20.3973511218
 20
28.2887028575
 30
0.0
 10
20.0912905228
 20
28.2027814302
 30
0.0
 10
19.4629562729
 20
28.0548449451
 30
0.0
 10
18.1664522731
 20
27.8545372945
 30
0.0
 10
16.5083983217
 20
27.785935861
 30
0.0
 10
14.8645564364
 20
27.9545403836
 30
0.0
 10
13.6061570457
 20
28.2341598834
 30
0.0
 10
12.7247909551
 20
28.5077143792
 30
0.0
 10
11.9096428315
 20
28.8430191787
 30
0.0
 10
11.173430101
 20
29.235035616
 30
0.0
 10
10.527606347
 20
29.6778341333
 30
0.0
 10
9.9822890576
 20
30.1650105425
 30
0.0
 10
9.5463948161
 20
30.6897442074
 30
0.0
 10
9.2276626013
 20
31.2447369468
 30
0.0
 10
9.0328350699
 20
31.8212777805
 30
0.0
 10
8.9889248091
 20
32.2161666774
 30
0.0
 10
8.9889067331
 20
32.409983067
 30
0.0
  0
SPLINE
  5
238
100
AcDbEntity
  8
0
100
AcDbSpline
 62
7
  6
BYLAYER
 70
0
 71
3
 72
14
 73
10
 74
0
 42
0.0000001
 43
0.0000001
 44
0.0000000001
 40
0.0
 40
0.0
 40
0.0
 40
0.0
 40
0.1080439353
 40
0.2181284356
 40
0.3321077052
 40
0.4514901687
 40
0.5774361683
 40
0.7107375522
 40
1.0
 40
1.0
 40
1.0
 40
1.0
 10
40.8943171713
 20
59.6947562895
 30
0.0
 10
40.8943071022
 20
59.5937805839
 30
0.0
 10
40.8767883945
 20
59.3895124467
 30
0.0
 10
40.7985121047
 20
59.0877930883
 30
0.0
 10
40.669286478
 20
58.7925993208
 30
0.0
 10
40.4908699121
 20
58.5068651126
 30
0.0
 10
40.2650643297
 20
58.2331891775
 30
0.0
 10
39.8940846537
 20
57.8781450174
 30
0.0
 10
39.5661824342
 20
57.6523689549
 30
0.0
 10
39.3320617195
 20
57.5172001041
 30
0.0
  0
SPLINE
  5
239
100
AcDbEntity
  8
0
100
AcDbSpline
 62
7
  6
BYLAYER
 70
0
 71
3
 72
15
 73
11
 74
0
 42
0.0000001
 43
0.0000001
 44
0.0000000001
 40
0.0
 40
0.0
 40
0.0
 40
0.0
 40
0.1485427125
 40
0.2895072409
 40
0.4227377027
 40
0.5486433572
 40
0.668000835
 40
0.7819418297
 40
0.8919889732
 40
1.0
 40
1.0
 40
1.0
 40
1.0
 10
11.313701132
 20
48.612369848
 30
0.0
 10
11.1347352937
 20
48.5090444899
 30
0.0
 10
10.794056537
 20
48.2930493665
 30
0.0
 10
10.3281988295
 20
47.9325784837
 30
0.0
 10
9.9252865073
 20
47.5468777086
 30
0.0
 10
9.589323651
 20
47.1396682469
 30
0.0
 10
9.3237562755
 20
46.7144760262
 30
0.0
 10
9.1314525548
 20
46.2751832306
 30
0.0
 10
9.0150078099
 20
45.8261930019
 30
0.0
 10
8.9888930515
 20
45.5222231846
 30
0.0
 10
8.9889069968
 20
45.3719589574
 30
0.0
  0
SPLINE
  5
23A
100
AcDbEntity
  8
0
100
AcDbSpline
 62
7
  6
BYLAYER
 70
0
 71
3
 72
19
 73
15
 74
0
 42
0.0000001
 43
0.0000001
 44
0.0000000001
 40
0.0
 40
0.0
 40
0.0
 40
0.0
 40
0.0428385813
 40
0.0874433473
 40
0.1352550426
 40
0.1871926702
 40
0.2436711226
 40
0.3046633752
 40
0.4382672724
 40
0.5825427179
 40
0.7296393023
 40
0.8711669517
 40
0.9376091523
 40
1.0
 40
1.0
 40
1.0
 40
1.0
 10
19.0695022693
 20
49.9086504183
 30
0.0
 10
19.0695068875
 20
49.9696577734
 30
0.0
 10
19.0531533745
 20
50.0947118298
 30
0.0
 10
18.9814720621
 20
50.2753045356
 30
0.0
 10
18.8650607788
 20
50.4464769317
 30
0.0
 10
18.7073306325
 20
50.6048910406
 30
0.0
 10
18.5118679763
 20
50.7477467411
 30
0.0
 10
18.1969736375
 20
50.9189103577
 30
0.0
 10
17.7356023922
 20
51.0730349322
 30
0.0
 10
17.13346042
 20
51.1575789646
 30
0.0
 10
16.5144413529
 20
51.1405066265
 30
0.0
 10
16.0154770492
 20
51.0407420746
 30
0.0
 10
15.6529645249
 20
50.909302482
 30
0.0
 10
15.4879083908
 20
50.8279872638
 30
0.0
 10
15.4109600457
 20
50.7835613812
 30
0.0
  0
SPLINE
  5
23B
100
AcDbEntity
  8
0
100
AcDbSpline
 62
7
  6
BYLAYER
 70
0
 71
3
 72
22
 73
18
 74
0
 42
0.0000001
 43
0.0000001
 44
0.0000000001
 40
0.0
 40
0.0
 40
0.0
 40
0.0
 40
0.0427873387
 40
0.0872705706
 40
0.1348360927
 40
0.186398981
 40
0.242384976
 40
0.3028041
 40
0.3673379899
 40
0.4354113421
 40
0.5062628287
 40
0.5790011175
 40
0.7260658906
 40
0.7984985224
 40
0.8688466635
 40
0.9362812701
 40
1.0
 40
1.0
 40
1.0
 40
1.0
 10
21.6888778828
 20
49.390171378
 30
0.0
 10
21.6888757759
 20
49.5228440358
 30
0.0
 10
21.6541999209
 20
49.7945551059
 30
0.0
 10
21.5016331516
 20
50.187594656
 30
0.0
 10
21.2537476647
 20
50.5611395628
 30
0.0
 10
20.9172431672
 20
50.9079665852
 30
0.0
 10
20.4996698853
 20
51.2221967854
 30
0.0
 10
20.0095855629
 20
51.498182041
 30
0.0
 10
19.4568033374
 20
51.7306798882
 30
0.0
 10
18.8524890652
 20
51.9151611827
 30
0.0
 10
18.2088104652
 20
52.0480093639
 30
0.0
 10
17.3128727006
 20
52.1528735078
 30
0.0
 10
16.4016940699
 20
52.1453369609
 30
0.0
 10
15.5101830739
 20
52.0252785996
 30
0.0
 10
14.8733818321
 20
51.8816545749
 30
0.0
 10
14.2787006122
 20
51.6869961876
 30
0.0
 10
13.9064932713
 20
51.5206676574
 30
0.0
 10
13.7313657574
 20
51.4291992828
 30
0.0
  0
SPLINE
  5
23C
100
AcDbEntity
  8
0
100
AcDbSpline
 62
7
  6
BYLAYER
 70
0
 71
3
 72
11
 73
7
 74
0
 42
0.0000001
 43
0.0000001
 44
0.0000000001
 40
0.0
 40
0.0
 40
0.0
 40
0.0
 40
0.2435012882
 40
0.4898016233
 40
0.7413571876
 40
1.0
 40
1.0
 40
1.0
 40
1.0
 10
48.7305829889
 20
77.8223606978
 30
0.0
 10
48.7305834308
 20
77.9886617399
 30
0.0
 10
48.7624197615
 20
78.3240069996
 30
0.0
 10
48.9040512067
 20
78.8129797654
 30
0.0
 10
49.1356948034
 20
79.2777252811
 30
0.0
 10
49.3433573452
 20
79.5598722289
 30
0.0
 10
49.4589899068
 20
79.693406974
 30
0.0
  0
SPLINE
  5
23D
100
AcDbEntity
  8
0
100
AcDbSpline
 62
7
  6
BYLAYER
 70
0
 71
3
 72
11
 73
7
 74
0
 42
0.0000001
 43
0.0000001
 44
0.0000000001
 40
0.0
 40
0.0
 40
0.0
 40
0.0
 40
0.2361471458
 40
0.4833432762
 40
0.7392680889
 40
1.0
 40
1.0
 40
1.0
 40
1.0
 10
49.4589899068
 20
79.693406974
 30
0.0
 10
49.6454233152
 20
79.9087039226
 30
0.0
 10
50.0851004848
 20
80.3014384595
 30
0.0
 10
50.8725143733
 20
80.7335629264
 30
0.0
 10
51.7600357469
 20
81.0023600231
 30
0.0
 10
52.3848719277
 20
81.0628825292
 30
0.0
 10
52.6993201916
 20
81.0628832851
 30
0.0
  0
SPLINE
  5
23E
100
AcDbEntity
  8
0
100
AcDbSpline
 62
7
  6
BYLAYER
 70
0
 71
3
 72
9
 73
5
 74
0
 42
0.0000001
 43
0.0000001
 44
0.0000000001
 40
0.0
 40
0.0
 40
0.0
 40
0.0
 40
0.2605574048
 40
1.0
 40
1.0
 40
1.0
 40
1.0
 10
31.7886151716
 20
58.6318185053
 30
0.0
 10
31.723569488
 20
58.5942645866
 30
0.0
 10
31.4772595405
 20
58.4445422255
 30
0.0
 10
31.2444985406
 20
58.2717773229
 30
0.0
 10
31.0852682139
 20
58.1300761076
 30
0.0
  0
SPLINE
  5
23F
100
AcDbEntity
  8
0
100
AcDbSpline
 62
7
  6
BYLAYER
 70
0
 71
3
 72
14
 73
10
 74
0
 42
0.0000001
 43
0.0000001
 44
0.0000000001
 40
0.0
 40
0.0
 40
0.0
 40
0.0
 40
0.1080438699
 40
0.2181282636
 40
0.3321073853
 40
0.4514897684
 40
0.5774358229
 40
0.7107373883
 40
1.0
 40
1.0
 40
1.0
 40
1.0
 10
67.3837060549
 20
76.4802529794
 30
0.0
 10
67.3836955747
 20
76.3750700173
 30
0.0
 10
67.3654470003
 20
76.1622908643
 30
0.0
 10
67.2839091818
 20
75.8480002086
 30
0.0
 10
67.1492996205
 20
75.5405068585
 30
0.0
 10
66.9634490316
 20
75.2428672507
 30
0.0
 10
66.7282349796
 20
74.9577878905
 30
0.0
 10
66.3417975506
 20
74.5879499291
 30
0.0
 10
66.0002325293
 20
74.3527662512
 30
0.0
 10
65.7563566488
 20
74.2119652863
 30
0.0
  0
SPLINE
  5
240
100
AcDbEntity
  8
0
100
AcDbSpline
 62
7
  6
BYLAYER
 70
0
 71
3
 72
9
 73
5
 74
0
 42
0.0000001
 43
0.0000001
 44
0.0000000001
 40
0.0
 40
0.0
 40
0.0
 40
0.0
 40
0.2453211626
 40
1.0
 40
1.0
 40
1.0
 40
1.0
 10
67.7137732725
 20
66.9249290007
 30
0.0
 10
67.6690911783
 20
66.8964128739
 30
0.0
 10
67.4856239061
 20
66.7822651686
 30
0.0
 10
67.2970452865
 20
66.6763755927
 30
0.0
 10
67.1525096017
 20
66.6008852036
 30
0.0
  0
SPLINE
  5
241
100
AcDbEntity
  8
0
100
AcDbSpline
 62
7
  6
BYLAYER
 70
0
 71
3
 72
9
 73
5
 74
0
 42
0.0000001
 43
0.0000001
 44
0.0000000001
 40
0.0
 40
0.0
 40
0.0
 40
0.0
 40
0.4877784162
 40
1.0
 40
1.0
 40
1.0
 40
1.0
 10
49.5325176455
 20
75.559488526
 30
0.0
 10
49.7502475385
 20
75.7948526335
 30
0.0
 10
50.2667139182
 20
76.215344053
 30
0.0
 10
50.868854409
 20
76.4953283574
 30
0.0
 10
51.1879952142
 20
76.6026269576
 30
0.0
  0
SPLINE
  5
242
100
AcDbEntity
  8
0
100
AcDbSpline
 62
7
  6
BYLAYER
 70
0
 71
3
 72
20
 73
16
 74
0
 42
0.0000001
 43
0.0000001
 44
0.0000000001
 40
0.0
 40
0.0
 40
0.0
 40
0.0
 40
0.0450595517
 40
0.0909688566
 40
0.138500798
 40
0.1882933193
 40
0.2408242921
 40
0.2964007323
 40
0.3551791995
 40
0.4171728549
 40
0.4822842219
 40
0.5503131627
 40
0.6938643493
 40
0.8449638786
 40
1.0
 40
1.0
 40
1.0
 40
1.0
 10
69.7649600554
 20
76.4802530054
 30
0.0
 10
69.7649723563
 20
76.6305190023
 30
0.0
 10
69.7388239272
 20
76.9344901601
 30
0.0
 10
69.6224004495
 20
77.383485467
 30
0.0
 10
69.4300955192
 20
77.8227791909
 30
0.0
 10
69.1645226913
 20
78.2479925169
 30
0.0
 10
68.8285111683
 20
78.6551807773
 30
0.0
 10
68.4256771718
 20
79.0408282164
 30
0.0
 10
67.9598388549
 20
79.4013564466
 30
0.0
 10
67.4355896997
 20
79.7336726289
 30
0.0
 10
66.8577926065
 20
80.0345953372
 30
0.0
 10
66.0083209927
 20
80.3968009319
 30
0.0
 10
64.847266766
 20
80.7496579485
 30
0.0
 10
63.3663990232
 20
81.0055632875
 30
0.0
 10
62.3444644814
 20
81.0629064691
 30
0.0
 10
61.8274451915
 20
81.0629052264
 30
0.0
  0
SPLINE
  5
243
100
AcDbEntity
  8
0
100
AcDbSpline
 62
7
  6
BYLAYER
 70
0
 71
3
 72
14
 73
10
 74
0
 42
0.0000001
 43
0.0000001
 44
0.0000000001
 40
0.0
 40
0.0
 40
0.0
 40
0.0
 40
0.1095270601
 40
0.2208705287
 40
0.335703811
 40
0.4554208484
 40
0.5811284646
 40
0.7136291122
 40
1.0
 40
1.0
 40
1.0
 40
1.0
 10
69.7649600454
 20
69.9992650694
 30
0.0
 10
69.764948529
 20
69.858604641
 30
0.0
 10
69.742130329
 20
69.5744519546
 30
0.0
 10
69.6402161368
 20
69.1538659238
 30
0.0
 10
69.4716334459
 20
68.7411828063
 30
0.0
 10
69.2384755988
 20
68.34001541
 30
0.0
 10
68.9427681717
 20
67.953617348
 30
0.0
 10
68.4564911373
 20
67.4493939158
 30
0.0
 10
68.0237906821
 20
67.1227822107
 30
0.0
 10
67.7137732725
 20
66.9249290007
 30
0.0
  0
SPLINE
  5
244
100
AcDbEntity
  8
0
100
AcDbSpline
 62
7
  6
BYLAYER
 70
0
 71
3
 72
24
 73
20
 74
0
 42
0.0000001
 43
0.0000001
 44
0.0000000001
 40
0.0
 40
0.0
 40
0.0
 40
0.0
 40
0.0623734594
 40
0.1287366352
 40
0.1983249539
 40
0.2703063231
 40
0.3436881926
 40
0.4174229099
 40
0.4904516618
 40
0.5617420962
 40
0.6303429282
 40
0.6954352445
 40
0.7563875148
 40
0.8128281783
 40
0.8647335245
 40
0.9125121729
 40
0.9570859122
 40
0.978654508
 40
1.0
 40
1.0
 40
1.0
 40
1.0
 10
65.7563566488
 20
74.2119652863
 30
0.0
 10
65.5567777196
 20
74.0967390256
 30
0.0
 10
65.1289433028
 20
73.8858493011
 30
0.0
 10
64.4388937481
 20
73.6357346714
 30
0.0
 10
63.6931025275
 20
73.4464422587
 30
0.0
 10
62.9076962895
 20
73.3218835592
 30
0.0
 10
62.099216336
 20
73.264737778
 30
0.0
 10
61.284948681
 20
73.27618769
 30
0.0
 10
60.4822538374
 20
73.3559802643
 30
0.0
 10
59.7082396639
 20
73.5024776463
 30
0.0
 10
58.9793452726
 20
73.7125380622
 30
0.0
 10
58.3109655207
 20
73.9817622788
 30
0.0
 10
57.7171616053
 20
74.3047075696
 30
0.0
 10
57.2103662124
 20
74.6749895596
 30
0.0
 10
56.8013763152
 20
75.0857490674
 30
0.0
 10
56.4995593334
 20
75.5293016852
 30
0.0
 10
56.3428173846
 20
75.9245405828
 30
0.0
 10
56.281425322
 20
76.2426331053
 30
0.0
 10
56.2712864854
 20
76.4013868969
 30
0.0
 10
56.2712885901
 20
76.4802528843
 30
0.0
  0
SPLINE
  5
245
100
AcDbEntity
  8
0
100
AcDbSpline
 62
7
  6
BYLAYER
 70
0
 71
3
 72
23
 73
19
 74
0
 42
0.0000001
 43
0.0000001
 44
0.0000000001
 40
0.0
 40
0.0
 40
0.0
 40
0.0
 40
0.0623787811
 40
0.1287508392
 40
0.1983472138
 40
0.2703368007
 40
0.3437259688
 40
0.4174681422
 40
0.4905058247
 40
0.5618044893
 40
0.6304129808
 40
0.6955118848
 40
0.7564685982
 40
0.8129139162
 40
0.864823126
 40
0.9126056568
 40
0.9571866901
 40
1.0
 40
1.0
 40
1.0
 40
1.0
 10
39.3320617195
 20
57.5172001041
 30
0.0
 10
39.1404661215
 20
57.4065829943
 30
0.0
 10
38.729733194
 20
57.204128125
 30
0.0
 10
38.06727002
 20
56.9640081273
 30
0.0
 10
37.3512848255
 20
56.7822817946
 30
0.0
 10
36.5972746931
 20
56.6627187187
 30
0.0
 10
35.8211198321
 20
56.607857371
 30
0.0
 10
35.0394059418
 20
56.6188546869
 30
0.0
 10
34.2687994792
 20
56.6954717192
 30
0.0
 10
33.5257269392
 20
56.8361318632
 30
0.0
 10
32.8259741618
 20
57.0378008284
 30
0.0
 10
32.1843272278
 20
57.2962721618
 30
0.0
 10
31.6142937742
 20
57.6063293709
 30
0.0
 10
31.127795317
 20
57.9618398221
 30
0.0
 10
30.7351568541
 20
58.3560924149
 30
0.0
 10
30.4454637019
 20
58.782172119
 30
0.0
 10
30.2669951039
 20
59.2316419423
 30
0.0
 10
30.2263445782
 20
59.5429128023
 30
0.0
 10
30.2263597198
 20
59.694756288
 30
0.0
  0
SPLINE
  5
246
100
AcDbEntity
  8
0
100
AcDbSpline
 62
7
  6
BYLAYER
 70
0
 71
3
 72
15
 73
11
 74
0
 42
0.0000001
 43
0.0000001
 44
0.0000000001
 40
0.0
 40
0.0
 40
0.0
 40
0.0
 40
0.1080096779
 40
0.218055907
 40
0.3319966059
 40
0.4513535154
 40
0.5772591893
 40
0.7104909603
 40
0.8514574029
 40
1.0
 40
1.0
 40
1.0
 40
1.0
 10
24.8638624176
 20
32.4099829072
 30
0.0
 10
24.8638764316
 20
32.2597205797
 30
0.0
 10
24.8377587862
 20
31.9557544351
 30
0.0
 10
24.7213206551
 20
31.5067662945
 30
0.0
 10
24.5290148887
 20
31.067477093
 30
0.0
 10
24.2634538367
 20
30.6422826408
 30
0.0
 10
23.9274895343
 20
30.2350727989
 30
0.0
 10
23.5245756112
 20
29.8493673802
 30
0.0
 10
23.0587135514
 20
29.4888951079
 30
0.0
 10
22.7180336907
 20
29.2728972602
 30
0.0
 10
22.5390680187
 20
29.1695719981
 30
0.0
  0
SPLINE
  5
247
100
AcDbEntity
  8
0
100
AcDbSpline
 62
7
  6
BYLAYER
 70
0
 71
3
 72
9
 73
5
 74
0
 42
0.0000001
 43
0.0000001
 44
0.0000000001
 40
0.0
 40
0.0
 40
0.0
 40
0.0
 40
0.497337135
 40
1.0
 40
1.0
 40
1.0
 40
1.0
 10
24.863862154
 20
45.3719587607
 30
0.0
 10
24.8638516997
 20
45.4846069899
 30
0.0
 10
24.849309239
 20
45.7113365714
 30
0.0
 10
24.8062414704
 20
45.9343781427
 30
0.0
 10
24.7778938184
 20
46.0446471903
 30
0.0
  0
SPLINE
  5
248
100
AcDbEntity
  8
0
100
AcDbSpline
 62
7
  6
BYLAYER
 70
0
 71
3
 72
9
 73
5
 74
0
 42
0.0000001
 43
0.0000001
 44
0.0000000001
 40
0.0
 40
0.0
 40
0.0
 40
0.0
 40
0.2558161905
 40
1.0
 40
1.0
 40
1.0
 40
1.0
 10
12.0881732269
 20
49.0048529336
 30
0.0
 10
12.0204884578
 20
48.9748016427
 30
0.0
 10
11.7573744328
 20
48.8540654355
 30
0.0
 10
11.50027224
 20
48.7200860845
 30
0.0
 10
11.313701132
 20
48.612369848
 30
0.0
  0
SPLINE
  5
249
100
AcDbEntity
  8
0
100
AcDbSpline
 62
7
  6
BYLAYER
 70
0
 71
3
 72
20
 73
16
 74
0
 42
0.0000001
 43
0.0000001
 44
0.0000000001
 40
0.0
 40
0.0
 40
0.0
 40
0.0
 40
0.0551963941
 40
0.1112544574
 40
0.1686764154
 40
0.2278533514
 40
0.2889369661
 40
0.3518998205
 40
0.482239356
 40
0.61610807
 40
0.7493284013
 40
0.8145574508
 40
0.878223758
 40
0.9400706842
 40
1.0
 40
1.0
 40
1.0
 40
1.0
 10
49.529288595
 20
79.80016949
 30
0.0
 10
49.5385856504
 20
79.9353364434
 30
0.0
 10
49.5835607578
 20
80.2066650415
 30
0.0
 10
49.7273383059
 20
80.5973283795
 30
0.0
 10
49.9437095588
 20
80.9642991293
 30
0.0
 10
50.2268647967
 20
81.2985975822
 30
0.0
 10
50.5698020267
 20
81.5924049508
 30
0.0
 10
51.1008202325
 20
81.9245684518
 30
0.0
 10
51.8666312856
 20
82.200260953
 30
0.0
 10
52.8481556007
 20
82.2866211975
 30
0.0
 10
53.6628048421
 20
82.151764749
 30
0.0
 10
54.2657207439
 20
81.922421871
 30
0.0
 10
54.6776748287
 20
81.6964701242
 30
0.0
 10
55.041979419
 20
81.4208713287
 30
0.0
 10
55.2505296448
 20
81.2045894049
 30
0.0
 10
55.3434094807
 20
81.0905154024
 30
0.0
  0
SPLINE
  5
24A
100
AcDbEntity
  8
0
100
AcDbSpline
 62
7
  6
BYLAYER
 70
0
 71
3
 72
14
 73
10
 74
0
 42
0.0000001
 43
0.0000001
 44
0.0000000001
 40
0.0
 40
0.0
 40
0.0
 40
0.0
 40
0.291995746
 40
0.4260724576
 40
0.5522852991
 40
0.671386758
 40
0.7845564136
 40
0.8934118449
 40
1.0
 40
1.0
 40
1.0
 40
1.0
 10
13.7313657574
 20
51.4291992828
 30
0.0
 10
13.4984396813
 20
51.3075429587
 30
0.0
 10
13.1711504524
 20
51.1016812073
 30
0.0
 10
12.7984674238
 20
50.7714846161
 30
0.0
 10
12.571315829
 20
50.515281038
 30
0.0
 10
12.3914357341
 20
50.2461428038
 30
0.0
 10
12.2608383501
 20
49.9668353237
 30
0.0
 10
12.1816974696
 20
49.6804178933
 30
0.0
 10
12.1638897445
 20
49.4860958519
 30
0.0
 10
12.1638912679
 20
49.3901713807
 30
0.0
  0
SPLINE
  5
24B
100
AcDbEntity
  8
0
100
AcDbSpline
 62
7
  6
BYLAYER
 70
0
 71
3
 72
11
 73
7
 74
0
 42
0.0000001
 43
0.0000001
 44
0.0000000001
 40
0.0
 40
0.0
 40
0.0
 40
0.0
 40
0.2897031353
 40
0.5490914015
 40
0.7822201129
 40
1.0
 40
1.0
 40
1.0
 40
1.0
 10
15.4109600457
 20
50.7835613812
 30
0.0
 10
15.3169230257
 20
50.7292694065
 30
0.0
 10
15.1463151904
 20
50.6117602364
 30
0.0
 10
14.9424111787
 20
50.3974733561
 30
0.0
 10
14.8134308632
 20
50.1604138606
 30
0.0
 10
14.7832730604
 20
49.9902770933
 30
0.0
 10
14.7832668814
 20
49.9086504101
 30
0.0
  0
SPLINE
  5
24C
100
AcDbEntity
  8
0
100
AcDbSpline
 62
7
  6
BYLAYER
 70
0
 71
3
 72
14
 73
10
 74
0
 42
0.0000001
 43
0.0000001
 44
0.0000000001
 40
0.0
 40
0.0
 40
0.0
 40
0.0
 40
0.2863708865
 40
0.4188715277
 40
0.5445791436
 40
0.6642961837
 40
0.7791294679
 40
0.8904729375
 40
1.0
 40
1.0
 40
1.0
 40
1.0
 10
67.7137732725
 20
73.4059169367
 30
0.0
 10
68.023790681
 20
73.6037701459
 30
0.0
 10
68.4564911349
 20
73.9303818384
 30
0.0
 10
68.9427681567
 20
74.4346052692
 30
0.0
 10
69.2384755879
 20
74.8210033226
 30
0.0
 10
69.4716334372
 20
75.2221707238
 30
0.0
 10
69.6402161509
 20
75.6348538417
 30
0.0
 10
69.7421303208
 20
76.0554398848
 30
0.0
 10
69.7649485409
 20
76.3395925737
 30
0.0
 10
69.7649600554
 20
76.4802530054
 30
0.0
  0
SPLINE
  5
24D
100
AcDbEntity
  8
0
100
AcDbSpline
 62
7
  6
BYLAYER
 70
0
 71
3
 72
9
 73
5
 74
0
 42
0.0000001
 43
0.0000001
 44
0.0000000001
 40
0.0
 40
0.0
 40
0.0
 40
0.0
 40
0.2546961818
 40
1.0
 40
1.0
 40
1.0
 40
1.0
 10
67.1525096017
 20
73.0818731396
 30
0.0
 10
67.2012886626
 20
73.1073502409
 30
0.0
 10
67.3917739562
 20
73.2093394371
 30
0.0
 10
67.5780263666
 20
73.3192832179
 30
0.0
 10
67.7137732725
 20
73.4059169367
 30
0.0
  0
SPLINE
  5
24E
100
AcDbEntity
  8
0
100
AcDbSpline
 62
7
  6
BYLAYER
 70
0
 71
3
 72
19
 73
15
 74
0
 42
0.0000001
 43
0.0000001
 44
0.0000000001
 40
0.0
 40
0.0
 40
0.0
 40
0.0
 40
0.0428385813
 40
0.0874433473
 40
0.1352550426
 40
0.1871926702
 40
0.2436711226
 40
0.3046633752
 40
0.4382672724
 40
0.5825427179
 40
0.7296393023
 40
0.8711669517
 40
0.9376091523
 40
1.0
 40
1.0
 40
1.0
 40
1.0
 10
14.7832668814
 20
49.9086504101
 30
0.0
 10
14.7832622632
 20
49.847643055
 30
0.0
 10
14.7996157763
 20
49.7225889986
 30
0.0
 10
14.8712970887
 20
49.5419962928
 30
0.0
 10
14.987708372
 20
49.3708238967
 30
0.0
 10
15.1454385183
 20
49.2124097879
 30
0.0
 10
15.3409011744
 20
49.0695540874
 30
0.0
 10
15.6557955133
 20
48.8983904707
 30
0.0
 10
16.1171667585
 20
48.7442658963
 30
0.0
 10
16.7193087308
 20
48.6597218638
 30
0.0
 10
17.3383277978
 20
48.6767942019
 30
0.0
 10
17.8372921016
 20
48.7765587539
 30
0.0
 10
18.1998046258
 20
48.9079983464
 30
0.0
 10
18.3648607599
 20
48.9893135646
 30
0.0
 10
18.4418091051
 20
49.0337394472
 30
0.0
  0
SPLINE
  5
24F
100
AcDbEntity
  8
0
100
AcDbSpline
 62
7
  6
BYLAYER
 70
0
 71
3
 72
9
 73
5
 74
0
 42
0.0000001
 43
0.0000001
 44
0.0000000001
 40
0.0
 40
0.0
 40
0.0
 40
0.0
 40
0.2334155972
 40
1.0
 40
1.0
 40
1.0
 40
1.0
 10
21.1839864509
 20
44.1398752077
 30
0.0
 10
21.1249731188
 20
44.0719040013
 30
0.0
 10
20.8572204334
 20
43.7936620469
 30
0.0
 10
20.5382368042
 20
43.567749799
 30
0.0
 10
20.2817755651
 20
43.4207026503
 30
0.0
  0
SPLINE
  5
250
100
AcDbEntity
  8
0
100
AcDbSpline
 62
7
  6
BYLAYER
 70
0
 71
3
 72
23
 73
19
 74
0
 42
0.0000001
 43
0.0000001
 44
0.0000000001
 40
0.0
 40
0.0
 40
0.0
 40
0.0
 40
0.0623787811
 40
0.1287508392
 40
0.1983472138
 40
0.2703368007
 40
0.3437259688
 40
0.4174681422
 40
0.4905058247
 40
0.5618044893
 40
0.6304129808
 40
0.6955118848
 40
0.7564685982
 40
0.8129139162
 40
0.864823126
 40
0.9126056568
 40
0.9571866901
 40
1.0
 40
1.0
 40
1.0
 40
1.0
 10
31.7886151716
 20
61.8723124733
 30
0.0
 10
31.9802107696
 20
61.9829295831
 30
0.0
 10
32.3909436971
 20
62.1853844525
 30
0.0
 10
33.0534068712
 20
62.4255044502
 30
0.0
 10
33.7693920656
 20
62.6072307829
 30
0.0
 10
34.523402198
 20
62.7267938587
 30
0.0
 10
35.299557059
 20
62.7816552065
 30
0.0
 10
36.0812709493
 20
62.7706578905
 30
0.0
 10
36.8518774119
 20
62.6940408583
 30
0.0
 10
37.5949499519
 20
62.5533807142
 30
0.0
 10
38.2947027293
 20
62.351711749
 30
0.0
 10
38.9363496633
 20
62.0932404156
 30
0.0
 10
39.5063831169
 20
61.7831832066
 30
0.0
 10
39.9928815741
 20
61.4276727553
 30
0.0
 10
40.385520037
 20
61.0334201625
 30
0.0
 10
40.6752131892
 20
60.6073404584
 30
0.0
 10
40.8536817872
 20
60.1578706351
 30
0.0
 10
40.8943323129
 20
59.8465997751
 30
0.0
 10
40.8943171713
 20
59.6947562895
 30
0.0
  0
SPLINE
  5
251
100
AcDbEntity
  8
0
100
AcDbSpline
 62
7
  6
BYLAYER
 70
0
 71
3
 72
24
 73
20
 74
0
 42
0.0000001
 43
0.0000001
 44
0.0000000001
 40
0.0
 40
0.0
 40
0.0
 40
0.0
 40
0.0213336134
 40
0.042895497
 40
0.0874737567
 40
0.1352529019
 40
0.1871577192
 40
0.2435991639
 40
0.3045512318
 40
0.3696439465
 40
0.4382463905
 40
0.5095379383
 40
0.5825676988
 40
0.6563047245
 40
0.7296860431
 40
0.8016692709
 40
0.8712626263
 40
0.9376183266
 40
1.0
 40
1.0
 40
1.0
 40
1.0
 10
8.9889069968
 20
45.3719589574
 30
0.0
 10
8.9889174469
 20
45.2593558946
 30
0.0
 10
9.0034707094
 20
45.0326696192
 30
0.0
 10
9.0910864377
 20
44.5783156077
 30
0.0
 10
9.3149727501
 20
44.0136797604
 30
0.0
 10
9.746077445
 20
43.3799637447
 30
0.0
 10
10.3303455177
 20
42.7931487493
 30
0.0
 10
11.0543225089
 20
42.2641540364
 30
0.0
 10
11.90260011
 20
41.8027664911
 30
0.0
 10
12.8574229789
 20
41.4181177905
 30
0.0
 10
13.8987196989
 20
41.1180303113
 30
0.0
 10
15.0044746182
 20
40.9087539937
 30
0.0
 10
16.1511999331
 20
40.7947127215
 30
0.0
 10
17.3144558046
 20
40.7783363519
 30
0.0
 10
18.4694466156
 20
40.8599811726
 30
0.0
 10
19.5914879453
 20
41.0379372788
 30
0.0
 10
20.6569010047
 20
41.3083482949
 30
0.0
 10
21.6427370366
 20
41.6656105234
 30
0.0
 10
22.2539175533
 20
41.9669171548
 30
0.0
 10
22.5390680187
 20
42.13154787
 30
0.0
  0
SPLINE
  5
252
100
AcDbEntity
  8
0
100
AcDbSpline
 62
7
  6
BYLAYER
 70
0
 71
3
 72
14
 73
10
 74
0
 42
0.0000001
 43
0.0000001
 44
0.0000000001
 40
0.0
 40
0.0
 40
0.0
 40
0.0
 40
0.1065871892
 40
0.215442321
 40
0.3286120934
 40
0.4477132193
 40
0.5739266643
 40
0.7080050142
 40
1.0
 40
1.0
 40
1.0
 40
1.0
 10
21.6888765899
 20
48.9365022236
 30
0.0
 10
21.6888758481
 20
48.8405786584
 30
0.0
 10
21.6710716497
 20
48.6462578392
 30
0.0
 10
21.5919298204
 20
48.359841462
 30
0.0
 10
21.4613333769
 20
48.0805344826
 30
0.0
 10
21.2814553494
 20
47.8113944928
 30
0.0
 10
21.0543021022
 20
47.5551901367
 30
0.0
 10
20.6816183015
 20
47.2249927916
 30
0.0
 10
20.3543287739
 20
47.0191302812
 30
0.0
 10
20.1214033933
 20
46.8974743204
 30
0.0
  0
SPLINE
  5
253
100
AcDbEntity
  8
0
100
AcDbSpline
 62
7
  6
BYLAYER
 70
0
 71
3
 72
15
 73
11
 74
0
 42
0.0000001
 43
0.0000001
 44
0.0000000001
 40
0.0
 40
0.0
 40
0.0
 40
0.0
 40
0.1485427125
 40
0.2895072409
 40
0.4227377027
 40
0.5486433572
 40
0.668000835
 40
0.7819418297
 40
0.8919889732
 40
1.0
 40
1.0
 40
1.0
 40
1.0
 10
22.5390680187
 20
42.13154787
 30
0.0
 10
22.718033857
 20
42.2348732282
 30
0.0
 10
23.0587126137
 20
42.4508683516
 30
0.0
 10
23.5245703213
 20
42.8113392344
 30
0.0
 10
23.9274826435
 20
43.1970400095
 30
0.0
 10
24.2634454998
 20
43.6042494712
 30
0.0
 10
24.5290128753
 20
44.0294416918
 30
0.0
 10
24.721316596
 20
44.4687344875
 30
0.0
 10
24.8377613408
 20
44.9177247162
 30
0.0
 10
24.8638760992
 20
45.2216945335
 30
0.0
 10
24.863862154
 20
45.3719587607
 30
0.0
  0
SPLINE
  5
254
100
AcDbEntity
  8
0
100
AcDbSpline
 62
7
  6
BYLAYER
 70
0
 71
3
 72
13
 73
9
 74
0
 42
0.0000001
 43
0.0000001
 44
0.0000000001
 40
0.0
 40
0.0
 40
0.0
 40
0.0
 40
0.2684907047
 40
0.5272890381
 40
0.6513502692
 40
0.7712078679
 40
0.8871600281
 40
1.0
 40
1.0
 40
1.0
 40
1.0
 10
52.6993453073
 20
77.5800675768
 30
0.0
 10
52.2534379993
 20
77.580066505
 30
0.0
 10
51.3730470913
 20
77.4596075961
 30
0.0
 10
50.3700068174
 20
77.0097613802
 30
0.0
 10
49.7091075881
 20
76.4939509848
 30
0.0
 10
49.3051972184
 20
76.0490380972
 30
0.0
 10
48.9989304111
 20
75.5537770099
 30
0.0
 10
48.8646741823
 20
75.1950738731
 30
0.0
 10
48.8174453328
 20
75.0137189565
 30
0.0
  0
SPLINE
  5
255
100
AcDbEntity
  8
0
100
AcDbSpline
 62
7
  6
BYLAYER
 70
0
 71
3
 72
14
 73
10
 74
0
 42
0.0000001
 43
0.0000001
 44
0.0000000001
 40
0.0
 40
0.0
 40
0.0
 40
0.0
 40
0.1080439353
 40
0.2181284356
 40
0.3321077052
 40
0.4514901687
 40
0.5774361683
 40
0.7107375522
 40
1.0
 40
1.0
 40
1.0
 40
1.0
 10
30.2263597198
 20
59.694756288
 30
0.0
 10
30.2263697889
 20
59.7957319935
 30
0.0
 10
30.2438884966
 20
60.0000001308
 30
0.0
 10
30.3221647864
 20
60.3017194892
 30
0.0
 10
30.4513904131
 20
60.5969132567
 30
0.0
 10
30.629806979
 20
60.8826474648
 30
0.0
 10
30.8556125614
 20
61.1563233999
 30
0.0
 10
31.2265922374
 20
61.51136756
 30
0.0
 10
31.5544944569
 20
61.7371436225
 30
0.0
 10
31.7886151716
 20
61.8723124733
 30
0.0
  0
SPLINE
  5
256
100
AcDbEntity
  8
0
100
AcDbSpline
 62
7
  6
BYLAYER
 70
0
 71
3
 72
22
 73
18
 74
0
 42
0.0000001
 43
0.0000001
 44
0.0000000001
 40
0.0
 40
0.0
 40
0.0
 40
0.0
 40
0.0427873387
 40
0.0872705706
 40
0.1348360927
 40
0.186398981
 40
0.242384976
 40
0.3028041
 40
0.3673379899
 40
0.4354113421
 40
0.5062628287
 40
0.5790011175
 40
0.7260658906
 40
0.7984985224
 40
0.8688466635
 40
0.9362812701
 40
1.0
 40
1.0
 40
1.0
 40
1.0
 10
12.1638912679
 20
49.3901713807
 30
0.0
 10
12.1638933749
 20
49.2574987229
 30
0.0
 10
12.1985692298
 20
48.9857876528
 30
0.0
 10
12.3511359991
 20
48.5927481026
 30
0.0
 10
12.599021486
 20
48.2192031958
 30
0.0
 10
12.9355259835
 20
47.8723761735
 30
0.0
 10
13.3530992654
 20
47.5581459732
 30
0.0
 10
13.8431835878
 20
47.2821607177
 30
0.0
 10
14.3959658134
 20
47.0496628705
 30
0.0
 10
15.0002800855
 20
46.8651815759
 30
0.0
 10
15.6439586855
 20
46.7323333947
 30
0.0
 10
16.5398964501
 20
46.6274692509
 30
0.0
 10
17.4510750808
 20
46.6350057977
 30
0.0
 10
18.3425860768
 20
46.7550641591
 30
0.0
 10
18.9793873187
 20
46.8986881838
 30
0.0
 10
19.5740685385
 20
47.0933465711
 30
0.0
 10
19.9462758794
 20
47.2596751012
 30
0.0
 10
20.1214033933
 20
47.3511434759
 30
0.0
  0
SPLINE
  5
257
100
AcDbEntity
  8
0
100
AcDbSpline
 62
7
  6
BYLAYER
 70
0
 71
3
 72
11
 73
7
 74
0
 42
0.0000001
 43
0.0000001
 44
0.0000000001
 40
0.0
 40
0.0
 40
0.0
 40
0.0
 40
0.2177827477
 40
0.4509152641
 40
0.7103063952
 40
1.0
 40
1.0
 40
1.0
 40
1.0
 10
19.0694997216
 20
49.3901714038
 30
0.0
 10
19.0694885684
 20
49.3085437188
 30
0.0
 10
19.0393409199
 20
49.1384038341
 30
0.0
 10
18.9103512035
 20
48.9013432173
 30
0.0
 10
18.7064489394
 20
48.687058129
 30
0.0
 10
18.535842951
 20
48.5695505545
 30
0.0
 10
18.4418091051
 20
48.5152604123
 30
0.0
  0
SPLINE
  5
258
100
AcDbEntity
  8
0
100
AcDbSpline
 62
7
  6
BYLAYER
 70
0
 71
3
 72
22
 73
18
 74
0
 42
0.0000001
 43
0.0000001
 44
0.0000000001
 40
0.0
 40
0.0
 40
0.0
 40
0.0
 40
0.0637199896
 40
0.1311515923
 40
0.2014985123
 40
0.2739304136
 40
0.4209937432
 40
0.4937328395
 40
0.5645856445
 40
0.6326599854
 40
0.6971954241
 40
0.7576157285
 40
0.813601472
 40
0.8651643726
 40
0.9127303485
 40
0.9572130855
 40
1.0
 40
1.0
 40
1.0
 40
1.0
 10
20.1214033933
 20
43.3329309556
 30
0.0
 10
19.9462723921
 20
43.2414607595
 30
0.0
 10
19.5740719972
 20
43.075129655
 30
0.0
 10
18.9793972547
 20
42.8804796725
 30
0.0
 10
18.3426112393
 20
42.7368606105
 30
0.0
 10
17.4511127215
 20
42.6167835828
 30
0.0
 10
16.5399382638
 20
42.6092656675
 30
0.0
 10
15.6439960525
 20
42.714106375
 30
0.0
 10
15.0003072134
 20
42.8469575303
 30
0.0
 10
14.3959848972
 20
43.0314520679
 30
0.0
 10
13.8431867557
 20
43.2639407501
 30
0.0
 10
13.3530922884
 20
43.5399259535
 30
0.0
 10
12.9355273618
 20
43.8541733274
 30
0.0
 10
12.5990235428
 20
44.2009974739
 30
0.0
 10
12.3511130414
 20
44.5745305825
 30
0.0
 10
12.1985860268
 20
44.967581381
 30
0.0
 10
12.1638857714
 20
45.2392874977
 30
0.0
 10
12.1638988708
 20
45.3719588584
 30
0.0
  0
SPLINE
  5
259
100
AcDbEntity
  8
0
100
AcDbSpline
 62
7
  6
BYLAYER
 70
0
 71
3
 72
14
 73
10
 74
0
 42
0.0000001
 43
0.0000001
 44
0.0000000001
 40
0.0
 40
0.0
 40
0.0
 40
0.0
 40
0.291995746
 40
0.4260724576
 40
0.5522852991
 40
0.671386758
 40
0.7845564136
 40
0.8934118449
 40
1.0
 40
1.0
 40
1.0
 40
1.0
 10
20.1214033933
 20
47.3511434759
 30
0.0
 10
20.3543294694
 20
47.4727998
 30
0.0
 10
20.6816186983
 20
47.6786615514
 30
0.0
 10
21.054301727
 20
48.0088581426
 30
0.0
 10
21.2814533218
 20
48.2650617207
 30
0.0
 10
21.4613334166
 20
48.5341999549
 30
0.0
 10
21.5919308007
 20
48.8135074349
 30
0.0
 10
21.6710716811
 20
49.0999248653
 30
0.0
 10
21.6888794062
 20
49.2942469068
 30
0.0
 10
21.6888778828
 20
49.390171378
 30
0.0
  0
SPLINE
  5
25A
100
AcDbEntity
  8
0
100
AcDbSpline
 62
7
  6
BYLAYER
 70
0
 71
3
 72
23
 73
19
 74
0
 42
0.0000001
 43
0.0000001
 44
0.0000000001
 40
0.0
 40
0.0
 40
0.0
 40
0.0
 40
0.0623788187
 40
0.1287510081
 40
0.1983474868
 40
0.2703371108
 40
0.3437263441
 40
0.4174686224
 40
0.4905063912
 40
0.5618050053
 40
0.6304133938
 40
0.6955122023
 40
0.7564688261
 40
0.8129140637
 40
0.8648231893
 40
0.9126056497
 40
0.9571866776
 40
1.0
 40
1.0
 40
1.0
 40
1.0
 10
57.8985998281
 20
78.748540671
 30
0.0
 10
58.0981786959
 20
78.8637668962
 30
0.0
 10
58.5260260855
 20
79.0746576087
 30
0.0
 10
59.2160928925
 20
79.3247827966
 30
0.0
 10
59.9619118028
 20
79.5140812391
 30
0.0
 10
60.7473398583
 20
79.6386257384
 30
0.0
 10
61.555835278
 20
79.6957727646
 30
0.0
 10
62.370121534
 20
79.684316912
 30
0.0
 10
63.1728370468
 20
79.6045067511
 30
0.0
 10
63.9468706155
 20
79.4579854282
 30
0.0
 10
64.6757787572
 20
79.2479134336
 30
0.0
 10
65.3441598104
 20
78.9786724086
 30
0.0
 10
65.9379435828
 20
78.6556962518
 30
0.0
 10
66.44471192
 20
78.2853732455
 30
0.0
 10
66.8537095094
 20
77.8746939053
 30
0.0
 10
67.1554728877
 20
77.4308613804
 30
0.0
 10
67.3413774164
 20
76.9626638047
 30
0.0
 10
67.3837218146
 20
76.6384233228
 30
0.0
 10
67.3837060549
 20
76.4802529794
 30
0.0
  0
SPLINE
  5
25B
100
AcDbEntity
  8
0
100
AcDbSpline
 62
7
  6
BYLAYER
 70
0
 71
3
 72
10
 73
6
 74
0
 42
0.0000001
 43
0.0000001
 44
0.0000000001
 40
0.0
 40
0.0
 40
0.0
 40
0.0
 40
0.2274774992
 40
0.5960404846
 40
1.0
 40
1.0
 40
1.0
 40
1.0
 10
56.6079982015
 20
77.580076972
 30
0.0
 10
56.679137648
 20
77.6926102218
 30
0.0
 10
56.8889368097
 20
77.9730441425
 30
0.0
 10
57.3166487812
 20
78.377500563
 30
0.0
 10
57.6938524615
 20
78.6303304294
 30
0.0
 10
57.8985998281
 20
78.748540671
 30
0.0
  0
SPLINE
  5
25C
100
AcDbEntity
  8
0
100
AcDbSpline
 62
7
  6
BYLAYER
 70
0
 71
3
 72
19
 73
15
 74
0
 42
0.0000001
 43
0.0000001
 44
0.0000000001
 40
0.0
 40
0.0
 40
0.0
 40
0.0
 40
0.0623913713
 40
0.1288320668
 40
0.2703532864
 40
0.4174438321
 40
0.5617188966
 40
0.6953267151
 40
0.7563201856
 40
0.81280034
 40
0.8647386834
 40
0.912551973
 40
0.957158712
 40
1.0
 40
1.0
 40
1.0
 40
1.0
 10
18.4418091051
 20
48.5152604123
 30
0.0
 10
18.3648601295
 20
48.4708341657
 30
0.0
 10
18.1998054756
 20
48.3895191892
 30
0.0
 10
17.8373029017
 20
48.2580833182
 30
0.0
 10
17.3383592631
 20
48.1583202312
 30
0.0
 10
16.719358823
 20
48.1412396149
 30
0.0
 10
16.1172202993
 20
48.2257753227
 30
0.0
 10
15.6558368285
 20
48.3798885254
 30
0.0
 10
15.3409357105
 20
48.5510584546
 30
0.0
 10
15.1454599588
 20
48.6939059286
 30
0.0
 10
14.9877304145
 20
48.8523278548
 30
0.0
 10
14.8713025743
 20
49.0234969765
 30
0.0
 10
14.7996244793
 20
49.2041002116
 30
0.0
 10
14.7832610929
 20
49.3291601578
 30
0.0
 10
14.7832694291
 20
49.3901713549
 30
0.0
  0
SPLINE
  5
25D
100
AcDbEntity
  8
0
100
AcDbSpline
 62
7
  6
BYLAYER
 70
0
 71
3
 72
11
 73
7
 74
0
 42
0.0000001
 43
0.0000001
 44
0.0000000001
 40
0.0
 40
0.0
 40
0.0
 40
0.0
 40
0.2897031353
 40
0.5490914015
 40
0.7822201129
 40
1.0
 40
1.0
 40
1.0
 40
1.0
 10
18.4418091051
 20
49.0337394472
 30
0.0
 10
18.535846125
 20
49.0880314219
 30
0.0
 10
18.7064539603
 20
49.205540592
 30
0.0
 10
18.9103579721
 20
49.4198274723
 30
0.0
 10
19.0393382875
 20
49.6568869679
 30
0.0
 10
19.0694960903
 20
49.8270237351
 30
0.0
 10
19.0695022693
 20
49.9086504183
 30
0.0
  0
ENDSEC
  0
SECTION
  2
OBJECTS
  0
DICTIONARY
  5
C
100
AcDbDictionary
280
0
281
1
  3
ACAD_GROUP
350
D
  3
ACAD_MLINESTYLE
350
17
  3
ACAD_LAYOUT
350
1A
  3
ACAD_PLOTSETTINGS
350
19
  3
ACAD_PLOTSTYLENAME
350
E
  0
DICTIONARY
  5
D
102
{ACAD_REACTORS
330
C
102
}
100
AcDbDictionary
280
0
281
1
  0
ACDBDICTIONARYWDFLT
  5
E
102
{ACAD_REACTORS
330
C
102
}
100
AcDbDictionary
281
1
  3
Normal
350
F
100
AcDbDictionaryWithDefault
340
F
  0
DICTIONARY
  5
17
102
{ACAD_REACTORS
330
C
102
}
100
AcDbDictionary
280
0
281
1
  3
Standard
350
18
  0
DICTIONARY
  5
19
102
{ACAD_REACTORS
330
C
102
}
100
AcDbDictionary
281
1
  0
DICTIONARY
  5
1A
102
{ACAD_REACTORS
330
C
102
}
100
AcDbDictionary
281
1
  3
Model
350
25E
  3
Layout1
350
25F
  0
ACDBPLACEHOLDER
  5
F
102
{ACAD_REACTORS
330
E
102
}
  0
MLINESTYLE
  5
18
102
{ACAD_REACTORS
330
17
102
}
100
AcDbMlineStyle
  2
STANDARD
 70
0
  3

 62
256
 51
90.0
 52
90.0
 71
2
 49
0.5
 62
256
  6
BYLAYER
 49
-0.5
 62
256
  6
BYLAYER
  0
LAYOUT
  5
25E
102
{ACAD_REACTORS
330
1A
102
}
100
AcDbPlotSettings
  1

  2
none_device
  4

  6

 40
0.0
 41
0.0
 42
0.0
 43
0.0
 44
210.0
 45
297.0
 46
0.0
 47
0.0
 48
0.0
 49
0.0
140
0.0
141
0.0
142
1.0
143
1.0
 70
1024
 72
1
 73
0
 74
0
  7

 75
0
147
1.0
148
0.0
149
0.0
100
AcDbLayout
  1
Model
 70
0
 71
0
 10
0.0
 20
0.0
 11
210.0
 21
297.0
 12
0.0
 22
0.0
 32
0.0
 14
0.0
 24
0.0
 34
0.0
 15
0.0
 25
0.0
 35
0.0
146
0.0
 13
0.0
 23
0.0
 33
0.0
 16
1.0
 26
0.0
 36
0.0
 17
0.0
 27
1.0
 37
0.0
 76
0
330
210
345
0
346
0
  0
LAYOUT
  5
25F
102
{ACAD_REACTORS
330
1A
102
}
100
AcDbPlotSettings
  1

  2
none_device
  4

  6

 40
0.0
 41
0.0
 42
0.0
 43
0.0
 44
210.0
 45
297.0
 46
0.0
 47
0.0
 48
0.0
 49
0.0
140
0.0
141
0.0
142
1.0
143
1.0
 70
0
 72
1
 73
0
 74
0
  7

 75
0
147
1.0
148
0.0
149
0.0
100
AcDbLayout
  1
Layout1
 70
0
 71
1
 10
0.0
 20
0.0
 11
210.0
 21
297.0
 12
0.0
 22
0.0
 32
0.0
 14
0.0
 24
0.0
 34
0.0
 15
0.0
 25
0.0
 35
0.0
146
0.0
 13
0.0
 23
0.0
 33
0.0
 16
1.0
 26
0.0
 36
0.0
 17
0.0
 27
1.0
 37
0.0
 76
0
330
211
345
0
346
0
  0
ENDSEC
  0
EOF
