  0
SECTION
  2
HEADER
  9
$ACADVER
  1
AC1009
  9
$INSBASE
 10
0.0
 20
0.0
 30
0.0
  9
$EXTMIN
 10
1737.4357
 20
534.35513
 30
0.0
  9
$EXTMAX
 10
1971.6357
 20
824.45513
 30
0.0
  9
$LIMMIN
 10
0.0
 20
0.0
  9
$LIMMAX
 10
210.0
 20
297.0
  9
$ORTHOMODE
 70
     1
  9
$REGENMODE
 70
     1
  9
$FILLMODE
 70
     1
  9
$QTEXTMODE
 70
     0
  9
$MIRRTEXT
 70
     1
  9
$DRAGMODE
 70
     2
  9
$LTSCALE
 40
5.0
  9
$OSMODE
 70
     0
  9
$ATTMODE
 70
     1
  9
$TEXTSIZE
 40
0.2
  9
$TRACEWID
 40
0.05
  9
$TEXTSTYLE
  7
STANDARD
  9
$CLAYER
  8
0
  9
$CELTYPE
  6
BYLAYER
  9
$CECOLOR
 62
   256
  9
$DIMSCALE
 40
1.0
  9
$DIMASZ
 40
5.0
  9
$DIMEXO
 40
0.0625
  9
$DIMDLI
 40
0.38
  9
$DIMRND
 40
0.01
  9
$DIMDLE
 40
0.0
  9
$DIMEXE
 40
0.18
  9
$DIMTP
 40
0.0
  9
$DIMTM
 40
0.0
  9
$DIMTXT
 40
4.0
  9
$DIMCEN
 40
0.09
  9
$DIMTSZ
 40
0.0
  9
$DIMTOL
 70
     0
  9
$DIMLIM
 70
     0
  9
$DIMTIH
 70
     0
  9
$DIMTOH
 70
     0
  9
$DIMSE1
 70
     0
  9
$DIMSE2
 70
     0
  9
$DIMTAD
 70
     1
  9
$DIMZIN
 70
    12
  9
$DIMBLK
  1

  9
$DIMASO
 70
     1
  9
$DIMSHO
 70
     1
  9
$DIMPOST
  1

  9
$DIMAPOST
  1

  9
$DIMALT
 70
     0
  9
$DIMALTD
 70
     2
  9
$DIMALTF
 40
25.4
  9
$DIMLFAC
 40
1.0
  9
$DIMTOFL
 70
     1
  9
$DIMTVP
 40
0.0
  9
$DIMTIX
 70
     0
  9
$DIMSOXD
 70
     0
  9
$DIMSAH
 70
     0
  9
$DIMBLK1
  1

  9
$DIMBLK2
  1

  9
$DIMSTYLE
  2
SC_STAND
  9
$DIMCLRD
 70
     0
  9
$DIMCLRE
 70
     0
  9
$DIMCLRT
 70
     0
  9
$DIMTFAC
 40
1.0
  9
$DIMGAP
 40
1.0
  9
$LUNITS
 70
     2
  9
$LUPREC
 70
     4
  9
$SKETCHINC
 40
0.1
  9
$FILLETRAD
 40
0.0
  9
$AUNITS
 70
     0
  9
$AUPREC
 70
     0
  9
$MENU
  1
.
  9
$ELEVATION
 40
0.0
  9
$PELEVATION
 40
0.0
  9
$THICKNESS
 40
0.0
  9
$LIMCHECK
 70
     0
  9
$BLIPMODE
 70
     0
  9
$CHAMFERA
 40
0.0
  9
$CHAMFERB
 40
0.0
  9
$SKPOLY
 70
     0
  9
$TDCREATE
 40
2452082.615375
  9
$TDUPDATE
 40
2452312.614704
  9
$TDINDWG
 40
0.314276
  9
$TDUSRTIMER
 40
0.314276
  9
$USRTIMER
 70
     1
  9
$ANGBASE
 50
0.0
  9
$ANGDIR
 70
     0
  9
$PDMODE
 70
     0
  9
$PDSIZE
 40
0.0
  9
$PLINEWID
 40
0.0
  9
$COORDS
 70
     1
  9
$SPLFRAME
 70
     0
  9
$SPLINETYPE
 70
     6
  9
$SPLINESEGS
 70
     8
  9
$ATTDIA
 70
     0
  9
$ATTREQ
 70
     1
  9
$HANDLING
 70
     1
  9
$HANDSEED
  5
1B5B1
  9
$SURFTAB1
 70
     6
  9
$SURFTAB2
 70
     6
  9
$SURFTYPE
 70
     6
  9
$SURFU
 70
     6
  9
$SURFV
 70
     6
  9
$UCSNAME
  2

  9
$UCSORG
 10
0.0
 20
0.0
 30
0.0
  9
$UCSXDIR
 10
1.0
 20
0.0
 30
0.0
  9
$UCSYDIR
 10
0.0
 20
1.0
 30
0.0
  9
$PUCSNAME
  2

  9
$PUCSORG
 10
0.0
 20
0.0
 30
0.0
  9
$PUCSXDIR
 10
1.0
 20
0.0
 30
0.0
  9
$PUCSYDIR
 10
0.0
 20
1.0
 30
0.0
  9
$USERI1
 70
     0
  9
$USERI2
 70
     0
  9
$USERI3
 70
     0
  9
$USERI4
 70
     0
  9
$USERI5
 70
     0
  9
$USERR1
 40
0.0
  9
$USERR2
 40
0.0
  9
$USERR3
 40
0.0
  9
$USERR4
 40
0.0
  9
$USERR5
 40
0.0
  9
$WORLDVIEW
 70
     1
  9
$SHADEDGE
 70
     3
  9
$SHADEDIF
 70
    70
  9
$TILEMODE
 70
     1
  9
$MAXACTVP
 70
    48
  9
$PLIMCHECK
 70
     0
  9
$PEXTMIN
 10
1.000000E+020
 20
1.000000E+020
 30
1.000000E+020
  9
$PEXTMAX
 10
-1.000000E+020
 20
-1.000000E+020
 30
-1.000000E+020
  9
$PLIMMIN
 10
0.0
 20
0.0
  9
$PLIMMAX
 10
12.0
 20
9.0
  9
$UNITMODE
 70
     0
  9
$VISRETAIN
 70
     1
  9
$PLINEGEN
 70
     0
  9
$PSLTSCALE
 70
     1
  0
ENDSEC
  0
SECTION
  2
TABLES
  0
TABLE
  2
VPORT
 70
     2
  0
VPORT
  2
*ACTIVE
 70
     0
 10
0.0
 20
0.0
 11
1.0
 21
1.0
 12
1854.447699
 22
679.410863
 13
0.0
 23
0.0
 14
1.0
 24
1.0
 15
0.0
 25
0.0
 16
0.0
 26
0.0
 36
1.0
 17
0.0
 27
0.0
 37
0.0
 40
294.55235
 41
1.838384
 42
50.0
 43
0.0
 44
0.0
 50
0.0
 51
0.0
 71
     0
 72
  1000
 73
     1
 74
     1
 75
     0
 76
     0
 77
     0
 78
     0
  0
ENDTAB
  0
TABLE
  2
LTYPE
 70
     1
  0
LTYPE
  2
CONTINUOUS
 70
     0
  3
Solid line
 72
    65
 73
     0
 40
0.0
  0
ENDTAB
  0
TABLE
  2
LAYER
 70
     2
  0
LAYER
  2
0
 70
     0
 62
     7
  6
CONTINUOUS
  0
LAYER
  2
ALPHA
 70
     0
 62
   254
  6
CONTINUOUS
  0
ENDTAB
  0
TABLE
  2
STYLE
 70
     1
  0
STYLE
  2
STANDARD
 70
     0
 40
0.0
 41
1.0
 50
0.0
 71
     0
 42
0.2
  3
txt
  4

  0
ENDTAB
  0
TABLE
  2
VIEW
 70
     0
  0
ENDTAB
  0
TABLE
  2
UCS
 70
     0
  0
ENDTAB
  0
TABLE
  2
APPID
 70
     3
  0
APPID
  2
ACAD
 70
     0
  0
APPID
  2
AVE_RENDER
 70
     0
  0
APPID
  2
AVE_MATERIAL
 70
     0
  0
ENDTAB
  0
TABLE
  2
DIMSTYLE
 70
     2
  0
DIMSTYLE
  2
STANDARD
 70
     0
  3

  4

  5

  6

  7

 40
1.0
 41
0.18
 42
0.0625
 43
0.38
 44
0.18
 45
0.0
 46
0.0
 47
0.0
 48
0.0
140
0.18
141
0.09
142
0.0
143
25.4
144
1.0
145
0.0
146
1.0
147
0.09
 71
     0
 72
     0
 73
     1
 74
     1
 75
     0
 76
     0
 77
     0
 78
     0
170
     0
171
     2
172
     0
173
     0
174
     0
175
     0
176
     0
177
     0
178
     0
  0
DIMSTYLE
  2
SC_STAND
 70
     0
  3

  4

  5

  6

  7

 40
1.0
 41
4.0
 42
0.0625
 43
0.38
 44
0.18
 45
0.01
 46
0.0
 47
0.0
 48
0.0
140
4.0
141
0.09
142
0.0
143
25.4
144
1.0
145
0.0
146
1.0
147
1.0
 71
     0
 72
     0
 73
     0
 74
     0
 75
     0
 76
     0
 77
     1
 78
    12
170
     0
171
     2
172
     1
173
     0
174
     0
175
     0
176
     0
177
     0
178
     0
  0
ENDTAB
  0
ENDSEC
  0
SECTION
  2
BLOCKS
  0
BLOCK
  8
0
  2
$MODEL_SPACE
 70
     0
 10
0.0
 20
0.0
 30
0.0
  3
$MODEL_SPACE
  1

  0
ENDBLK
  5
1AE16
  8
0
  0
BLOCK
 67
     1
  8
0
  2
$PAPER_SPACE
 70
     0
 10
0.0
 20
0.0
 30
0.0
  3
$PAPER_SPACE
  1

  0
ENDBLK
  5
1AE14
 67
     1
  8
0
  0
BLOCK
  8
0
  2
SCH_ISO
 70
     0
 10
0.0
 20
0.0
 30
0.0
  3
SCH_ISO
  1

  0
ENDBLK
  5
13A
  8
0
  0
ENDSEC
  0
SECTION
  2
ENTITIES
  0
INSERT
  5
13C
  8
ALPHA
 62
   255
  2
SCH_ISO
 10
0.0
 20
0.0
 30
0.0
  0
LINE
  5
16AB7
  8
ALPHA
 10
1737.4357
 20
585.608142
 30
0.0
 11
1737.4357
 21
769.992848
 31
0.0
  0
LINE
  5
16AB8
  8
ALPHA
 10
1739.18991
 20
647.569591
 30
0.0
 11
1739.18991
 21
770.023376
 31
0.0
  0
LINE
  5
16AB9
  8
ALPHA
 10
1743.601453
 20
770.100149
 30
0.0
 11
1743.601453
 21
585.505153
 31
0.0
  0
LINE
  5
16ABA
  8
ALPHA
 10
1745.056777
 20
770.100149
 30
0.0
 11
1745.056777
 21
585.505153
 31
0.0
  0
LINE
  5
16ABB
  8
ALPHA
 10
1771.1357
 20
574.35513
 30
0.0
 11
1771.1357
 21
772.05513
 31
0.0
  0
LINE
  5
16ABC
  8
ALPHA
 10
1772.6357
 20
556.95513
 30
0.0
 11
1772.6357
 21
789.45513
 31
0.0
  0
POLYLINE
  5
16ABD
  8
ALPHA
 66
     1
 10
0.0
 20
0.0
 30
0.0
  0
VERTEX
  5
1AE1B
  8
ALPHA
 10
1765.6857
 20
723.800314
 30
0.0
  0
VERTEX
  5
1AE1C
  8
ALPHA
 10
1766.2877
 20
723.921548
 30
0.0
  0
VERTEX
  5
1AE1D
  8
ALPHA
 10
1766.793008
 20
724.263559
 30
0.0
  0
VERTEX
  5
1AE1E
  8
ALPHA
 10
1767.125183
 20
724.767248
 30
0.0
  0
VERTEX
  5
1AE1F
  8
ALPHA
 10
1767.240611
 20
725.35513
 30
0.0
  0
VERTEX
  5
1AE20
  8
ALPHA
 10
1767.125183
 20
725.943012
 30
0.0
  0
VERTEX
  5
1AE21
  8
ALPHA
 10
1766.793008
 20
726.446701
 30
0.0
  0
VERTEX
  5
1AE22
  8
ALPHA
 10
1766.2877
 20
726.788712
 30
0.0
  0
VERTEX
  5
1AE23
  8
ALPHA
 10
1765.6857
 20
726.909945
 30
0.0
  0
SEQEND
  5
1AE24
  8
ALPHA
  0
POLYLINE
  5
16AC8
  8
ALPHA
 66
     1
 10
0.0
 20
0.0
 30
0.0
  0
VERTEX
  5
1AE25
  8
ALPHA
 10
1749.5857
 20
726.909945
 30
0.0
  0
VERTEX
  5
1AE26
  8
ALPHA
 10
1748.983759
 20
726.788656
 30
0.0
  0
VERTEX
  5
1AE27
  8
ALPHA
 10
1748.478515
 20
726.446631
 30
0.0
  0
VERTEX
  5
1AE28
  8
ALPHA
 10
1748.14639
 20
725.942967
 30
0.0
  0
VERTEX
  5
1AE29
  8
ALPHA
 10
1748.03098
 20
725.35513
 30
0.0
  0
VERTEX
  5
1AE2A
  8
ALPHA
 10
1748.14639
 20
724.767292
 30
0.0
  0
VERTEX
  5
1AE2B
  8
ALPHA
 10
1748.478515
 20
724.263629
 30
0.0
  0
VERTEX
  5
1AE2C
  8
ALPHA
 10
1748.983759
 20
723.921604
 30
0.0
  0
VERTEX
  5
1AE2D
  8
ALPHA
 10
1749.5857
 20
723.800314
 30
0.0
  0
SEQEND
  5
1AE2E
  8
ALPHA
  0
POLYLINE
  5
16AD3
  8
ALPHA
 66
     1
 10
0.0
 20
0.0
 30
0.0
  0
VERTEX
  5
1AE2F
  8
ALPHA
 10
1749.5857
 20
726.80513
 30
0.0
  0
VERTEX
  5
1AE30
  8
ALPHA
 10
1749.024043
 20
726.69193
 30
0.0
  0
VERTEX
  5
1AE31
  8
ALPHA
 10
1748.552245
 20
726.372216
 30
0.0
  0
VERTEX
  5
1AE32
  8
ALPHA
 10
1748.243216
 20
725.903062
 30
0.0
  0
VERTEX
  5
1AE33
  8
ALPHA
 10
1748.1357
 20
725.35513
 30
0.0
  0
VERTEX
  5
1AE34
  8
ALPHA
 10
1748.243216
 20
724.807198
 30
0.0
  0
VERTEX
  5
1AE35
  8
ALPHA
 10
1748.552245
 20
724.338043
 30
0.0
  0
VERTEX
  5
1AE36
  8
ALPHA
 10
1749.024043
 20
724.018329
 30
0.0
  0
VERTEX
  5
1AE37
  8
ALPHA
 10
1749.5857
 20
723.90513
 30
0.0
  0
SEQEND
  5
1AE38
  8
ALPHA
  0
POLYLINE
  5
16ADE
  8
ALPHA
 66
     1
 10
0.0
 20
0.0
 30
0.0
  0
VERTEX
  5
1AE39
  8
ALPHA
 10
1765.6857
 20
723.90513
 30
0.0
  0
VERTEX
  5
1AE3A
  8
ALPHA
 10
1766.247357
 20
724.018329
 30
0.0
  0
VERTEX
  5
1AE3B
  8
ALPHA
 10
1766.719155
 20
724.338043
 30
0.0
  0
VERTEX
  5
1AE3C
  8
ALPHA
 10
1767.028183
 20
724.807198
 30
0.0
  0
VERTEX
  5
1AE3D
  8
ALPHA
 10
1767.1357
 20
725.35513
 30
0.0
  0
VERTEX
  5
1AE3E
  8
ALPHA
 10
1767.028183
 20
725.903062
 30
0.0
  0
VERTEX
  5
1AE3F
  8
ALPHA
 10
1766.719155
 20
726.372216
 30
0.0
  0
VERTEX
  5
1AE40
  8
ALPHA
 10
1766.247357
 20
726.69193
 30
0.0
  0
VERTEX
  5
1AE41
  8
ALPHA
 10
1765.6857
 20
726.80513
 30
0.0
  0
SEQEND
  5
1AE42
  8
ALPHA
  0
LINE
  5
16AE9
  8
ALPHA
 10
1775.1357
 20
789.45513
 30
0.0
 11
1775.1357
 21
556.95513
 31
0.0
  0
LINE
  5
16AEA
  8
ALPHA
 10
1968.6357
 20
824.45513
 30
0.0
 11
1968.6357
 21
534.45513
 31
0.0
  0
LINE
  5
16AEB
  8
ALPHA
 10
1971.6357
 20
824.45513
 30
0.0
 11
1971.6357
 21
534.45513
 31
0.0
  0
POLYLINE
  5
16AEC
  8
ALPHA
 66
     1
 10
0.0
 20
0.0
 30
0.0
  0
VERTEX
  5
1AE43
  8
ALPHA
 10
1768.101694
 20
579.05984
 30
0.0
  0
VERTEX
  5
1AE44
  8
ALPHA
 10
1768.126832
 20
578.859775
 30
0.0
  0
VERTEX
  5
1AE45
  8
ALPHA
 10
1768.160267
 20
578.640761
 30
0.0
  0
VERTEX
  5
1AE46
  8
ALPHA
 10
1768.204102
 20
578.400755
 30
0.0
  0
VERTEX
  5
1AE47
  8
ALPHA
 10
1768.260989
 20
578.137474
 30
0.0
  0
VERTEX
  5
1AE48
  8
ALPHA
 10
1768.334223
 20
577.848651
 30
0.0
  0
VERTEX
  5
1AE49
  8
ALPHA
 10
1768.427761
 20
577.532473
 30
0.0
  0
VERTEX
  5
1AE4A
  8
ALPHA
 10
1768.546129
 20
577.188122
 30
0.0
  0
VERTEX
  5
1AE4B
  8
ALPHA
 10
1768.694576
 20
576.8154
 30
0.0
  0
VERTEX
  5
1AE4C
  8
ALPHA
 10
1768.879116
 20
576.414937
 30
0.0
  0
SEQEND
  5
1AE4D
  8
ALPHA
  0
LINE
  5
16AF8
  8
ALPHA
 10
1768.600505
 20
555.45513
 30
0.0
 11
1768.705716
 21
549.45513
 31
0.0
  0
POLYLINE
  5
16AF9
  8
ALPHA
 66
     1
 10
0.0
 20
0.0
 30
0.0
  0
VERTEX
  5
1AE4E
  8
ALPHA
 10
1769.107497
 20
583.923757
 30
0.0
  0
VERTEX
  5
1AE4F
  8
ALPHA
 10
1768.878766
 20
583.494663
 30
0.0
  0
VERTEX
  5
1AE50
  8
ALPHA
 10
1768.693973
 20
583.093448
 30
0.0
  0
VERTEX
  5
1AE51
  8
ALPHA
 10
1768.545956
 20
582.721668
 30
0.0
  0
VERTEX
  5
1AE52
  8
ALPHA
 10
1768.428113
 20
582.378891
 30
0.0
  0
VERTEX
  5
1AE53
  8
ALPHA
 10
1768.335016
 20
582.064506
 30
0.0
  0
VERTEX
  5
1AE54
  8
ALPHA
 10
1768.262037
 20
581.777264
 30
0.0
  0
VERTEX
  5
1AE55
  8
ALPHA
 10
1768.205179
 20
581.51492
 30
0.0
  0
VERTEX
  5
1AE56
  8
ALPHA
 10
1768.161148
 20
581.274761
 30
0.0
  0
VERTEX
  5
1AE57
  8
ALPHA
 10
1768.127325
 20
581.054044
 30
0.0
  0
SEQEND
  5
1AE58
  8
ALPHA
  0
LINE
  5
16B05
  8
ALPHA
 10
1756.864513
 20
576.104006
 30
0.0
 11
1771.1357
 21
575.854901
 31
0.0
  0
LINE
  5
16B06
  8
ALPHA
 10
1756.864513
 20
574.604234
 30
0.0
 11
1771.1357
 21
574.35513
 31
0.0
  0
LINE
  5
16B07
  8
ALPHA
 10
1771.397578
 20
573.55513
 30
0.0
 11
1764.970218
 21
573.55513
 31
0.0
  0
LINE
  5
16B08
  8
ALPHA
 10
1768.705719
 20
549.45513
 30
0.0
 11
1767.654804
 21
549.45513
 31
0.0
  0
LINE
  5
16B09
  8
ALPHA
 10
1769.818549
 20
549.437677
 30
0.0
 11
1765.391238
 21
549.437677
 31
0.0
  0
LINE
  5
16B0A
  8
ALPHA
 10
1766.391086
 20
548.45513
 30
0.0
 11
1770.800131
 21
548.45513
 31
0.0
  0
LINE
  5
16B0B
  8
ALPHA
 10
1960.1357
 20
534.45513
 30
0.0
 11
1942.6357
 21
553.95513
 31
0.0
  0
LINE
  5
16B0C
  8
ALPHA
 10
1971.6357
 20
534.45513
 30
0.0
 11
1960.1357
 21
534.45513
 31
0.0
  0
LINE
  5
16B0D
  8
ALPHA
 10
1970.1357
 20
534.35513
 30
0.0
 11
1969.0357
 21
534.35513
 31
0.0
  0
LINE
  5
16B0E
  8
ALPHA
 10
1924.6357
 20
553.95513
 30
0.0
 11
1771.739697
 21
553.95513
 31
0.0
  0
LINE
  5
16B0F
  8
ALPHA
 10
1926.6357
 20
556.95513
 30
0.0
 11
1940.6357
 21
556.95513
 31
0.0
  0
LINE
  5
16B10
  8
ALPHA
 10
1942.6357
 20
553.95513
 30
0.0
 11
1924.6357
 21
553.95513
 31
0.0
  0
LINE
  5
16B11
  8
ALPHA
 10
1943.981854
 20
552.45513
 30
0.0
 11
1903.2857
 21
552.45513
 31
0.0
  0
LINE
  5
16B12
  8
ALPHA
 10
1937.1357
 20
551.65513
 30
0.0
 11
1930.1357
 21
551.65513
 31
0.0
  0
LINE
  5
16B13
  8
ALPHA
 10
1936.935642
 20
550.85513
 30
0.0
 11
1930.335757
 21
550.85513
 31
0.0
  0
LINE
  5
16B14
  8
ALPHA
 10
1936.86091
 20
548.648324
 30
0.0
 11
1930.410489
 21
548.648324
 31
0.0
  0
LINE
  5
16B15
  8
ALPHA
 10
1936.558453
 20
548.35513
 30
0.0
 11
1930.712947
 21
548.35513
 31
0.0
  0
LINE
  5
16B16
  8
ALPHA
 10
1937.1357
 20
552.45513
 30
0.0
 11
1937.1357
 21
551.65513
 31
0.0
  0
LINE
  5
16B17
  8
ALPHA
 10
1936.872499
 20
549.15513
 30
0.0
 11
1936.86091
 21
548.648324
 31
0.0
  0
LINE
  5
16B18
  8
ALPHA
 10
1936.9357
 20
550.85513
 30
0.0
 11
1936.897121
 21
549.15513
 31
0.0
  0
LINE
  5
16B19
  8
ALPHA
 10
1936.7357
 20
551.65513
 30
0.0
 11
1936.7357
 21
550.85513
 31
0.0
  0
POLYLINE
  5
16B1A
  8
ALPHA
 66
     1
 10
0.0
 20
0.0
 30
0.0
  0
VERTEX
  5
1AE59
  8
ALPHA
 10
1936.558453
 20
548.35513
 30
0.0
  0
VERTEX
  5
1AE5A
  8
ALPHA
 10
1936.6252
 20
548.362512
 30
0.0
  0
VERTEX
  5
1AE5B
  8
ALPHA
 10
1936.688436
 20
548.384202
 30
0.0
  0
VERTEX
  5
1AE5C
  8
ALPHA
 10
1936.745392
 20
548.419209
 30
0.0
  0
VERTEX
  5
1AE5D
  8
ALPHA
 10
1936.792922
 20
548.465495
 30
0.0
  0
VERTEX
  5
1AE5E
  8
ALPHA
 10
1936.829139
 20
548.521099
 30
0.0
  0
VERTEX
  5
1AE5F
  8
ALPHA
 10
1936.852106
 20
548.582942
 30
0.0
  0
VERTEX
  5
1AE60
  8
ALPHA
 10
1936.86091
 20
548.648324
 30
0.0
  0
SEQEND
  5
1AE61
  8
ALPHA
  0
LINE
  5
16B24
  8
ALPHA
 10
1936.897118
 20
549.15513
 30
0.0
 11
1936.872499
 21
549.15513
 31
0.0
  0
LINE
  5
16B25
  8
ALPHA
 10
1940.6357
 20
556.95513
 30
0.0
 11
1940.6357
 21
553.95513
 31
0.0
  0
LINE
  5
16B26
  8
ALPHA
 10
1942.6357
 20
553.95513
 30
0.0
 11
1942.6357
 21
556.95513
 31
0.0
  0
LINE
  5
16B27
  8
ALPHA
 10
1942.6357
 20
556.95513
 30
0.0
 11
1940.6357
 21
556.95513
 31
0.0
  0
LINE
  5
16B28
  8
ALPHA
 10
1942.6357
 20
555.95513
 30
0.0
 11
1940.6357
 21
555.95513
 31
0.0
  0
LINE
  5
16B29
  8
ALPHA
 10
1930.1357
 20
552.45513
 30
0.0
 11
1930.1357
 21
551.65513
 31
0.0
  0
LINE
  5
16B2A
  8
ALPHA
 10
1930.5357
 20
551.65513
 30
0.0
 11
1930.5357
 21
550.85513
 31
0.0
  0
LINE
  5
16B2B
  8
ALPHA
 10
1930.3357
 20
550.85513
 30
0.0
 11
1930.374278
 21
549.15513
 31
0.0
  0
LINE
  5
16B2C
  8
ALPHA
 10
1930.3989
 20
549.15513
 30
0.0
 11
1930.410489
 21
548.648324
 31
0.0
  0
POLYLINE
  5
16B2D
  8
ALPHA
 66
     1
 10
0.0
 20
0.0
 30
0.0
  0
VERTEX
  5
1AE62
  8
ALPHA
 10
1930.712947
 20
548.35513
 30
0.0
  0
VERTEX
  5
1AE63
  8
ALPHA
 10
1930.646199
 20
548.362512
 30
0.0
  0
VERTEX
  5
1AE64
  8
ALPHA
 10
1930.582963
 20
548.384202
 30
0.0
  0
VERTEX
  5
1AE65
  8
ALPHA
 10
1930.526008
 20
548.419209
 30
0.0
  0
VERTEX
  5
1AE66
  8
ALPHA
 10
1930.478478
 20
548.465495
 30
0.0
  0
VERTEX
  5
1AE67
  8
ALPHA
 10
1930.442261
 20
548.521099
 30
0.0
  0
VERTEX
  5
1AE68
  8
ALPHA
 10
1930.419294
 20
548.582942
 30
0.0
  0
VERTEX
  5
1AE69
  8
ALPHA
 10
1930.410489
 20
548.648324
 30
0.0
  0
SEQEND
  5
1AE6A
  8
ALPHA
  0
LINE
  5
16B37
  8
ALPHA
 10
1930.3989
 20
549.15513
 30
0.0
 11
1930.374282
 21
549.15513
 31
0.0
  0
LINE
  5
16B38
  8
ALPHA
 10
1924.6357
 20
556.95513
 30
0.0
 11
1924.6357
 21
553.95513
 31
0.0
  0
LINE
  5
16B39
  8
ALPHA
 10
1926.6357
 20
553.95513
 30
0.0
 11
1926.6357
 21
556.95513
 31
0.0
  0
LINE
  5
16B3A
  8
ALPHA
 10
1926.6357
 20
556.95513
 30
0.0
 11
1924.6357
 21
556.95513
 31
0.0
  0
LINE
  5
16B3B
  8
ALPHA
 10
1926.6357
 20
555.95513
 30
0.0
 11
1924.6357
 21
555.95513
 31
0.0
  0
ARC
  5
16B3C
  8
ALPHA
 10
1903.2857
 20
554.95513
 30
0.0
 40
2.5
 50
203.854337
 51
270.0
  0
LINE
  5
16B3D
  8
ALPHA
 10
1906.8857
 20
552.45513
 30
0.0
 11
1906.8857
 21
551.55513
 31
0.0
  0
LINE
  5
16B3E
  8
ALPHA
 10
1910.8857
 20
552.45513
 30
0.0
 11
1910.8857
 21
551.55513
 31
0.0
  0
LINE
  5
16B3F
  8
ALPHA
 10
1906.8857
 20
551.55513
 30
0.0
 11
1907.3857
 21
551.05513
 31
0.0
  0
LINE
  5
16B40
  8
ALPHA
 10
1910.8857
 20
551.55513
 30
0.0
 11
1906.8857
 21
551.55513
 31
0.0
  0
LINE
  5
16B41
  8
ALPHA
 10
1910.8857
 20
551.55513
 30
0.0
 11
1910.3857
 21
551.05513
 31
0.0
  0
LINE
  5
16B42
  8
ALPHA
 10
1910.385632
 20
551.05513
 30
0.0
 11
1907.385767
 21
551.05513
 31
0.0
  0
LINE
  5
16B43
  8
ALPHA
 10
1903.2857
 20
553.95513
 30
0.0
 11
1903.2857
 21
552.45513
 31
0.0
  0
LINE
  5
16B44
  8
ALPHA
 10
1775.6357
 20
556.95513
 30
0.0
 11
1890.6357
 21
556.95513
 31
0.0
  0
LINE
  5
16B45
  8
ALPHA
 10
1899.756847
 20
549.437677
 30
0.0
 11
1770.818397
 21
549.437677
 31
0.0
  0
LINE
  5
16B46
  8
ALPHA
 10
1899.739697
 20
548.45513
 30
0.0
 11
1770.818397
 21
548.45513
 31
0.0
  0
LINE
  5
16B47
  8
ALPHA
 10
1899.739697
 20
548.45513
 30
0.0
 11
1899.8357
 21
553.95513
 31
0.0
  0
LINE
  5
16B48
  8
ALPHA
 10
1890.6357
 20
556.95513
 30
0.0
 11
1890.6357
 21
553.95513
 31
0.0
  0
LINE
  5
16B49
  8
ALPHA
 10
1892.6357
 20
553.95513
 30
0.0
 11
1892.6357
 21
556.95513
 31
0.0
  0
LINE
  5
16B4A
  8
ALPHA
 10
1892.6357
 20
556.95513
 30
0.0
 11
1890.6357
 21
556.95513
 31
0.0
  0
LINE
  5
16B4B
  8
ALPHA
 10
1769.385407
 20
573.55513
 30
0.0
 11
1769.806372
 21
549.437677
 31
0.0
  0
LINE
  5
16B4C
  8
ALPHA
 10
1769.818549
 20
549.437677
 30
0.0
 11
1769.397578
 21
573.55513
 31
0.0
  0
LINE
  5
16B4D
  8
ALPHA
 10
1770.818397
 20
549.437677
 30
0.0
 11
1770.397425
 21
573.55513
 31
0.0
  0
LINE
  5
16B4E
  8
ALPHA
 10
1771.397578
 20
573.55513
 30
0.0
 11
1771.739697
 21
553.95513
 31
0.0
  0
ARC
  5
16B4F
  8
ALPHA
 10
1770.818402
 20
549.45513
 30
0.0
 40
1.000002
 50
180.999995
 51
270.0
  0
LINE
  5
16B50
  8
ALPHA
 10
1770.818397
 20
548.45513
 30
0.0
 11
1770.818397
 21
549.437677
 31
0.0
  0
POLYLINE
  5
16B51
  8
ALPHA
 66
     1
 10
0.0
 20
0.0
 30
0.0
  0
VERTEX
  5
1AE6B
  8
ALPHA
 10
1769.818549
 20
549.437677
 30
0.0
  0
VERTEX
  5
1AE6C
  8
ALPHA
 10
1769.894746
 20
549.43233
 30
0.0
  0
VERTEX
  5
1AE6D
  8
ALPHA
 10
1770.111506
 20
549.430452
 30
0.0
  0
VERTEX
  5
1AE6E
  8
ALPHA
 10
1770.435842
 20
549.43233
 30
0.0
  0
VERTEX
  5
1AE6F
  8
ALPHA
 10
1770.818397
 20
549.437677
 30
0.0
  0
SEQEND
  5
1AE70
  8
ALPHA
  0
POLYLINE
  5
16B58
  8
ALPHA
 66
     1
 10
0.0
 20
0.0
 30
0.0
  0
VERTEX
  5
1AE71
  8
ALPHA
 10
1770.800131
 20
548.45513
 30
0.0
  0
VERTEX
  5
1AE72
  8
ALPHA
 10
1770.423788
 20
548.529589
 30
0.0
  0
VERTEX
  5
1AE73
  8
ALPHA
 10
1770.10349
 20
548.741879
 30
0.0
  0
VERTEX
  5
1AE74
  8
ALPHA
 10
1769.886935
 20
549.060386
 30
0.0
  0
VERTEX
  5
1AE75
  8
ALPHA
 10
1769.806372
 20
549.437677
 30
0.0
  0
SEQEND
  5
1AE76
  8
ALPHA
  0
LINE
  5
16B5F
  8
ALPHA
 10
1775.6357
 20
553.95513
 30
0.0
 11
1775.6357
 21
556.95513
 31
0.0
  0
LINE
  5
16B60
  8
ALPHA
 10
1775.6357
 20
556.95513
 30
0.0
 11
1772.6357
 21
556.95513
 31
0.0
  0
LINE
  5
16B61
  8
ALPHA
 10
1772.6357
 20
574.35513
 30
0.0
 11
1771.1357
 21
574.35513
 31
0.0
  0
LINE
  5
16B62
  8
ALPHA
 10
1772.6357
 20
569.95513
 30
0.0
 11
1771.460416
 21
569.95513
 31
0.0
  0
LINE
  5
16B63
  8
ALPHA
 10
1769.107497
 20
575.986503
 30
0.0
 11
1769.107497
 21
583.923757
 31
0.0
  0
LINE
  5
16B64
  8
ALPHA
 10
1769.6357
 20
575.986503
 30
0.0
 11
1769.6357
 21
575.955146
 31
0.0
  0
LINE
  5
16B65
  8
ALPHA
 10
1769.6357
 20
583.955114
 30
0.0
 11
1769.6357
 21
583.923757
 31
0.0
  0
LINE
  5
16B66
  8
ALPHA
 10
1769.6357
 20
583.95513
 30
0.0
 11
1771.1357
 21
583.95513
 31
0.0
  0
LINE
  5
16B67
  8
ALPHA
 10
1769.107497
 20
583.923757
 30
0.0
 11
1769.6357
 21
583.923757
 31
0.0
  0
LINE
  5
16B68
  8
ALPHA
 10
1768.879116
 20
576.414937
 30
0.0
 11
1769.107497
 21
575.986503
 31
0.0
  0
LINE
  5
16B69
  8
ALPHA
 10
1772.6357
 20
576.35513
 30
0.0
 11
1771.1357
 21
576.35513
 31
0.0
  0
LINE
  5
16B6A
  8
ALPHA
 10
1769.107497
 20
575.986503
 30
0.0
 11
1769.6357
 21
575.986503
 31
0.0
  0
LINE
  5
16B6B
  8
ALPHA
 10
1769.6357
 20
575.95513
 30
0.0
 11
1771.1357
 21
575.95513
 31
0.0
  0
POLYLINE
  5
16B6C
  8
ALPHA
 66
     1
 10
0.0
 20
0.0
 30
0.0
  0
VERTEX
  5
1AE77
  8
ALPHA
 10
1737.4357
 20
631.639104
 30
0.0
  0
VERTEX
  5
1AE78
  8
ALPHA
 10
1737.627081
 20
635.43989
 30
0.0
  0
VERTEX
  5
1AE79
  8
ALPHA
 10
1738.209677
 20
640.79435
 30
0.0
  0
VERTEX
  5
1AE7A
  8
ALPHA
 10
1739.18991
 20
647.569591
 30
0.0
  0
SEQEND
  5
1AE7B
  8
ALPHA
  0
POLYLINE
  5
16B72
  8
ALPHA
 66
     1
 10
0.0
 20
0.0
 30
0.0
  0
VERTEX
  5
1AE7C
  8
ALPHA
 10
1768.037101
 20
568.003128
 30
0.0
  0
VERTEX
  5
1AE7D
  8
ALPHA
 10
1768.173256
 20
567.296631
 30
0.0
  0
VERTEX
  5
1AE7E
  8
ALPHA
 10
1768.297508
 20
566.289591
 30
0.0
  0
VERTEX
  5
1AE7F
  8
ALPHA
 10
1768.401841
 20
565.03708
 30
0.0
  0
VERTEX
  5
1AE80
  8
ALPHA
 10
1768.479169
 20
563.60657
 30
0.0
  0
VERTEX
  5
1AE81
  8
ALPHA
 10
1768.523621
 20
562.087677
 30
0.0
  0
SEQEND
  5
1AE82
  8
ALPHA
  0
POLYLINE
  5
16B7A
  8
ALPHA
 66
     1
 10
0.0
 20
0.0
 30
0.0
  0
VERTEX
  5
1AE83
  8
ALPHA
 10
1766.324698
 20
568.038634
 30
0.0
  0
VERTEX
  5
1AE84
  8
ALPHA
 10
1766.326568
 20
568.031698
 30
0.0
  0
VERTEX
  5
1AE85
  8
ALPHA
 10
1766.341928
 20
567.963851
 30
0.0
  0
VERTEX
  5
1AE86
  8
ALPHA
 10
1766.363901
 20
567.843915
 30
0.0
  0
VERTEX
  5
1AE87
  8
ALPHA
 10
1766.389154
 20
567.678829
 30
0.0
  0
VERTEX
  5
1AE88
  8
ALPHA
 10
1766.416176
 20
567.47204
 30
0.0
  0
VERTEX
  5
1AE89
  8
ALPHA
 10
1766.444168
 20
567.225094
 30
0.0
  0
VERTEX
  5
1AE8A
  8
ALPHA
 10
1766.472642
 20
566.938844
 30
0.0
  0
VERTEX
  5
1AE8B
  8
ALPHA
 10
1766.501172
 20
566.614279
 30
0.0
  0
VERTEX
  5
1AE8C
  8
ALPHA
 10
1766.529352
 20
566.252381
 30
0.0
  0
VERTEX
  5
1AE8D
  8
ALPHA
 10
1766.556823
 20
565.854701
 30
0.0
  0
VERTEX
  5
1AE8E
  8
ALPHA
 10
1766.583235
 20
565.4232
 30
0.0
  0
VERTEX
  5
1AE8F
  8
ALPHA
 10
1766.608184
 20
564.960211
 30
0.0
  0
VERTEX
  5
1AE90
  8
ALPHA
 10
1766.631344
 20
564.468365
 30
0.0
  0
VERTEX
  5
1AE91
  8
ALPHA
 10
1766.652406
 20
563.950729
 30
0.0
  0
VERTEX
  5
1AE92
  8
ALPHA
 10
1766.671019
 20
563.410779
 30
0.0
  0
VERTEX
  5
1AE93
  8
ALPHA
 10
1766.686913
 20
562.852345
 30
0.0
  0
VERTEX
  5
1AE94
  8
ALPHA
 10
1766.699783
 20
562.280023
 30
0.0
  0
SEQEND
  5
1AE95
  8
ALPHA
  0
POLYLINE
  5
16B8E
  8
ALPHA
 66
     1
 10
0.0
 20
0.0
 30
0.0
  0
VERTEX
  5
1AE96
  8
ALPHA
 10
1765.17103
 20
568.280024
 30
0.0
  0
VERTEX
  5
1AE97
  8
ALPHA
 10
1765.170938
 20
568.28065
 30
0.0
  0
VERTEX
  5
1AE98
  8
ALPHA
 10
1765.172495
 20
568.268012
 30
0.0
  0
VERTEX
  5
1AE99
  8
ALPHA
 10
1765.176038
 20
568.234205
 30
0.0
  0
VERTEX
  5
1AE9A
  8
ALPHA
 10
1765.180763
 20
568.18194
 30
0.0
  0
VERTEX
  5
1AE9B
  8
ALPHA
 10
1765.186259
 20
568.11304
 30
0.0
  0
VERTEX
  5
1AE9C
  8
ALPHA
 10
1765.192278
 20
568.029183
 30
0.0
  0
VERTEX
  5
1AE9D
  8
ALPHA
 10
1765.198743
 20
567.930704
 30
0.0
  0
VERTEX
  5
1AE9E
  8
ALPHA
 10
1765.205622
 20
567.817536
 30
0.0
  0
VERTEX
  5
1AE9F
  8
ALPHA
 10
1765.212876
 20
567.689495
 30
0.0
  0
VERTEX
  5
1AEA0
  8
ALPHA
 10
1765.220485
 20
567.546047
 30
0.0
  0
VERTEX
  5
1AEA1
  8
ALPHA
 10
1765.22844
 20
567.386523
 30
0.0
  0
VERTEX
  5
1AEA2
  8
ALPHA
 10
1765.236745
 20
567.210142
 30
0.0
  0
VERTEX
  5
1AEA3
  8
ALPHA
 10
1765.245412
 20
567.01608
 30
0.0
  0
VERTEX
  5
1AEA4
  8
ALPHA
 10
1765.254407
 20
566.803956
 30
0.0
  0
VERTEX
  5
1AEA5
  8
ALPHA
 10
1765.263677
 20
566.573617
 30
0.0
  0
VERTEX
  5
1AEA6
  8
ALPHA
 10
1765.273172
 20
566.325016
 30
0.0
  0
VERTEX
  5
1AEA7
  8
ALPHA
 10
1765.282856
 20
566.05822
 30
0.0
  0
VERTEX
  5
1AEA8
  8
ALPHA
 10
1765.292696
 20
565.773472
 30
0.0
  0
VERTEX
  5
1AEA9
  8
ALPHA
 10
1765.302617
 20
565.471266
 30
0.0
  0
VERTEX
  5
1AEAA
  8
ALPHA
 10
1765.312535
 20
565.152235
 30
0.0
  0
VERTEX
  5
1AEAB
  8
ALPHA
 10
1765.322386
 20
564.817114
 30
0.0
  0
VERTEX
  5
1AEAC
  8
ALPHA
 10
1765.332127
 20
564.466777
 30
0.0
  0
VERTEX
  5
1AEAD
  8
ALPHA
 10
1765.341693
 20
564.102277
 30
0.0
  0
VERTEX
  5
1AEAE
  8
ALPHA
 10
1765.350998
 20
563.724803
 30
0.0
  0
VERTEX
  5
1AEAF
  8
ALPHA
 10
1765.359973
 20
563.335675
 30
0.0
  0
VERTEX
  5
1AEB0
  8
ALPHA
 10
1765.368576
 20
562.93635
 30
0.0
  0
VERTEX
  5
1AEB1
  8
ALPHA
 10
1765.376732
 20
562.528549
 30
0.0
  0
SEQEND
  5
1AEB2
  8
ALPHA
  0
POLYLINE
  5
16BAC
  8
ALPHA
 66
     1
 10
0.0
 20
0.0
 30
0.0
  0
VERTEX
  5
1AEB3
  8
ALPHA
 10
1767.413505
 20
562.087677
 30
0.0
  0
VERTEX
  5
1AEB4
  8
ALPHA
 10
1767.401512
 20
563.60899
 30
0.0
  0
VERTEX
  5
1AEB5
  8
ALPHA
 10
1767.419829
 20
565.039534
 30
0.0
  0
VERTEX
  5
1AEB6
  8
ALPHA
 10
1767.467738
 20
566.290462
 30
0.0
  0
VERTEX
  5
1AEB7
  8
ALPHA
 10
1767.543305
 20
567.295673
 30
0.0
  0
VERTEX
  5
1AEB8
  8
ALPHA
 10
1767.643454
 20
568.00138
 30
0.0
  0
VERTEX
  5
1AEB9
  8
ALPHA
 10
1767.763751
 20
568.36686
 30
0.0
  0
VERTEX
  5
1AEBA
  8
ALPHA
 10
1767.897603
 20
568.36768
 30
0.0
  0
VERTEX
  5
1AEBB
  8
ALPHA
 10
1768.037101
 20
568.003128
 30
0.0
  0
SEQEND
  5
1AEBC
  8
ALPHA
  0
POLYLINE
  5
16BB7
  8
ALPHA
 66
     1
 10
0.0
 20
0.0
 30
0.0
  0
VERTEX
  5
1AEBD
  8
ALPHA
 10
1768.392808
 20
562.10513
 30
0.0
  0
VERTEX
  5
1AEBE
  8
ALPHA
 10
1768.380808
 20
563.391695
 30
0.0
  0
VERTEX
  5
1AEBF
  8
ALPHA
 10
1768.399173
 20
564.595083
 30
0.0
  0
VERTEX
  5
1AEC0
  8
ALPHA
 10
1768.409674
 20
564.825854
 30
0.0
  0
SEQEND
  5
1AEC1
  8
ALPHA
  0
POLYLINE
  5
16BBD
  8
ALPHA
 66
     1
 10
0.0
 20
0.0
 30
0.0
  0
VERTEX
  5
1AEC2
  8
ALPHA
 10
1765.988616
 20
562.087677
 30
0.0
  0
VERTEX
  5
1AEC3
  8
ALPHA
 10
1765.970808
 20
563.613027
 30
0.0
  0
VERTEX
  5
1AEC4
  8
ALPHA
 10
1765.972053
 20
565.048196
 30
0.0
  0
VERTEX
  5
1AEC5
  8
ALPHA
 10
1765.992882
 20
566.305604
 30
0.0
  0
VERTEX
  5
1AEC6
  8
ALPHA
 10
1766.033028
 20
567.317038
 30
0.0
  0
VERTEX
  5
1AEC7
  8
ALPHA
 10
1766.091413
 20
568.027594
 30
0.0
  0
SEQEND
  5
1AEC8
  8
ALPHA
  0
POLYLINE
  5
16BC5
  8
ALPHA
 66
     1
 10
0.0
 20
0.0
 30
0.0
  0
VERTEX
  5
1AEC9
  8
ALPHA
 10
1765.186883
 20
562.087677
 30
0.0
  0
VERTEX
  5
1AECA
  8
ALPHA
 10
1765.161439
 20
563.618661
 30
0.0
  0
VERTEX
  5
1AECB
  8
ALPHA
 10
1765.140342
 20
565.059064
 30
0.0
  0
VERTEX
  5
1AECC
  8
ALPHA
 10
1765.125626
 20
566.320641
 30
0.0
  0
VERTEX
  5
1AECD
  8
ALPHA
 10
1765.119117
 20
567.334754
 30
0.0
  0
VERTEX
  5
1AECE
  8
ALPHA
 10
1765.122288
 20
568.046456
 30
0.0
  0
SEQEND
  5
1AECF
  8
ALPHA
  0
LINE
  5
16BCD
  8
ALPHA
 10
1764.970267
 20
573.55513
 30
0.0
 11
1765.391238
 21
549.437677
 31
0.0
  0
LINE
  5
16BCE
  8
ALPHA
 10
1765.319215
 20
564.924994
 30
0.0
 11
1765.353854
 21
563.61696
 31
0.0
  0
LINE
  5
16BCF
  8
ALPHA
 10
1766.606421
 20
565.045806
 30
0.0
 11
1766.666734
 21
563.610918
 31
0.0
  0
POLYLINE
  5
16BD0
  8
ALPHA
 66
     1
 10
0.0
 20
0.0
 30
0.0
  0
VERTEX
  5
1AED0
  8
ALPHA
 10
1768.028347
 20
567.892173
 30
0.0
  0
VERTEX
  5
1AED1
  8
ALPHA
 10
1768.029551
 20
567.88901
 30
0.0
  0
VERTEX
  5
1AED2
  8
ALPHA
 10
1768.052789
 20
567.814813
 30
0.0
  0
VERTEX
  5
1AED3
  8
ALPHA
 10
1768.0903
 20
567.662344
 30
0.0
  0
VERTEX
  5
1AED4
  8
ALPHA
 10
1768.13414
 20
567.442265
 30
0.0
  0
VERTEX
  5
1AED5
  8
ALPHA
 10
1768.180847
 20
567.15956
 30
0.0
  0
VERTEX
  5
1AED6
  8
ALPHA
 10
1768.228542
 20
566.817014
 30
0.0
  0
VERTEX
  5
1AED7
  8
ALPHA
 10
1768.275836
 20
566.417402
 30
0.0
  0
VERTEX
  5
1AED8
  8
ALPHA
 10
1768.321577
 20
565.963869
 30
0.0
  0
VERTEX
  5
1AED9
  8
ALPHA
 10
1768.364793
 20
565.460348
 30
0.0
  0
VERTEX
  5
1AEDA
  8
ALPHA
 10
1768.404521
 20
564.911521
 30
0.0
  0
VERTEX
  5
1AEDB
  8
ALPHA
 10
1768.439944
 20
564.322688
 30
0.0
  0
VERTEX
  5
1AEDC
  8
ALPHA
 10
1768.470315
 20
563.699961
 30
0.0
  0
VERTEX
  5
1AEDD
  8
ALPHA
 10
1768.494931
 20
563.050175
 30
0.0
  0
VERTEX
  5
1AEDE
  8
ALPHA
 10
1768.513226
 20
562.381043
 30
0.0
  0
VERTEX
  5
1AEDF
  8
ALPHA
 10
1768.519025
 20
562.087626
 30
0.0
  0
SEQEND
  5
1AEE0
  8
ALPHA
  0
LINE
  5
16BE2
  8
ALPHA
 10
1768.528045
 20
552.072151
 30
0.0
 11
1768.511829
 21
552.32747
 31
0.0
  0
LINE
  5
16BE3
  8
ALPHA
 10
1767.852562
 20
552.32747
 30
0.0
 11
1767.865986
 21
552.157257
 31
0.0
  0
LINE
  5
16BE4
  8
ALPHA
 10
1768.472402
 20
552.242364
 30
0.0
 11
1768.49289
 21
552.072151
 31
0.0
  0
LINE
  5
16BE5
  8
ALPHA
 10
1767.74721
 20
552.157257
 30
0.0
 11
1767.754443
 21
552.32747
 31
0.0
  0
POLYLINE
  5
16BE6
  8
ALPHA
 66
     1
 10
0.0
 20
0.0
 30
0.0
  0
VERTEX
  5
1AEE1
  8
ALPHA
 10
1766.559736
 20
550.880662
 30
0.0
  0
VERTEX
  5
1AEE2
  8
ALPHA
 10
1766.588676
 20
551.816856
 30
0.0
  0
VERTEX
  5
1AEE3
  8
ALPHA
 10
1766.618459
 20
552.753002
 30
0.0
  0
SEQEND
  5
1AEE4
  8
ALPHA
  0
POLYLINE
  5
16BEB
  8
ALPHA
 66
     1
 10
0.0
 20
0.0
 30
0.0
  0
VERTEX
  5
1AEE5
  8
ALPHA
 10
1766.595432
 20
553.008321
 30
0.0
  0
VERTEX
  5
1AEE6
  8
ALPHA
 10
1766.562779
 20
551.944522
 30
0.0
  0
VERTEX
  5
1AEE7
  8
ALPHA
 10
1766.531183
 20
550.880662
 30
0.0
  0
SEQEND
  5
1AEE8
  8
ALPHA
  0
LINE
  5
16BF0
  8
ALPHA
 10
1767.983746
 20
553.604066
 30
0.0
 11
1767.951622
 21
551.476406
 31
0.0
  0
LINE
  5
16BF1
  8
ALPHA
 10
1767.970537
 20
551.306193
 30
0.0
 11
1768.002874
 21
553.433853
 31
0.0
  0
POLYLINE
  5
16BF2
  8
ALPHA
 66
     1
 10
0.0
 20
0.0
 30
0.0
  0
VERTEX
  5
1AEE9
  8
ALPHA
 10
1765.49621
 20
553.008321
 30
0.0
  0
VERTEX
  5
1AEEA
  8
ALPHA
 10
1765.496512
 20
551.94449
 30
0.0
  0
VERTEX
  5
1AEEB
  8
ALPHA
 10
1765.497869
 20
550.880662
 30
0.0
  0
SEQEND
  5
1AEEC
  8
ALPHA
  0
POLYLINE
  5
16BF7
  8
ALPHA
 66
     1
 10
0.0
 20
0.0
 30
0.0
  0
VERTEX
  5
1AEED
  8
ALPHA
 10
1765.507578
 20
550.880662
 30
0.0
  0
VERTEX
  5
1AEEE
  8
ALPHA
 10
1765.507093
 20
551.816831
 30
0.0
  0
VERTEX
  5
1AEEF
  8
ALPHA
 10
1765.50745
 20
552.753002
 30
0.0
  0
SEQEND
  5
1AEF0
  8
ALPHA
  0
POLYLINE
  5
16BFC
  8
ALPHA
 66
     1
 10
0.0
 20
0.0
 30
0.0
  0
VERTEX
  5
1AEF1
  8
ALPHA
 10
1765.347241
 20
554.45513
 30
0.0
  0
VERTEX
  5
1AEF2
  8
ALPHA
 10
1765.359462
 20
553.30618
 30
0.0
  0
VERTEX
  5
1AEF3
  8
ALPHA
 10
1765.372457
 20
552.157257
 30
0.0
  0
SEQEND
  5
1AEF4
  8
ALPHA
  0
POLYLINE
  5
16C01
  8
ALPHA
 66
     1
 10
0.0
 20
0.0
 30
0.0
  0
VERTEX
  5
1AEF5
  8
ALPHA
 10
1765.376481
 20
552.157257
 30
0.0
  0
VERTEX
  5
1AEF6
  8
ALPHA
 10
1765.367609
 20
552.965762
 30
0.0
  0
VERTEX
  5
1AEF7
  8
ALPHA
 10
1765.359126
 20
553.774279
 30
0.0
  0
SEQEND
  5
1AEF8
  8
ALPHA
  0
LINE
  5
16C06
  8
ALPHA
 10
1765.422678
 20
551.306193
 30
0.0
 11
1765.396792
 21
553.433853
 31
0.0
  0
LINE
  5
16C07
  8
ALPHA
 10
1765.391142
 20
553.604066
 30
0.0
 11
1765.417238
 21
551.476406
 31
0.0
  0
LINE
  5
16C08
  8
ALPHA
 10
1765.410247
 20
549.437677
 30
0.0
 11
1765.305209
 21
555.45513
 31
0.0
  0
LINE
  5
16C09
  8
ALPHA
 10
1765.359126
 20
553.774279
 30
0.0
 11
1765.387353
 21
552.157257
 31
0.0
  0
LINE
  5
16C0A
  8
ALPHA
 10
1765.391562
 20
552.157257
 30
0.0
 11
1765.35145
 21
554.45513
 31
0.0
  0
LINE
  5
16C0B
  8
ALPHA
 10
1765.409564
 20
554.029598
 30
0.0
 11
1765.471965
 21
550.45513
 31
0.0
  0
LINE
  5
16C0C
  8
ALPHA
 10
1765.478244
 20
550.45513
 30
0.0
 11
1765.415842
 21
554.029598
 31
0.0
  0
LINE
  5
16C0D
  8
ALPHA
 10
1765.491413
 20
555.45513
 30
0.0
 11
1765.596478
 21
549.437677
 31
0.0
  0
LINE
  5
16C0E
  8
ALPHA
 10
1766.323238
 20
549.437677
 30
0.0
 11
1766.218068
 21
555.45513
 31
0.0
  0
LINE
  5
16C0F
  8
ALPHA
 10
1766.33175
 20
553.093428
 30
0.0
 11
1766.354064
 21
551.816832
 31
0.0
  0
LINE
  5
16C10
  8
ALPHA
 10
1766.37392
 20
551.816832
 30
0.0
 11
1766.351605
 21
553.093428
 31
0.0
  0
LINE
  5
16C11
  8
ALPHA
 10
1766.668365
 20
555.45513
 30
0.0
 11
1766.773601
 21
549.437677
 31
0.0
  0
LINE
  5
16C12
  8
ALPHA
 10
1767.654802
 20
549.45513
 30
0.0
 11
1767.549743
 21
555.45513
 31
0.0
  0
LINE
  5
16C13
  8
ALPHA
 10
1767.7012
 20
552.753002
 30
0.0
 11
1767.711632
 21
552.157257
 31
0.0
  0
LINE
  5
16C14
  8
ALPHA
 10
1768.123363
 20
554.029598
 30
0.0
 11
1768.185999
 21
550.45513
 31
0.0
  0
LINE
  5
16C15
  8
ALPHA
 10
1768.219224
 20
550.45513
 30
0.0
 11
1768.156585
 21
554.029598
 31
0.0
  0
LINE
  5
16C16
  8
ALPHA
 10
1767.900426
 20
551.987045
 30
0.0
 11
1767.882465
 21
552.412577
 31
0.0
  0
ARC
  5
16C17
  8
ALPHA
 10
1766.391086
 20
549.45513
 30
0.0
 40
1.0
 50
181.0
 51
270.0
  0
LINE
  5
16C18
  8
ALPHA
 10
1766.422323
 20
550.965768
 30
0.0
 11
1766.40736
 21
551.050874
 31
0.0
  0
LINE
  5
16C19
  8
ALPHA
 10
1767.810556
 20
550.880662
 30
0.0
 11
1767.793654
 21
550.965768
 31
0.0
  0
LINE
  5
16C1A
  8
ALPHA
 10
1766.412931
 20
550.540236
 30
0.0
 11
1766.431249
 21
550.45513
 31
0.0
  0
LINE
  5
16C1B
  8
ALPHA
 10
1765.417238
 20
551.476406
 30
0.0
 11
1765.422678
 21
551.306193
 31
0.0
  0
LINE
  5
16C1C
  8
ALPHA
 10
1766.394335
 20
551.221087
 30
0.0
 11
1766.383199
 21
551.476406
 31
0.0
  0
LINE
  5
16C1D
  8
ALPHA
 10
1766.377356
 20
551.050874
 30
0.0
 11
1766.396588
 21
550.710449
 31
0.0
  0
LINE
  5
16C1E
  8
ALPHA
 10
1767.77531
 20
551.135981
 30
0.0
 11
1767.760625
 21
551.3913
 31
0.0
  0
LINE
  5
16C1F
  8
ALPHA
 10
1768.347841
 20
551.135981
 30
0.0
 11
1768.363707
 21
550.880662
 31
0.0
  0
LINE
  5
16C20
  8
ALPHA
 10
1767.744733
 20
551.135981
 30
0.0
 11
1767.765959
 21
550.795555
 31
0.0
  0
LINE
  5
16C21
  8
ALPHA
 10
1766.40736
 20
551.050874
 30
0.0
 11
1766.394335
 21
551.221087
 31
0.0
  0
LINE
  5
16C22
  8
ALPHA
 10
1768.389297
 20
551.050874
 30
0.0
 11
1768.374868
 21
551.221087
 31
0.0
  0
LINE
  5
16C23
  8
ALPHA
 10
1766.396588
 20
550.710449
 30
0.0
 11
1766.412931
 21
550.540236
 31
0.0
  0
LINE
  5
16C24
  8
ALPHA
 10
1767.793654
 20
550.965768
 30
0.0
 11
1767.77531
 21
551.135981
 31
0.0
  0
LINE
  5
16C25
  8
ALPHA
 10
1767.951622
 20
551.476406
 30
0.0
 11
1767.970537
 21
551.306193
 31
0.0
  0
LINE
  5
16C26
  8
ALPHA
 10
1767.765959
 20
550.795555
 30
0.0
 11
1767.79598
 21
550.540236
 31
0.0
  0
LINE
  5
16C27
  8
ALPHA
 10
1768.363707
 20
550.880662
 30
0.0
 11
1768.383818
 21
550.710449
 31
0.0
  0
LINE
  5
16C28
  8
ALPHA
 10
1768.383818
 20
550.710449
 30
0.0
 11
1768.409715
 21
550.540236
 31
0.0
  0
LINE
  5
16C29
  8
ALPHA
 10
1768.402256
 20
550.965768
 30
0.0
 11
1768.389297
 21
551.050874
 31
0.0
  0
LINE
  5
16C2A
  8
ALPHA
 10
1766.472628
 20
551.221087
 30
0.0
 11
1766.465229
 21
551.050874
 31
0.0
  0
LINE
  5
16C2B
  8
ALPHA
 10
1767.895067
 20
550.795555
 30
0.0
 11
1767.904826
 21
551.135981
 31
0.0
  0
LINE
  5
16C2C
  8
ALPHA
 10
1768.537194
 20
550.880662
 30
0.0
 11
1768.544458
 21
551.135981
 31
0.0
  0
LINE
  5
16C2D
  8
ALPHA
 10
1766.488498
 20
550.710449
 30
0.0
 11
1766.496499
 21
551.050874
 31
0.0
  0
LINE
  5
16C2E
  8
ALPHA
 10
1767.879403
 20
551.3913
 30
0.0
 11
1767.873432
 21
551.135981
 31
0.0
  0
LINE
  5
16C2F
  8
ALPHA
 10
1768.516523
 20
551.3913
 30
0.0
 11
1768.513656
 21
551.221087
 31
0.0
  0
LINE
  5
16C30
  8
ALPHA
 10
1767.904826
 20
551.135981
 30
0.0
 11
1767.90788
 21
551.561513
 31
0.0
  0
LINE
  5
16C31
  8
ALPHA
 10
1768.544458
 20
551.135981
 30
0.0
 11
1768.54586
 21
551.3913
 31
0.0
  0
LINE
  5
16C32
  8
ALPHA
 10
1767.88016
 20
551.646619
 30
0.0
 11
1767.879403
 21
551.3913
 31
0.0
  0
LINE
  5
16C33
  8
ALPHA
 10
1767.746583
 20
551.901938
 30
0.0
 11
1767.74721
 21
552.157257
 31
0.0
  0
LINE
  5
16C34
  8
ALPHA
 10
1766.471634
 20
551.476406
 30
0.0
 11
1766.472628
 21
551.221087
 31
0.0
  0
LINE
  5
16C35
  8
ALPHA
 10
1766.496499
 20
551.050874
 30
0.0
 11
1766.492561
 21
551.476406
 31
0.0
  0
LINE
  5
16C36
  8
ALPHA
 10
1765.372457
 20
552.157257
 30
0.0
 11
1765.381371
 21
551.646619
 31
0.0
  0
LINE
  5
16C37
  8
ALPHA
 10
1765.396267
 20
551.646619
 30
0.0
 11
1765.417066
 21
550.45513
 31
0.0
  0
LINE
  5
16C38
  8
ALPHA
 10
1765.421275
 20
550.45513
 30
0.0
 11
1765.400476
 21
551.646619
 31
0.0
  0
LINE
  5
16C39
  8
ALPHA
 10
1765.407922
 20
551.646619
 30
0.0
 11
1765.399008
 21
552.157257
 31
0.0
  0
LINE
  5
16C3A
  8
ALPHA
 10
1765.497869
 20
550.880662
 30
0.0
 11
1765.505298
 21
550.45513
 31
0.0
  0
LINE
  5
16C3B
  8
ALPHA
 10
1765.551703
 20
550.45513
 30
0.0
 11
1765.544273
 21
550.880662
 31
0.0
  0
LINE
  5
16C3C
  8
ALPHA
 10
1766.531183
 20
550.880662
 30
0.0
 11
1766.538622
 21
550.45513
 31
0.0
  0
LINE
  5
16C3D
  8
ALPHA
 10
1766.669843
 20
550.45513
 30
0.0
 11
1766.662402
 21
550.880662
 31
0.0
  0
LINE
  5
16C3E
  8
ALPHA
 10
1767.751054
 20
551.646619
 30
0.0
 11
1767.746583
 21
551.901938
 31
0.0
  0
LINE
  5
16C3F
  8
ALPHA
 10
1767.875688
 20
551.901938
 30
0.0
 11
1767.88016
 21
551.646619
 31
0.0
  0
LINE
  5
16C40
  8
ALPHA
 10
1767.90788
 20
551.561513
 30
0.0
 11
1767.900426
 21
551.987045
 31
0.0
  0
LINE
  5
16C41
  8
ALPHA
 10
1768.510555
 20
551.731726
 30
0.0
 11
1768.516523
 21
551.3913
 31
0.0
  0
LINE
  5
16C42
  8
ALPHA
 10
1768.54586
 20
551.3913
 30
0.0
 11
1768.539891
 21
551.731726
 31
0.0
  0
LINE
  5
16C43
  8
ALPHA
 10
1766.354064
 20
551.816832
 30
0.0
 11
1766.364798
 21
551.3913
 31
0.0
  0
LINE
  5
16C44
  8
ALPHA
 10
1767.711632
 20
552.157257
 30
0.0
 11
1767.727132
 21
551.561513
 31
0.0
  0
LINE
  5
16C45
  8
ALPHA
 10
1766.383199
 20
551.476406
 30
0.0
 11
1766.37392
 21
551.816832
 31
0.0
  0
LINE
  5
16C46
  8
ALPHA
 10
1768.539891
 20
551.731726
 30
0.0
 11
1768.528045
 21
552.072151
 31
0.0
  0
LINE
  5
16C47
  8
ALPHA
 10
1766.364798
 20
551.3913
 30
0.0
 11
1766.377356
 21
551.050874
 31
0.0
  0
LINE
  5
16C48
  8
ALPHA
 10
1767.760625
 20
551.3913
 30
0.0
 11
1767.751054
 21
551.646619
 31
0.0
  0
LINE
  5
16C49
  8
ALPHA
 10
1767.865986
 20
552.157257
 30
0.0
 11
1767.875688
 21
551.901938
 31
0.0
  0
LINE
  5
16C4A
  8
ALPHA
 10
1768.337678
 20
551.3913
 30
0.0
 11
1768.347841
 21
551.135981
 31
0.0
  0
LINE
  5
16C4B
  8
ALPHA
 10
1767.727132
 20
551.561513
 30
0.0
 11
1767.744733
 21
551.135981
 31
0.0
  0
LINE
  5
16C4C
  8
ALPHA
 10
1768.374868
 20
551.221087
 30
0.0
 11
1768.36617
 21
551.3913
 31
0.0
  0
LINE
  5
16C4D
  8
ALPHA
 10
1768.49289
 20
552.072151
 30
0.0
 11
1768.510555
 21
551.731726
 31
0.0
  0
LINE
  5
16C4E
  8
ALPHA
 10
1766.465229
 20
551.050874
 30
0.0
 11
1766.45296
 21
550.965768
 31
0.0
  0
LINE
  5
16C4F
  8
ALPHA
 10
1768.502242
 20
550.540236
 30
0.0
 11
1768.522608
 21
550.710449
 31
0.0
  0
LINE
  5
16C50
  8
ALPHA
 10
1768.504954
 20
551.050874
 30
0.0
 11
1768.494782
 21
550.965768
 31
0.0
  0
LINE
  5
16C51
  8
ALPHA
 10
1768.522608
 20
550.710449
 30
0.0
 11
1768.537194
 21
550.880662
 31
0.0
  0
LINE
  5
16C52
  8
ALPHA
 10
1767.873446
 20
550.540236
 30
0.0
 11
1767.895067
 21
550.795555
 31
0.0
  0
LINE
  5
16C53
  8
ALPHA
 10
1767.873432
 20
551.135981
 30
0.0
 11
1767.86079
 21
550.965768
 31
0.0
  0
LINE
  5
16C54
  8
ALPHA
 10
1766.477609
 20
550.540236
 30
0.0
 11
1766.488498
 21
550.710449
 31
0.0
  0
LINE
  5
16C55
  8
ALPHA
 10
1768.513656
 20
551.221087
 30
0.0
 11
1768.504954
 21
551.050874
 31
0.0
  0
LINE
  5
16C56
  8
ALPHA
 10
1766.461886
 20
550.45513
 30
0.0
 11
1766.477609
 21
550.540236
 31
0.0
  0
LINE
  5
16C57
  8
ALPHA
 10
1767.86079
 20
550.965768
 30
0.0
 11
1767.846706
 21
550.880662
 31
0.0
  0
LINE
  5
16C58
  8
ALPHA
 10
1768.494782
 20
550.965768
 30
0.0
 11
1768.46721
 21
550.880662
 31
0.0
  0
LINE
  5
16C59
  8
ALPHA
 10
1767.848978
 20
550.45513
 30
0.0
 11
1767.873446
 21
550.540236
 31
0.0
  0
LINE
  5
16C5A
  8
ALPHA
 10
1768.480471
 20
550.45513
 30
0.0
 11
1768.502242
 21
550.540236
 31
0.0
  0
LINE
  5
16C5B
  8
ALPHA
 10
1768.409715
 20
550.540236
 30
0.0
 11
1768.434208
 21
550.45513
 31
0.0
  0
LINE
  5
16C5C
  8
ALPHA
 10
1767.79598
 20
550.540236
 30
0.0
 11
1767.823156
 21
550.45513
 31
0.0
  0
LINE
  5
16C5D
  8
ALPHA
 10
1768.432512
 20
550.880662
 30
0.0
 11
1768.402256
 21
550.965768
 31
0.0
  0
LINE
  5
16C5E
  8
ALPHA
 10
1765.398997
 20
552.157257
 30
0.0
 11
1765.391551
 21
552.157257
 31
0.0
  0
LINE
  5
16C5F
  8
ALPHA
 10
1765.387342
 20
552.157257
 30
0.0
 11
1765.37647
 21
552.157257
 31
0.0
  0
LINE
  5
16C60
  8
ALPHA
 10
1765.381357
 20
551.646619
 30
0.0
 11
1765.396253
 21
551.646619
 31
0.0
  0
LINE
  5
16C61
  8
ALPHA
 10
1765.400462
 20
551.646619
 30
0.0
 11
1765.407909
 21
551.646619
 31
0.0
  0
LINE
  5
16C62
  8
ALPHA
 10
1766.492567
 20
551.476406
 30
0.0
 11
1766.47164
 21
551.476406
 31
0.0
  0
LINE
  5
16C63
  8
ALPHA
 10
1768.366155
 20
551.3913
 30
0.0
 11
1768.337664
 21
551.3913
 31
0.0
  0
LINE
  5
16C64
  8
ALPHA
 10
1766.452964
 20
550.965768
 30
0.0
 11
1766.422327
 21
550.965768
 31
0.0
  0
LINE
  5
16C65
  8
ALPHA
 10
1765.544257
 20
550.880662
 30
0.0
 11
1765.507561
 21
550.880662
 31
0.0
  0
LINE
  5
16C66
  8
ALPHA
 10
1766.662386
 20
550.880662
 30
0.0
 11
1766.55972
 21
550.880662
 31
0.0
  0
LINE
  5
16C67
  8
ALPHA
 10
1767.846689
 20
550.880662
 30
0.0
 11
1767.810539
 21
550.880662
 31
0.0
  0
LINE
  5
16C68
  8
ALPHA
 10
1768.467193
 20
550.880662
 30
0.0
 11
1768.432496
 21
550.880662
 31
0.0
  0
LINE
  5
16C69
  8
ALPHA
 10
1768.43421
 20
550.45513
 30
0.0
 11
1768.480473
 21
550.45513
 31
0.0
  0
LINE
  5
16C6A
  8
ALPHA
 10
1767.823158
 20
550.45513
 30
0.0
 11
1767.84898
 21
550.45513
 31
0.0
  0
LINE
  5
16C6B
  8
ALPHA
 10
1768.186001
 20
550.45513
 30
0.0
 11
1768.219226
 21
550.45513
 31
0.0
  0
LINE
  5
16C6C
  8
ALPHA
 10
1766.431251
 20
550.45513
 30
0.0
 11
1766.461888
 21
550.45513
 31
0.0
  0
LINE
  5
16C6D
  8
ALPHA
 10
1766.538624
 20
550.45513
 30
0.0
 11
1766.669845
 21
550.45513
 31
0.0
  0
LINE
  5
16C6E
  8
ALPHA
 10
1765.417068
 20
550.45513
 30
0.0
 11
1765.421277
 21
550.45513
 31
0.0
  0
LINE
  5
16C6F
  8
ALPHA
 10
1765.471967
 20
550.45513
 30
0.0
 11
1765.478246
 21
550.45513
 31
0.0
  0
LINE
  5
16C70
  8
ALPHA
 10
1765.5053
 20
550.45513
 30
0.0
 11
1765.551705
 21
550.45513
 31
0.0
  0
LINE
  5
16C71
  8
ALPHA
 10
1765.596176
 20
549.45513
 30
0.0
 11
1765.409945
 21
549.45513
 31
0.0
  0
LINE
  5
16C72
  8
ALPHA
 10
1766.773299
 20
549.45513
 30
0.0
 11
1766.322936
 21
549.45513
 31
0.0
  0
LINE
  5
16C73
  8
ALPHA
 10
1766.400888
 20
553.944491
 30
0.0
 11
1766.416132
 21
553.859385
 31
0.0
  0
LINE
  5
16C74
  8
ALPHA
 10
1768.511829
 20
552.32747
 30
0.0
 11
1768.47959
 21
552.497683
 31
0.0
  0
LINE
  5
16C75
  8
ALPHA
 10
1767.786372
 20
554.029598
 30
0.0
 11
1767.80342
 21
553.944491
 31
0.0
  0
LINE
  5
16C76
  8
ALPHA
 10
1767.816893
 20
552.582789
 30
0.0
 11
1767.833958
 21
552.497683
 31
0.0
  0
LINE
  5
16C77
  8
ALPHA
 10
1766.410657
 20
554.370023
 30
0.0
 11
1766.391961
 21
554.45513
 31
0.0
  0
LINE
  5
16C78
  8
ALPHA
 10
1766.548157
 20
554.029598
 30
0.0
 11
1766.567991
 21
553.944491
 31
0.0
  0
LINE
  5
16C79
  8
ALPHA
 10
1766.567926
 20
554.370023
 30
0.0
 11
1766.544375
 21
554.45513
 31
0.0
  0
LINE
  5
16C7A
  8
ALPHA
 10
1765.396792
 20
553.433853
 30
0.0
 11
1765.391142
 21
553.604066
 31
0.0
  0
LINE
  5
16C7B
  8
ALPHA
 10
1765.490883
 20
553.859385
 30
0.0
 11
1765.479461
 21
554.199811
 31
0.0
  0
POLYLINE
  5
16C7C
  8
ALPHA
 66
     1
 10
0.0
 20
0.0
 30
0.0
  0
VERTEX
  5
1AEF9
  8
ALPHA
 10
1765.330221
 20
556.133527
 30
0.0
  0
VERTEX
  5
1AEFA
  8
ALPHA
 10
1765.302203
 20
556.845497
 30
0.0
  0
VERTEX
  5
1AEFB
  8
ALPHA
 10
1765.273316
 20
557.85945
 30
0.0
  0
VERTEX
  5
1AEFC
  8
ALPHA
 10
1765.244012
 20
559.120039
 30
0.0
  0
VERTEX
  5
1AEFD
  8
ALPHA
 10
1765.214853
 20
560.558801
 30
0.0
  0
VERTEX
  5
1AEFE
  8
ALPHA
 10
1765.186883
 20
562.087677
 30
0.0
  0
SEQEND
  5
1AEFF
  8
ALPHA
  0
LINE
  5
16C84
  8
ALPHA
 10
1765.475862
 20
553.944491
 30
0.0
 11
1765.482837
 21
553.774279
 31
0.0
  0
LINE
  5
16C85
  8
ALPHA
 10
1766.582039
 20
553.774279
 30
0.0
 11
1766.593912
 21
553.518959
 31
0.0
  0
LINE
  5
16C86
  8
ALPHA
 10
1765.479461
 20
554.199811
 30
0.0
 11
1765.471096
 21
554.370023
 31
0.0
  0
LINE
  5
16C87
  8
ALPHA
 10
1766.447399
 20
553.859385
 30
0.0
 11
1766.427497
 21
554.199811
 31
0.0
  0
LINE
  5
16C88
  8
ALPHA
 10
1767.822007
 20
553.774279
 30
0.0
 11
1767.836911
 21
553.518959
 31
0.0
  0
LINE
  5
16C89
  8
ALPHA
 10
1766.606576
 20
553.859385
 30
0.0
 11
1766.585719
 21
554.199811
 31
0.0
  0
LINE
  5
16C8A
  8
ALPHA
 10
1768.45721
 20
553.774279
 30
0.0
 11
1768.473371
 21
553.518959
 31
0.0
  0
LINE
  5
16C8B
  8
ALPHA
 10
1767.853367
 20
553.774279
 30
0.0
 11
1767.8317
 21
554.114704
 31
0.0
  0
LINE
  5
16C8C
  8
ALPHA
 10
1766.416132
 20
553.859385
 30
0.0
 11
1766.429481
 21
553.689172
 31
0.0
  0
LINE
  5
16C8D
  8
ALPHA
 10
1767.882465
 20
552.412577
 30
0.0
 11
1767.862271
 21
552.667896
 31
0.0
  0
LINE
  5
16C8E
  8
ALPHA
 10
1766.567991
 20
553.944491
 30
0.0
 11
1766.582039
 21
553.774279
 31
0.0
  0
LINE
  5
16C8F
  8
ALPHA
 10
1768.490839
 20
553.859385
 30
0.0
 11
1768.461435
 21
554.199811
 31
0.0
  0
POLYLINE
  5
16C90
  8
ALPHA
 66
     1
 10
0.0
 20
0.0
 30
0.0
  0
VERTEX
  5
1AF00
  8
ALPHA
 10
1768.51045
 20
559.528765
 30
0.0
  0
VERTEX
  5
1AF01
  8
ALPHA
 10
1768.502819
 20
559.616277
 30
0.0
  0
VERTEX
  5
1AF02
  8
ALPHA
 10
1768.434349
 20
560.819415
 30
0.0
  0
VERTEX
  5
1AF03
  8
ALPHA
 10
1768.392808
 20
562.10513
 30
0.0
  0
SEQEND
  5
1AF04
  8
ALPHA
  0
LINE
  5
16C96
  8
ALPHA
 10
1765.46781
 20
554.029598
 30
0.0
 11
1765.475862
 21
553.944491
 31
0.0
  0
LINE
  5
16C97
  8
ALPHA
 10
1766.427497
 20
554.199811
 30
0.0
 11
1766.410657
 21
554.370023
 31
0.0
  0
LINE
  5
16C98
  8
ALPHA
 10
1766.585719
 20
554.199811
 30
0.0
 11
1766.567926
 21
554.370023
 31
0.0
  0
LINE
  5
16C99
  8
ALPHA
 10
1767.80342
 20
553.944491
 30
0.0
 11
1767.822007
 21
553.774279
 31
0.0
  0
LINE
  5
16C9A
  8
ALPHA
 10
1767.833958
 20
552.497683
 30
0.0
 11
1767.852562
 21
552.32747
 31
0.0
  0
LINE
  5
16C9B
  8
ALPHA
 10
1765.471096
 20
554.370023
 30
0.0
 11
1765.461683
 21
554.45513
 31
0.0
  0
LINE
  5
16C9C
  8
ALPHA
 10
1768.002874
 20
553.433853
 30
0.0
 11
1767.983746
 21
553.604066
 31
0.0
  0
LINE
  5
16C9D
  8
ALPHA
 10
1767.862271
 20
552.667896
 30
0.0
 11
1767.831707
 21
552.923215
 31
0.0
  0
LINE
  5
16C9E
  8
ALPHA
 10
1767.8317
 20
554.114704
 30
0.0
 11
1767.801163
 21
554.370023
 31
0.0
  0
LINE
  5
16C9F
  8
ALPHA
 10
1768.43674
 20
553.944491
 30
0.0
 11
1768.45721
 21
553.774279
 31
0.0
  0
LINE
  5
16CA0
  8
ALPHA
 10
1768.461435
 20
554.199811
 30
0.0
 11
1768.435103
 21
554.370023
 31
0.0
  0
LINE
  5
16CA1
  8
ALPHA
 10
1766.345985
 20
554.370023
 30
0.0
 11
1766.335594
 21
554.199811
 31
0.0
  0
LINE
  5
16CA2
  8
ALPHA
 10
1765.457817
 20
553.944491
 30
0.0
 11
1765.462654
 21
554.029598
 31
0.0
  0
POLYLINE
  5
16CA3
  8
ALPHA
 66
     1
 10
0.0
 20
0.0
 30
0.0
  0
VERTEX
  5
1AF05
  8
ALPHA
 10
1765.400519
 20
556.132684
 30
0.0
  0
VERTEX
  5
1AF06
  8
ALPHA
 10
1765.380624
 20
555.765429
 30
0.0
  0
VERTEX
  5
1AF07
  8
ALPHA
 10
1765.356704
 20
555.765719
 30
0.0
  0
VERTEX
  5
1AF08
  8
ALPHA
 10
1765.330221
 20
556.133527
 30
0.0
  0
SEQEND
  5
1AF09
  8
ALPHA
  0
LINE
  5
16CA9
  8
ALPHA
 10
1768.322657
 20
554.199811
 30
0.0
 11
1768.3058
 21
553.859385
 31
0.0
  0
LINE
  5
16CAA
  8
ALPHA
 10
1766.509145
 20
553.774279
 30
0.0
 11
1766.516965
 21
553.944491
 31
0.0
  0
LINE
  5
16CAB
  8
ALPHA
 10
1766.351193
 20
553.689172
 30
0.0
 11
1766.358266
 21
553.859385
 31
0.0
  0
LINE
  5
16CAC
  8
ALPHA
 10
1768.498507
 20
552.753002
 30
0.0
 11
1768.505759
 21
553.008321
 31
0.0
  0
LINE
  5
16CAD
  8
ALPHA
 10
1767.707831
 20
554.114704
 30
0.0
 11
1767.698529
 21
553.774279
 31
0.0
  0
LINE
  5
16CAE
  8
ALPHA
 10
1768.334591
 20
553.518959
 30
0.0
 11
1768.341561
 21
553.774279
 31
0.0
  0
POLYLINE
  5
16CAF
  8
ALPHA
 66
     1
 10
0.0
 20
0.0
 30
0.0
  0
VERTEX
  5
1AF0A
  8
ALPHA
 10
1766.709787
 20
559.13036
 30
0.0
  0
VERTEX
  5
1AF0B
  8
ALPHA
 10
1766.676449
 20
557.873693
 30
0.0
  0
VERTEX
  5
1AF0C
  8
ALPHA
 10
1766.623045
 20
556.862403
 30
0.0
  0
SEQEND
  5
1AF0D
  8
ALPHA
  0
LINE
  5
16CB4
  8
ALPHA
 10
1766.494534
 20
554.199811
 30
0.0
 11
1766.486211
 21
553.859385
 31
0.0
  0
LINE
  5
16CB5
  8
ALPHA
 10
1767.723363
 20
553.518959
 30
0.0
 11
1767.729105
 21
553.774279
 31
0.0
  0
LINE
  5
16CB6
  8
ALPHA
 10
1766.335594
 20
554.199811
 30
0.0
 11
1766.328265
 21
553.859385
 31
0.0
  0
LINE
  5
16CB7
  8
ALPHA
 10
1765.414718
 20
556.844132
 30
0.0
 11
1765.400519
 21
556.132684
 31
0.0
  0
LINE
  5
16CB8
  8
ALPHA
 10
1768.476355
 20
553.348747
 30
0.0
 11
1768.470638
 21
553.008321
 31
0.0
  0
LINE
  5
16CB9
  8
ALPHA
 10
1766.618459
 20
552.753002
 30
0.0
 11
1766.621458
 21
553.008321
 31
0.0
  0
LINE
  5
16CBA
  8
ALPHA
 10
1765.449139
 20
554.370023
 30
0.0
 11
1765.447171
 21
554.199811
 31
0.0
  0
LINE
  5
16CBB
  8
ALPHA
 10
1766.506438
 20
553.518959
 30
0.0
 11
1766.509145
 21
553.774279
 31
0.0
  0
LINE
  5
16CBC
  8
ALPHA
 10
1766.348983
 20
553.433853
 30
0.0
 11
1766.351193
 21
553.689172
 31
0.0
  0
LINE
  5
16CBD
  8
ALPHA
 10
1766.719961
 20
560.564129
 30
0.0
 11
1766.709787
 21
559.13036
 31
0.0
  0
LINE
  5
16CBE
  8
ALPHA
 10
1765.421504
 20
557.857699
 30
0.0
 11
1765.414718
 21
556.844132
 31
0.0
  0
LINE
  5
16CBF
  8
ALPHA
 10
1767.698529
 20
553.774279
 30
0.0
 11
1767.695833
 21
553.348747
 31
0.0
  0
LINE
  5
16CC0
  8
ALPHA
 10
1765.457059
 20
553.774279
 30
0.0
 11
1765.457817
 21
553.944491
 31
0.0
  0
LINE
  5
16CC1
  8
ALPHA
 10
1766.596888
 20
553.348747
 30
0.0
 11
1766.595432
 21
553.008321
 31
0.0
  0
LINE
  5
16CC2
  8
ALPHA
 10
1767.722735
 20
553.26364
 30
0.0
 11
1767.723363
 21
553.518959
 31
0.0
  0
LINE
  5
16CC3
  8
ALPHA
 10
1766.328265
 20
553.859385
 30
0.0
 11
1766.327608
 21
553.518959
 31
0.0
  0
LINE
  5
16CC4
  8
ALPHA
 10
1768.505759
 20
553.008321
 30
0.0
 11
1768.505664
 21
553.348747
 31
0.0
  0
LINE
  5
16CC5
  8
ALPHA
 10
1768.3058
 20
553.859385
 30
0.0
 11
1768.306074
 21
553.518959
 31
0.0
  0
LINE
  5
16CC6
  8
ALPHA
 10
1765.419358
 20
559.118391
 30
0.0
 11
1765.421504
 21
557.857699
 31
0.0
  0
LINE
  5
16CC7
  8
ALPHA
 10
1765.447171
 20
554.199811
 30
0.0
 11
1765.448261
 21
553.859385
 31
0.0
  0
POLYLINE
  5
16CC8
  8
ALPHA
 66
     1
 10
0.0
 20
0.0
 30
0.0
  0
VERTEX
  5
1AF0E
  8
ALPHA
 10
1768.523621
 20
562.087677
 30
0.0
  0
VERTEX
  5
1AF0F
  8
ALPHA
 10
1768.532349
 20
560.568893
 30
0.0
  0
VERTEX
  5
1AF10
  8
ALPHA
 10
1768.505136
 20
559.139888
 30
0.0
  0
VERTEX
  5
1AF11
  8
ALPHA
 10
1768.444775
 20
557.889495
 30
0.0
  0
VERTEX
  5
1AF12
  8
ALPHA
 10
1768.355998
 20
556.884129
 30
0.0
  0
SEQEND
  5
1AF13
  8
ALPHA
  0
LINE
  5
16CCF
  8
ALPHA
 10
1766.621458
 20
553.008321
 30
0.0
 11
1766.619244
 21
553.348747
 31
0.0
  0
LINE
  5
16CD0
  8
ALPHA
 10
1765.50745
 20
552.753002
 30
0.0
 11
1765.505742
 21
553.008321
 31
0.0
  0
LINE
  5
16CD1
  8
ALPHA
 10
1766.486211
 20
553.859385
 30
0.0
 11
1766.488607
 21
553.518959
 31
0.0
  0
LINE
  5
16CD2
  8
ALPHA
 10
1767.726585
 20
552.753002
 30
0.0
 11
1767.722735
 21
553.26364
 31
0.0
  0
LINE
  5
16CD3
  8
ALPHA
 10
1766.351605
 20
553.093428
 30
0.0
 11
1766.348983
 21
553.433853
 31
0.0
  0
LINE
  5
16CD4
  8
ALPHA
 10
1765.459058
 20
553.518959
 30
0.0
 11
1765.457059
 21
553.774279
 31
0.0
  0
LINE
  5
16CD5
  8
ALPHA
 10
1765.408485
 20
560.410049
 30
0.0
 11
1765.419358
 21
559.118391
 31
0.0
  0
LINE
  5
16CD6
  8
ALPHA
 10
1767.695833
 20
553.348747
 30
0.0
 11
1767.7012
 21
552.753002
 31
0.0
  0
LINE
  5
16CD7
  8
ALPHA
 10
1765.492963
 20
553.348747
 30
0.0
 11
1765.49621
 21
553.008321
 31
0.0
  0
LINE
  5
16CD8
  8
ALPHA
 10
1766.705416
 20
562.087677
 30
0.0
 11
1766.719961
 21
560.564129
 31
0.0
  0
LINE
  5
16CD9
  8
ALPHA
 10
1766.327608
 20
553.518959
 30
0.0
 11
1766.33175
 21
553.093428
 31
0.0
  0
LINE
  5
16CDA
  8
ALPHA
 10
1765.505742
 20
553.008321
 30
0.0
 11
1765.501182
 21
553.348747
 31
0.0
  0
LINE
  5
16CDB
  8
ALPHA
 10
1765.448261
 20
553.859385
 30
0.0
 11
1765.453004
 21
553.518959
 31
0.0
  0
LINE
  5
16CDC
  8
ALPHA
 10
1765.386749
 20
561.971066
 30
0.0
 11
1765.407242
 21
560.557705
 31
0.0
  0
POLYLINE
  5
16CDD
  8
ALPHA
 66
     1
 10
0.0
 20
0.0
 30
0.0
  0
VERTEX
  5
1AF14
  8
ALPHA
 10
1765.3934
 20
561.565064
 30
0.0
  0
VERTEX
  5
1AF15
  8
ALPHA
 10
1765.400123
 20
561.100891
 30
0.0
  0
VERTEX
  5
1AF16
  8
ALPHA
 10
1765.405878
 20
560.648005
 30
0.0
  0
VERTEX
  5
1AF17
  8
ALPHA
 10
1765.410692
 20
560.208631
 30
0.0
  0
VERTEX
  5
1AF18
  8
ALPHA
 10
1765.41456
 20
559.784589
 30
0.0
  0
VERTEX
  5
1AF19
  8
ALPHA
 10
1765.417526
 20
559.377525
 30
0.0
  0
VERTEX
  5
1AF1A
  8
ALPHA
 10
1765.419649
 20
558.988936
 30
0.0
  0
VERTEX
  5
1AF1B
  8
ALPHA
 10
1765.420944
 20
558.620115
 30
0.0
  0
VERTEX
  5
1AF1C
  8
ALPHA
 10
1765.42145
 20
558.272244
 30
0.0
  0
VERTEX
  5
1AF1D
  8
ALPHA
 10
1765.421244
 20
557.946386
 30
0.0
  0
VERTEX
  5
1AF1E
  8
ALPHA
 10
1765.420403
 20
557.643348
 30
0.0
  0
VERTEX
  5
1AF1F
  8
ALPHA
 10
1765.418952
 20
557.363609
 30
0.0
  0
VERTEX
  5
1AF20
  8
ALPHA
 10
1765.41694
 20
557.10747
 30
0.0
  0
VERTEX
  5
1AF21
  8
ALPHA
 10
1765.414448
 20
556.875135
 30
0.0
  0
VERTEX
  5
1AF22
  8
ALPHA
 10
1765.411547
 20
556.666881
 30
0.0
  0
VERTEX
  5
1AF23
  8
ALPHA
 10
1765.408268
 20
556.482693
 30
0.0
  0
VERTEX
  5
1AF24
  8
ALPHA
 10
1765.404667
 20
556.322448
 30
0.0
  0
VERTEX
  5
1AF25
  8
ALPHA
 10
1765.400829
 20
556.186069
 30
0.0
  0
VERTEX
  5
1AF26
  8
ALPHA
 10
1765.396876
 20
556.073985
 30
0.0
  0
VERTEX
  5
1AF27
  8
ALPHA
 10
1765.392979
 20
555.987524
 30
0.0
  0
VERTEX
  5
1AF28
  8
ALPHA
 10
1765.389506
 20
555.928735
 30
0.0
  0
VERTEX
  5
1AF29
  8
ALPHA
 10
1765.3887
 20
555.917567
 30
0.0
  0
SEQEND
  5
1AF2A
  8
ALPHA
  0
POLYLINE
  5
16CF5
  8
ALPHA
 66
     1
 10
0.0
 20
0.0
 30
0.0
  0
VERTEX
  5
1AF2B
  8
ALPHA
 10
1768.519017
 20
562.087626
 30
0.0
  0
VERTEX
  5
1AF2C
  8
ALPHA
 10
1768.524558
 20
561.70804
 30
0.0
  0
VERTEX
  5
1AF2D
  8
ALPHA
 10
1768.528791
 20
560.922224
 30
0.0
  0
VERTEX
  5
1AF2E
  8
ALPHA
 10
1768.523397
 20
560.167839
 30
0.0
  0
VERTEX
  5
1AF2F
  8
ALPHA
 10
1768.509006
 20
559.457498
 30
0.0
  0
VERTEX
  5
1AF30
  8
ALPHA
 10
1768.486567
 20
558.801966
 30
0.0
  0
VERTEX
  5
1AF31
  8
ALPHA
 10
1768.457136
 20
558.210158
 30
0.0
  0
VERTEX
  5
1AF32
  8
ALPHA
 10
1768.422093
 20
557.689338
 30
0.0
  0
VERTEX
  5
1AF33
  8
ALPHA
 10
1768.382923
 20
557.244798
 30
0.0
  0
VERTEX
  5
1AF34
  8
ALPHA
 10
1768.341394
 20
556.879813
 30
0.0
  0
VERTEX
  5
1AF35
  8
ALPHA
 10
1768.299813
 20
556.597303
 30
0.0
  0
VERTEX
  5
1AF36
  8
ALPHA
 10
1768.261888
 20
556.401222
 30
0.0
  0
VERTEX
  5
1AF37
  8
ALPHA
 10
1768.25125
 20
556.356551
 30
0.0
  0
SEQEND
  5
1AF38
  8
ALPHA
  0
LINE
  5
16D04
  8
ALPHA
 10
1765.385656
 20
562.037836
 30
0.0
 11
1765.3934
 21
561.565064
 31
0.0
  0
POLYLINE
  5
16D05
  8
ALPHA
 66
     1
 10
0.0
 20
0.0
 30
0.0
  0
VERTEX
  5
1AF39
  8
ALPHA
 10
1766.699783
 20
562.280023
 30
0.0
  0
VERTEX
  5
1AF3A
  8
ALPHA
 10
1766.706672
 20
561.884217
 30
0.0
  0
VERTEX
  5
1AF3B
  8
ALPHA
 10
1766.714197
 20
561.262382
 30
0.0
  0
VERTEX
  5
1AF3C
  8
ALPHA
 10
1766.717568
 20
560.654896
 30
0.0
  0
VERTEX
  5
1AF3D
  8
ALPHA
 10
1766.716951
 20
560.068673
 30
0.0
  0
VERTEX
  5
1AF3E
  8
ALPHA
 10
1766.712507
 20
559.509487
 30
0.0
  0
VERTEX
  5
1AF3F
  8
ALPHA
 10
1766.704538
 20
558.982544
 30
0.0
  0
VERTEX
  5
1AF40
  8
ALPHA
 10
1766.693329
 20
558.492352
 30
0.0
  0
VERTEX
  5
1AF41
  8
ALPHA
 10
1766.679254
 20
558.042663
 30
0.0
  0
VERTEX
  5
1AF42
  8
ALPHA
 10
1766.662787
 20
557.636646
 30
0.0
  0
VERTEX
  5
1AF43
  8
ALPHA
 10
1766.644349
 20
557.276532
 30
0.0
  0
VERTEX
  5
1AF44
  8
ALPHA
 10
1766.624444
 20
556.963564
 30
0.0
  0
VERTEX
  5
1AF45
  8
ALPHA
 10
1766.603677
 20
556.698764
 30
0.0
  0
VERTEX
  5
1AF46
  8
ALPHA
 10
1766.5827
 20
556.482648
 30
0.0
  0
VERTEX
  5
1AF47
  8
ALPHA
 10
1766.56249
 20
556.315998
 30
0.0
  0
VERTEX
  5
1AF48
  8
ALPHA
 10
1766.544835
 20
556.201445
 30
0.0
  0
VERTEX
  5
1AF49
  8
ALPHA
 10
1766.540441
 20
556.17767
 30
0.0
  0
SEQEND
  5
1AF4A
  8
ALPHA
  0
LINE
  5
16D18
  8
ALPHA
 10
1765.386342
 20
554.45513
 30
0.0
 11
1765.393771
 21
554.029598
 31
0.0
  0
LINE
  5
16D19
  8
ALPHA
 10
1765.433532
 20
554.029598
 30
0.0
 11
1765.426103
 21
554.45513
 31
0.0
  0
LINE
  5
16D1A
  8
ALPHA
 10
1765.489992
 20
553.518959
 30
0.0
 11
1765.492963
 21
553.348747
 31
0.0
  0
LINE
  5
16D1B
  8
ALPHA
 10
1765.501182
 20
553.348747
 30
0.0
 11
1765.49821
 21
553.518959
 31
0.0
  0
LINE
  5
16D1C
  8
ALPHA
 10
1765.376732
 20
562.528549
 30
0.0
 11
1765.385656
 21
562.037836
 31
0.0
  0
LINE
  5
16D1D
  8
ALPHA
 10
1766.593912
 20
553.518959
 30
0.0
 11
1766.596888
 21
553.348747
 31
0.0
  0
LINE
  5
16D1E
  8
ALPHA
 10
1766.619244
 20
553.348747
 30
0.0
 11
1766.616268
 21
553.518959
 31
0.0
  0
LINE
  5
16D1F
  8
ALPHA
 10
1767.729566
 20
552.582789
 30
0.0
 11
1767.726585
 21
552.753002
 31
0.0
  0
LINE
  5
16D20
  8
ALPHA
 10
1768.028274
 20
554.45513
 30
0.0
 11
1768.03573
 21
554.029598
 31
0.0
  0
LINE
  5
16D21
  8
ALPHA
 10
1768.246137
 20
554.029598
 30
0.0
 11
1768.238679
 21
554.45513
 31
0.0
  0
LINE
  5
16D22
  8
ALPHA
 10
1768.406953
 20
552.667896
 30
0.0
 11
1768.41292
 21
552.32747
 31
0.0
  0
LINE
  5
16D23
  8
ALPHA
 10
1768.473371
 20
553.518959
 30
0.0
 11
1768.476355
 21
553.348747
 31
0.0
  0
LINE
  5
16D24
  8
ALPHA
 10
1768.505664
 20
553.348747
 30
0.0
 11
1768.502679
 21
553.518959
 31
0.0
  0
LINE
  5
16D25
  8
ALPHA
 10
1765.356681
 20
563.478413
 30
0.0
 11
1765.385059
 21
562.087677
 31
0.0
  0
LINE
  5
16D26
  8
ALPHA
 10
1765.49821
 20
553.518959
 30
0.0
 11
1765.490883
 21
553.859385
 31
0.0
  0
LINE
  5
16D27
  8
ALPHA
 10
1766.666734
 20
563.610918
 30
0.0
 11
1766.705416
 21
562.087677
 31
0.0
  0
LINE
  5
16D28
  8
ALPHA
 10
1766.45834
 20
553.433853
 30
0.0
 11
1766.447399
 21
553.859385
 31
0.0
  0
LINE
  5
16D29
  8
ALPHA
 10
1765.482837
 20
553.774279
 30
0.0
 11
1765.489992
 21
553.518959
 31
0.0
  0
LINE
  5
16D2A
  8
ALPHA
 10
1766.616268
 20
553.518959
 30
0.0
 11
1766.606576
 21
553.859385
 31
0.0
  0
LINE
  5
16D2B
  8
ALPHA
 10
1766.429481
 20
553.689172
 30
0.0
 11
1766.437414
 21
553.433853
 31
0.0
  0
LINE
  5
16D2C
  8
ALPHA
 10
1768.502679
 20
553.518959
 30
0.0
 11
1768.490839
 21
553.859385
 31
0.0
  0
LINE
  5
16D2D
  8
ALPHA
 10
1767.863085
 20
553.518959
 30
0.0
 11
1767.853367
 21
553.774279
 31
0.0
  0
LINE
  5
16D2E
  8
ALPHA
 10
1766.358266
 20
553.859385
 30
0.0
 11
1766.370253
 21
553.944491
 31
0.0
  0
LINE
  5
16D2F
  8
ALPHA
 10
1768.342585
 20
554.370023
 30
0.0
 11
1768.322657
 21
554.199811
 31
0.0
  0
POLYLINE
  5
16D30
  8
ALPHA
 66
     1
 10
0.0
 20
0.0
 30
0.0
  0
VERTEX
  5
1AF4B
  8
ALPHA
 10
1766.623045
 20
556.862403
 30
0.0
  0
VERTEX
  5
1AF4C
  8
ALPHA
 10
1766.553623
 20
556.151729
 30
0.0
  0
VERTEX
  5
1AF4D
  8
ALPHA
 10
1766.473007
 20
555.784252
 30
0.0
  0
VERTEX
  5
1AF4E
  8
ALPHA
 10
1766.38642
 20
555.783797
 30
0.0
  0
VERTEX
  5
1AF4F
  8
ALPHA
 10
1766.299182
 20
556.150515
 30
0.0
  0
VERTEX
  5
1AF50
  8
ALPHA
 10
1766.215881
 20
556.860893
 30
0.0
  0
VERTEX
  5
1AF51
  8
ALPHA
 10
1766.140317
 20
557.872488
 30
0.0
  0
VERTEX
  5
1AF52
  8
ALPHA
 10
1766.075518
 20
559.12971
 30
0.0
  0
VERTEX
  5
1AF53
  8
ALPHA
 10
1766.024115
 20
560.564071
 30
0.0
  0
VERTEX
  5
1AF54
  8
ALPHA
 10
1765.988616
 20
562.087677
 30
0.0
  0
SEQEND
  5
1AF55
  8
ALPHA
  0
LINE
  5
16D3C
  8
ALPHA
 10
1765.456506
 20
554.45513
 30
0.0
 11
1765.449139
 21
554.370023
 31
0.0
  0
LINE
  5
16D3D
  8
ALPHA
 10
1768.341561
 20
553.774279
 30
0.0
 11
1768.355785
 21
553.944491
 31
0.0
  0
LINE
  5
16D3E
  8
ALPHA
 10
1767.728907
 20
554.370023
 30
0.0
 11
1767.707831
 21
554.114704
 31
0.0
  0
LINE
  5
16D3F
  8
ALPHA
 10
1768.47959
 20
552.497683
 30
0.0
 11
1768.498507
 21
552.753002
 31
0.0
  0
LINE
  5
16D40
  8
ALPHA
 10
1767.729105
 20
553.774279
 30
0.0
 11
1767.741485
 21
553.944491
 31
0.0
  0
LINE
  5
16D41
  8
ALPHA
 10
1767.754443
 20
552.32747
 30
0.0
 11
1767.766824
 21
552.497683
 31
0.0
  0
LINE
  5
16D42
  8
ALPHA
 10
1767.754245
 20
552.923215
 30
0.0
 11
1767.729566
 21
552.582789
 31
0.0
  0
LINE
  5
16D43
  8
ALPHA
 10
1766.50592
 20
554.370023
 30
0.0
 11
1766.494534
 21
554.199811
 31
0.0
  0
LINE
  5
16D44
  8
ALPHA
 10
1768.470638
 20
553.008321
 30
0.0
 11
1768.461959
 21
552.838108
 31
0.0
  0
LINE
  5
16D45
  8
ALPHA
 10
1766.516965
 20
553.944491
 30
0.0
 11
1766.533578
 21
554.029598
 31
0.0
  0
LINE
  5
16D46
  8
ALPHA
 10
1768.461959
 20
552.838108
 30
0.0
 11
1768.430083
 21
552.667896
 31
0.0
  0
LINE
  5
16D47
  8
ALPHA
 10
1766.361327
 20
554.45513
 30
0.0
 11
1766.345985
 21
554.370023
 31
0.0
  0
LINE
  5
16D48
  8
ALPHA
 10
1767.741485
 20
553.944491
 30
0.0
 11
1767.755405
 21
554.029598
 31
0.0
  0
LINE
  5
16D49
  8
ALPHA
 10
1767.766824
 20
552.497683
 30
0.0
 11
1767.780744
 21
552.582789
 31
0.0
  0
POLYLINE
  5
16D4A
  8
ALPHA
 66
     1
 10
0.0
 20
0.0
 30
0.0
  0
VERTEX
  5
1AF56
  8
ALPHA
 10
1768.355998
 20
556.884129
 30
0.0
  0
VERTEX
  5
1AF57
  8
ALPHA
 10
1768.244832
 20
556.17805
 30
0.0
  0
VERTEX
  5
1AF58
  8
ALPHA
 10
1768.118246
 20
555.812395
 30
0.0
  0
VERTEX
  5
1AF59
  8
ALPHA
 10
1767.984365
 20
555.811476
 30
0.0
  0
VERTEX
  5
1AF5A
  8
ALPHA
 10
1767.851131
 20
556.17554
 30
0.0
  0
VERTEX
  5
1AF5B
  8
ALPHA
 10
1767.726039
 20
556.880895
 30
0.0
  0
VERTEX
  5
1AF5C
  8
ALPHA
 10
1767.615085
 20
557.886419
 30
0.0
  0
VERTEX
  5
1AF5D
  8
ALPHA
 10
1767.523265
 20
559.137647
 30
0.0
  0
VERTEX
  5
1AF5E
  8
ALPHA
 10
1767.454812
 20
560.567774
 30
0.0
  0
VERTEX
  5
1AF5F
  8
ALPHA
 10
1767.413505
 20
562.087677
 30
0.0
  0
SEQEND
  5
1AF60
  8
ALPHA
  0
LINE
  5
16D56
  8
ALPHA
 10
1768.355785
 20
553.944491
 30
0.0
 11
1768.383083
 21
554.029598
 31
0.0
  0
LINE
  5
16D57
  8
ALPHA
 10
1767.753099
 20
554.45513
 30
0.0
 11
1767.728907
 21
554.370023
 31
0.0
  0
LINE
  5
16D58
  8
ALPHA
 10
1767.778439
 20
553.008321
 30
0.0
 11
1767.754245
 21
552.923215
 31
0.0
  0
LINE
  5
16D59
  8
ALPHA
 10
1766.529775
 20
554.45513
 30
0.0
 11
1766.50592
 21
554.370023
 31
0.0
  0
LINE
  5
16D5A
  8
ALPHA
 10
1768.381398
 20
554.45513
 30
0.0
 11
1768.342585
 21
554.370023
 31
0.0
  0
LINE
  5
16D5B
  8
ALPHA
 10
1767.801163
 20
554.370023
 30
0.0
 11
1767.773744
 21
554.45513
 31
0.0
  0
LINE
  5
16D5C
  8
ALPHA
 10
1767.831707
 20
552.923215
 30
0.0
 11
1767.804259
 21
553.008321
 31
0.0
  0
LINE
  5
16D5D
  8
ALPHA
 10
1768.406213
 20
554.029598
 30
0.0
 11
1768.43674
 21
553.944491
 31
0.0
  0
LINE
  5
16D5E
  8
ALPHA
 10
1768.436051
 20
552.32747
 30
0.0
 11
1768.472402
 21
552.242364
 31
0.0
  0
LINE
  5
16D5F
  8
ALPHA
 10
1768.435103
 20
554.370023
 30
0.0
 11
1768.392963
 21
554.45513
 31
0.0
  0
LINE
  5
16D60
  8
ALPHA
 10
1767.54974
 20
555.45513
 30
0.0
 11
1768.600502
 21
555.45513
 31
0.0
  0
LINE
  5
16D61
  8
ALPHA
 10
1766.218065
 20
555.45513
 30
0.0
 11
1766.668363
 21
555.45513
 31
0.0
  0
LINE
  5
16D62
  8
ALPHA
 10
1765.305206
 20
555.45513
 30
0.0
 11
1765.49141
 21
555.45513
 31
0.0
  0
LINE
  5
16D63
  8
ALPHA
 10
1765.351448
 20
554.45513
 30
0.0
 11
1765.347239
 21
554.45513
 31
0.0
  0
LINE
  5
16D64
  8
ALPHA
 10
1765.426101
 20
554.45513
 30
0.0
 11
1765.38634
 21
554.45513
 31
0.0
  0
LINE
  5
16D65
  8
ALPHA
 10
1765.461681
 20
554.45513
 30
0.0
 11
1765.456504
 21
554.45513
 31
0.0
  0
LINE
  5
16D66
  8
ALPHA
 10
1766.391959
 20
554.45513
 30
0.0
 11
1766.361325
 21
554.45513
 31
0.0
  0
LINE
  5
16D67
  8
ALPHA
 10
1766.544373
 20
554.45513
 30
0.0
 11
1766.529773
 21
554.45513
 31
0.0
  0
LINE
  5
16D68
  8
ALPHA
 10
1768.238677
 20
554.45513
 30
0.0
 11
1768.028272
 21
554.45513
 31
0.0
  0
LINE
  5
16D69
  8
ALPHA
 10
1768.39296
 20
554.45513
 30
0.0
 11
1768.381396
 21
554.45513
 31
0.0
  0
LINE
  5
16D6A
  8
ALPHA
 10
1767.773742
 20
554.45513
 30
0.0
 11
1767.753097
 21
554.45513
 31
0.0
  0
LINE
  5
16D6B
  8
ALPHA
 10
1768.035746
 20
554.029598
 30
0.0
 11
1768.12338
 21
554.029598
 31
0.0
  0
LINE
  5
16D6C
  8
ALPHA
 10
1768.156602
 20
554.029598
 30
0.0
 11
1768.246154
 21
554.029598
 31
0.0
  0
LINE
  5
16D6D
  8
ALPHA
 10
1768.383099
 20
554.029598
 30
0.0
 11
1768.406229
 21
554.029598
 31
0.0
  0
LINE
  5
16D6E
  8
ALPHA
 10
1767.755421
 20
554.029598
 30
0.0
 11
1767.786388
 21
554.029598
 31
0.0
  0
LINE
  5
16D6F
  8
ALPHA
 10
1766.533595
 20
554.029598
 30
0.0
 11
1766.548174
 21
554.029598
 31
0.0
  0
LINE
  5
16D70
  8
ALPHA
 10
1765.393788
 20
554.029598
 30
0.0
 11
1765.409581
 21
554.029598
 31
0.0
  0
LINE
  5
16D71
  8
ALPHA
 10
1765.415859
 20
554.029598
 30
0.0
 11
1765.433549
 21
554.029598
 31
0.0
  0
LINE
  5
16D72
  8
ALPHA
 10
1765.462671
 20
554.029598
 30
0.0
 11
1765.467827
 21
554.029598
 31
0.0
  0
LINE
  5
16D73
  8
ALPHA
 10
1766.370249
 20
553.944491
 30
0.0
 11
1766.400884
 21
553.944491
 31
0.0
  0
LINE
  5
16D74
  8
ALPHA
 10
1768.306088
 20
553.518959
 30
0.0
 11
1768.334605
 21
553.518959
 31
0.0
  0
LINE
  5
16D75
  8
ALPHA
 10
1767.836925
 20
553.518959
 30
0.0
 11
1767.863099
 21
553.518959
 31
0.0
  0
LINE
  5
16D76
  8
ALPHA
 10
1766.488621
 20
553.518959
 30
0.0
 11
1766.506453
 21
553.518959
 31
0.0
  0
LINE
  5
16D77
  8
ALPHA
 10
1765.453018
 20
553.518959
 30
0.0
 11
1765.459072
 21
553.518959
 31
0.0
  0
LINE
  5
16D78
  8
ALPHA
 10
1766.437407
 20
553.433853
 30
0.0
 11
1766.458333
 21
553.433853
 31
0.0
  0
LINE
  5
16D79
  8
ALPHA
 10
1767.804272
 20
553.008321
 30
0.0
 11
1767.778452
 21
553.008321
 31
0.0
  0
LINE
  5
16D7A
  8
ALPHA
 10
1768.430074
 20
552.667896
 30
0.0
 11
1768.406943
 21
552.667896
 31
0.0
  0
LINE
  5
16D7B
  8
ALPHA
 10
1767.780775
 20
552.582789
 30
0.0
 11
1767.816924
 21
552.582789
 31
0.0
  0
LINE
  5
16D7C
  8
ALPHA
 10
1768.41295
 20
552.32747
 30
0.0
 11
1768.43608
 21
552.32747
 31
0.0
  0
LINE
  5
16D7D
  8
ALPHA
 10
1753.115387
 20
578.10513
 30
0.0
 11
1750.0357
 21
578.10513
 31
0.0
  0
LINE
  5
16D7E
  8
ALPHA
 10
1748.156916
 20
568.90513
 30
0.0
 11
1759.0357
 21
568.90513
 31
0.0
  0
LINE
  5
16D7F
  8
ALPHA
 10
1749.187082
 20
584.774986
 30
0.0
 11
1756.864513
 21
576.104006
 31
0.0
  0
LINE
  5
16D80
  8
ALPHA
 10
1748.090213
 20
583.780621
 30
0.0
 11
1755.767644
 21
575.10964
 31
0.0
  0
POLYLINE
  5
16D81
  8
ALPHA
 66
     1
 10
0.0
 20
0.0
 30
0.0
  0
VERTEX
  5
1AF61
  8
ALPHA
 10
1756.864513
 20
576.104006
 30
0.0
  0
VERTEX
  5
1AF62
  8
ALPHA
 10
1756.856492
 20
575.530174
 30
0.0
  0
VERTEX
  5
1AF63
  8
ALPHA
 10
1756.853675
 20
575.043669
 30
0.0
  0
VERTEX
  5
1AF64
  8
ALPHA
 10
1756.856492
 20
574.718529
 30
0.0
  0
VERTEX
  5
1AF65
  8
ALPHA
 10
1756.864513
 20
574.604234
 30
0.0
  0
SEQEND
  5
1AF66
  8
ALPHA
  0
POLYLINE
  5
16D88
  8
ALPHA
 66
     1
 10
0.0
 20
0.0
 30
0.0
  0
VERTEX
  5
1AF67
  8
ALPHA
 10
1756.864513
 20
576.104006
 30
0.0
  0
VERTEX
  5
1AF68
  8
ALPHA
 10
1756.442866
 20
575.728845
 30
0.0
  0
VERTEX
  5
1AF69
  8
ALPHA
 10
1756.084673
 20
575.406655
 30
0.0
  0
VERTEX
  5
1AF6A
  8
ALPHA
 10
1755.847638
 20
575.189283
 30
0.0
  0
VERTEX
  5
1AF6B
  8
ALPHA
 10
1755.767644
 20
575.10964
 30
0.0
  0
SEQEND
  5
1AF6C
  8
ALPHA
  0
ARC
  5
16D8F
  8
ALPHA
 10
1756.890692
 20
576.104006
 30
0.0
 40
1.5
 50
221.522213
 51
269.0
  0
LINE
  5
16D90
  8
ALPHA
 10
1759.0357
 20
568.90513
 30
0.0
 11
1759.0357
 21
574.566336
 31
0.0
  0
LINE
  5
16D91
  8
ALPHA
 10
1765.273856
 20
566.318151
 30
0.0
 11
1765.315731
 21
565.05657
 31
0.0
  0
LINE
  5
16D92
  8
ALPHA
 10
1765.23166
 20
567.332958
 30
0.0
 11
1765.273856
 21
566.318151
 31
0.0
  0
LINE
  5
16D93
  8
ALPHA
 10
1765.192597
 20
568.045467
 30
0.0
 11
1765.23166
 21
567.332958
 31
0.0
  0
LINE
  5
16D94
  8
ALPHA
 10
1766.583235
 20
565.4232
 30
0.0
 11
1766.606421
 21
565.045806
 31
0.0
  0
LINE
  5
16D95
  8
ALPHA
 10
1766.529078
 20
566.304155
 30
0.0
 11
1766.556823
 21
565.854701
 31
0.0
  0
LINE
  5
16D96
  8
ALPHA
 10
1765.180763
 20
568.18194
 30
0.0
 11
1765.183407
 21
568.148784
 31
0.0
  0
LINE
  5
16D97
  8
ALPHA
 10
1765.183407
 20
568.148784
 30
0.0
 11
1765.192597
 21
568.045467
 31
0.0
  0
LINE
  5
16D98
  8
ALPHA
 10
1765.159863
 20
568.413492
 30
0.0
 11
1765.176038
 21
568.234205
 31
0.0
  0
POLYLINE
  5
16D99
  8
ALPHA
 66
     1
 10
0.0
 20
0.0
 30
0.0
  0
VERTEX
  5
1AF6D
  8
ALPHA
 10
1766.345825
 20
568.028286
 30
0.0
  0
VERTEX
  5
1AF6E
  8
ALPHA
 10
1766.440198
 20
567.317001
 30
0.0
  0
VERTEX
  5
1AF6F
  8
ALPHA
 10
1766.529078
 20
566.304155
 30
0.0
  0
SEQEND
  5
1AF70
  8
ALPHA
  0
POLYLINE
  5
16D9E
  8
ALPHA
 66
     1
 10
0.0
 20
0.0
 30
0.0
  0
VERTEX
  5
1AF71
  8
ALPHA
 10
1765.122288
 20
568.046456
 30
0.0
  0
VERTEX
  5
1AF72
  8
ALPHA
 10
1765.135941
 20
568.413801
 30
0.0
  0
VERTEX
  5
1AF73
  8
ALPHA
 10
1765.159863
 20
568.413492
 30
0.0
  0
SEQEND
  5
1AF74
  8
ALPHA
  0
POLYLINE
  5
16DA3
  8
ALPHA
 66
     1
 10
0.0
 20
0.0
 30
0.0
  0
VERTEX
  5
1AF75
  8
ALPHA
 10
1766.091413
 20
568.027594
 30
0.0
  0
VERTEX
  5
1AF76
  8
ALPHA
 10
1766.165753
 20
568.394999
 30
0.0
  0
VERTEX
  5
1AF77
  8
ALPHA
 10
1766.252323
 20
568.395383
 30
0.0
  0
VERTEX
  5
1AF78
  8
ALPHA
 10
1766.345825
 20
568.028286
 30
0.0
  0
SEQEND
  5
1AF79
  8
ALPHA
  0
POLYLINE
  5
16DA9
  8
ALPHA
 66
     1
 10
0.0
 20
0.0
 30
0.0
  0
VERTEX
  5
1AF7A
  8
ALPHA
 10
1768.123854
 20
579.641599
 30
0.0
  0
VERTEX
  5
1AF7B
  8
ALPHA
 10
1768.113592
 20
579.717767
 30
0.0
  0
VERTEX
  5
1AF7C
  8
ALPHA
 10
1768.106688
 20
579.797684
 30
0.0
  0
VERTEX
  5
1AF7D
  8
ALPHA
 10
1768.1027
 20
579.882045
 30
0.0
  0
VERTEX
  5
1AF7E
  8
ALPHA
 10
1768.101677
 20
579.969511
 30
0.0
  0
VERTEX
  5
1AF7F
  8
ALPHA
 10
1768.103687
 20
580.056307
 30
0.0
  0
VERTEX
  5
1AF80
  8
ALPHA
 10
1768.108625
 20
580.139273
 30
0.0
  0
VERTEX
  5
1AF81
  8
ALPHA
 10
1768.116562
 20
580.217983
 30
0.0
  0
VERTEX
  5
1AF82
  8
ALPHA
 10
1768.128184
 20
580.293123
 30
0.0
  0
SEQEND
  5
1AF83
  8
ALPHA
  0
POLYLINE
  5
16DB4
  8
ALPHA
 66
     1
 10
0.0
 20
0.0
 30
0.0
  0
VERTEX
  5
1AF84
  8
ALPHA
 10
1768.123854
 20
579.641599
 30
0.0
  0
VERTEX
  5
1AF85
  8
ALPHA
 10
1768.135067
 20
579.563384
 30
0.0
  0
VERTEX
  5
1AF86
  8
ALPHA
 10
1768.144893
 20
579.473041
 30
0.0
  0
VERTEX
  5
1AF87
  8
ALPHA
 10
1768.152392
 20
579.379096
 30
0.0
  0
VERTEX
  5
1AF88
  8
ALPHA
 10
1768.157131
 20
579.289103
 30
0.0
  0
VERTEX
  5
1AF89
  8
ALPHA
 10
1768.159106
 20
579.204953
 30
0.0
  0
VERTEX
  5
1AF8A
  8
ALPHA
 10
1768.15818
 20
579.132771
 30
0.0
  0
SEQEND
  5
1AF8B
  8
ALPHA
  0
POLYLINE
  5
16DBD
  8
ALPHA
 66
     1
 10
0.0
 20
0.0
 30
0.0
  0
VERTEX
  5
1AF8C
  8
ALPHA
 10
1768.147055
 20
580.794471
 30
0.0
  0
VERTEX
  5
1AF8D
  8
ALPHA
 10
1768.153622
 20
580.764354
 30
0.0
  0
VERTEX
  5
1AF8E
  8
ALPHA
 10
1768.157694
 20
580.717868
 30
0.0
  0
VERTEX
  5
1AF8F
  8
ALPHA
 10
1768.159152
 20
580.655339
 30
0.0
  0
VERTEX
  5
1AF90
  8
ALPHA
 10
1768.157709
 20
580.582353
 30
0.0
  0
VERTEX
  5
1AF91
  8
ALPHA
 10
1768.153639
 20
580.50654
 30
0.0
  0
VERTEX
  5
1AF92
  8
ALPHA
 10
1768.147025
 20
580.428799
 30
0.0
  0
VERTEX
  5
1AF93
  8
ALPHA
 10
1768.138239
 20
580.35518
 30
0.0
  0
VERTEX
  5
1AF94
  8
ALPHA
 10
1768.128184
 20
580.293123
 30
0.0
  0
SEQEND
  5
1AF95
  8
ALPHA
  0
POLYLINE
  5
16DC8
  8
ALPHA
 66
     1
 10
0.0
 20
0.0
 30
0.0
  0
VERTEX
  5
1AF96
  8
ALPHA
 10
1768.101678
 20
580.850279
 30
0.0
  0
VERTEX
  5
1AF97
  8
ALPHA
 10
1768.102234
 20
580.818103
 30
0.0
  0
VERTEX
  5
1AF98
  8
ALPHA
 10
1768.104858
 20
580.794333
 30
0.0
  0
VERTEX
  5
1AF99
  8
ALPHA
 10
1768.109885
 20
580.780828
 30
0.0
  0
VERTEX
  5
1AF9A
  8
ALPHA
 10
1768.113735
 20
580.778729
 30
0.0
  0
SEQEND
  5
1AF9B
  8
ALPHA
  0
LINE
  5
16DCF
  8
ALPHA
 10
1768.127325
 20
581.054044
 30
0.0
 11
1768.101678
 21
580.850279
 31
0.0
  0
POLYLINE
  5
16DD0
  8
ALPHA
 66
     1
 10
0.0
 20
0.0
 30
0.0
  0
VERTEX
  5
1AF9C
  8
ALPHA
 10
1768.102043
 20
579.084344
 30
0.0
  0
VERTEX
  5
1AF9D
  8
ALPHA
 10
1768.103994
 20
579.100449
 30
0.0
  0
VERTEX
  5
1AF9E
  8
ALPHA
 10
1768.1076
 20
579.107054
 30
0.0
  0
VERTEX
  5
1AF9F
  8
ALPHA
 10
1768.10825
 20
579.107162
 30
0.0
  0
SEQEND
  5
1AFA0
  8
ALPHA
  0
POLYLINE
  5
16DD6
  8
ALPHA
 66
     1
 10
0.0
 20
0.0
 30
0.0
  0
VERTEX
  5
1AFA1
  8
ALPHA
 10
1768.150737
 20
579.107162
 30
0.0
  0
VERTEX
  5
1AFA2
  8
ALPHA
 10
1768.15571
 20
579.148529
 30
0.0
  0
VERTEX
  5
1AFA3
  8
ALPHA
 10
1768.158739
 20
579.214554
 30
0.0
  0
VERTEX
  5
1AFA4
  8
ALPHA
 10
1768.158742
 20
579.220479
 30
0.0
  0
SEQEND
  5
1AFA5
  8
ALPHA
  0
POLYLINE
  5
16DDC
  8
ALPHA
 66
     1
 10
0.0
 20
0.0
 30
0.0
  0
VERTEX
  5
1AFA6
  8
ALPHA
 10
1768.15818
 20
579.132771
 30
0.0
  0
VERTEX
  5
1AFA7
  8
ALPHA
 10
1768.154449
 20
579.076233
 30
0.0
  0
VERTEX
  5
1AFA8
  8
ALPHA
 10
1768.1481
 20
579.038289
 30
0.0
  0
VERTEX
  5
1AFA9
  8
ALPHA
 10
1768.139162
 20
579.021309
 30
0.0
  0
VERTEX
  5
1AFAA
  8
ALPHA
 10
1768.137025
 20
579.02077
 30
0.0
  0
SEQEND
  5
1AFAB
  8
ALPHA
  0
POLYLINE
  5
16DE3
  8
ALPHA
 66
     1
 10
0.0
 20
0.0
 30
0.0
  0
VERTEX
  5
1AFAC
  8
ALPHA
 10
1768.105937
 20
579.081314
 30
0.0
  0
VERTEX
  5
1AFAD
  8
ALPHA
 10
1768.102944
 20
579.075638
 30
0.0
  0
VERTEX
  5
1AFAE
  8
ALPHA
 10
1768.101694
 20
579.05984
 30
0.0
  0
SEQEND
  5
1AFAF
  8
ALPHA
  0
LINE
  5
16DE8
  8
ALPHA
 10
1768.128184
 20
580.794953
 30
0.0
 11
1768.138232
 21
580.80513
 31
0.0
  0
POLYLINE
  5
16DE9
  8
ALPHA
 66
     1
 10
0.0
 20
0.0
 30
0.0
  0
VERTEX
  5
1AFB0
  8
ALPHA
 10
1768.113735
 20
580.778729
 30
0.0
  0
VERTEX
  5
1AFB1
  8
ALPHA
 10
1768.117621
 20
580.780227
 30
0.0
  0
VERTEX
  5
1AFB2
  8
ALPHA
 10
1768.128184
 20
580.794953
 30
0.0
  0
SEQEND
  5
1AFB3
  8
ALPHA
  0
LINE
  5
16DEE
  8
ALPHA
 10
1768.128184
 20
580.794953
 30
0.0
 11
1768.146656
 21
580.794953
 31
0.0
  0
LINE
  5
16DEF
  8
ALPHA
 10
1768.150488
 20
580.778729
 30
0.0
 11
1768.114079
 21
580.778729
 31
0.0
  0
LINE
  5
16DF0
  8
ALPHA
 10
1768.15649
 20
579.107162
 30
0.0
 11
1768.108342
 21
579.107162
 31
0.0
  0
LINE
  5
16DF1
  8
ALPHA
 10
1768.154784
 20
579.081314
 30
0.0
 11
1768.105958
 21
579.081314
 31
0.0
  0
LINE
  5
16DF2
  8
ALPHA
 10
1768.116524
 20
579.058564
 30
0.0
 11
1768.151492
 21
579.058564
 31
0.0
  0
POLYLINE
  5
16DF3
  8
ALPHA
 66
     1
 10
0.0
 20
0.0
 30
0.0
  0
VERTEX
  5
1AFB4
  8
ALPHA
 10
1768.116524
 20
579.058564
 30
0.0
  0
VERTEX
  5
1AFB5
  8
ALPHA
 10
1768.110363
 20
579.075945
 30
0.0
  0
VERTEX
  5
1AFB6
  8
ALPHA
 10
1768.105937
 20
579.081314
 30
0.0
  0
SEQEND
  5
1AFB7
  8
ALPHA
  0
LINE
  5
16DF8
  8
ALPHA
 10
1768.138232
 20
580.80513
 30
0.0
 11
1768.147055
 21
580.794471
 31
0.0
  0
POLYLINE
  5
16DF9
  8
ALPHA
 66
     1
 10
0.0
 20
0.0
 30
0.0
  0
VERTEX
  5
1AFB8
  8
ALPHA
 10
1768.137025
 20
579.02077
 30
0.0
  0
VERTEX
  5
1AFB9
  8
ALPHA
 10
1768.128288
 20
579.028411
 30
0.0
  0
VERTEX
  5
1AFBA
  8
ALPHA
 10
1768.116524
 20
579.058564
 30
0.0
  0
SEQEND
  5
1AFBB
  8
ALPHA
  0
LINE
  5
16DFE
  8
ALPHA
 10
1744.0357
 20
575.921308
 30
0.0
 11
1744.0357
 21
570.40513
 31
0.0
  0
LINE
  5
16DFF
  8
ALPHA
 10
1744.0357
 20
570.40513
 30
0.0
 11
1748.156916
 21
568.90513
 31
0.0
  0
ARC
  5
16E00
  8
ALPHA
 10
1747.693403
 20
583.429278
 30
0.0
 40
0.53
 50
41.522213
 51
89.0
  0
ARC
  5
16E01
  8
ALPHA
 10
1738.935738
 20
585.612453
 30
0.0
 40
1.5
 50
180.0
 51
269.0
  0
POLYLINE
  5
16E02
  8
ALPHA
 66
     1
 10
0.0
 20
0.0
 30
0.0
  0
VERTEX
  5
1AFBC
  8
ALPHA
 10
1744.614382
 20
584.013104
 30
0.0
  0
VERTEX
  5
1AFBD
  8
ALPHA
 10
1744.69128
 20
583.584294
 30
0.0
  0
VERTEX
  5
1AFBE
  8
ALPHA
 10
1744.837486
 20
583.071576
 30
0.0
  0
VERTEX
  5
1AFBF
  8
ALPHA
 10
1744.996046
 20
582.62016
 30
0.0
  0
VERTEX
  5
1AFC0
  8
ALPHA
 10
1745.183685
 20
582.242226
 30
0.0
  0
VERTEX
  5
1AFC1
  8
ALPHA
 10
1745.413224
 20
581.948728
 30
0.0
  0
VERTEX
  5
1AFC2
  8
ALPHA
 10
1745.6857
 20
581.72513
 30
0.0
  0
SEQEND
  5
1AFC3
  8
ALPHA
  0
POLYLINE
  5
16E0B
  8
ALPHA
 66
     1
 10
0.0
 20
0.0
 30
0.0
  0
VERTEX
  5
1AFC4
  8
ALPHA
 10
1743.601453
 20
585.505153
 30
0.0
  0
VERTEX
  5
1AFC5
  8
ALPHA
 10
1743.712231
 20
584.935297
 30
0.0
  0
VERTEX
  5
1AFC6
  8
ALPHA
 10
1744.02878
 20
584.450683
 30
0.0
  0
VERTEX
  5
1AFC7
  8
ALPHA
 10
1744.503511
 20
584.124372
 30
0.0
  0
VERTEX
  5
1AFC8
  8
ALPHA
 10
1745.056777
 20
584.005382
 30
0.0
  0
SEQEND
  5
1AFC9
  8
ALPHA
  0
POLYLINE
  5
16E12
  8
ALPHA
 66
     1
 10
0.0
 20
0.0
 30
0.0
  0
VERTEX
  5
1AFCA
  8
ALPHA
 10
1745.056777
 20
585.505153
 30
0.0
  0
VERTEX
  5
1AFCB
  8
ALPHA
 10
1745.048755
 20
584.931321
 30
0.0
  0
VERTEX
  5
1AFCC
  8
ALPHA
 10
1745.045939
 20
584.444816
 30
0.0
  0
VERTEX
  5
1AFCD
  8
ALPHA
 10
1745.048755
 20
584.119676
 30
0.0
  0
VERTEX
  5
1AFCE
  8
ALPHA
 10
1745.056777
 20
584.005382
 30
0.0
  0
SEQEND
  5
1AFCF
  8
ALPHA
  0
LINE
  5
16E19
  8
ALPHA
 10
1745.6857
 20
581.72513
 30
0.0
 11
1745.6857
 21
583.994404
 31
0.0
  0
POLYLINE
  5
16E1A
  8
ALPHA
 66
     1
 10
0.0
 20
0.0
 30
0.0
  0
VERTEX
  5
1AFD0
  8
ALPHA
 10
1747.702652
 20
585.458969
 30
0.0
  0
VERTEX
  5
1AFD1
  8
ALPHA
 10
1747.694631
 20
584.885136
 30
0.0
  0
VERTEX
  5
1AFD2
  8
ALPHA
 10
1747.691814
 20
584.398631
 30
0.0
  0
VERTEX
  5
1AFD3
  8
ALPHA
 10
1747.694631
 20
584.073492
 30
0.0
  0
VERTEX
  5
1AFD4
  8
ALPHA
 10
1747.702652
 20
583.959198
 30
0.0
  0
SEQEND
  5
1AFD5
  8
ALPHA
  0
LINE
  5
16E21
  8
ALPHA
 10
1750.4357
 20
578.90513
 30
0.0
 11
1750.4357
 21
580.10513
 31
0.0
  0
LINE
  5
16E22
  8
ALPHA
 10
1751.2357
 20
580.228071
 30
0.0
 11
1751.2357
 21
580.10513
 31
0.0
  0
POLYLINE
  5
16E23
  8
ALPHA
 66
     1
 10
0.0
 20
0.0
 30
0.0
  0
VERTEX
  5
1AFD6
  8
ALPHA
 10
1749.187082
 20
584.774986
 30
0.0
  0
VERTEX
  5
1AFD7
  8
ALPHA
 10
1748.762756
 20
584.39743
 30
0.0
  0
VERTEX
  5
1AFD8
  8
ALPHA
 10
1748.405893
 20
584.076413
 30
0.0
  0
VERTEX
  5
1AFD9
  8
ALPHA
 10
1748.169933
 20
583.860008
 30
0.0
  0
VERTEX
  5
1AFDA
  8
ALPHA
 10
1748.090213
 20
583.780621
 30
0.0
  0
SEQEND
  5
1AFDB
  8
ALPHA
  0
LINE
  5
16E2A
  8
ALPHA
 10
1750.0357
 20
578.10513
 30
0.0
 11
1744.0357
 21
575.921308
 31
0.0
  0
LINE
  5
16E2B
  8
ALPHA
 10
1745.056777
 20
585.505153
 30
0.0
 11
1747.702652
 21
585.458969
 31
0.0
  0
LINE
  5
16E2C
  8
ALPHA
 10
1737.4357
 20
585.612446
 30
0.0
 11
1743.601453
 21
585.505159
 31
0.0
  0
LINE
  5
16E2D
  8
ALPHA
 10
1747.702652
 20
583.959198
 30
0.0
 11
1738.909943
 21
584.112675
 31
0.0
  0
LINE
  5
16E2E
  8
ALPHA
 10
1745.056777
 20
585.505153
 30
0.0
 11
1743.601453
 21
585.505153
 31
0.0
  0
LINE
  5
16E2F
  8
ALPHA
 10
1745.6857
 20
581.72513
 30
0.0
 11
1749.910179
 21
581.72513
 31
0.0
  0
LINE
  5
16E30
  8
ALPHA
 10
1750.4357
 20
580.10513
 30
0.0
 11
1751.2357
 21
580.10513
 31
0.0
  0
POLYLINE
  5
16E31
  8
ALPHA
 66
     1
 10
0.0
 20
0.0
 30
0.0
  0
VERTEX
  5
1AFDC
  8
ALPHA
 10
1747.702652
 20
585.458969
 30
0.0
  0
VERTEX
  5
1AFDD
  8
ALPHA
 10
1748.258003
 20
585.37135
 30
0.0
  0
VERTEX
  5
1AFDE
  8
ALPHA
 10
1748.763759
 20
585.137581
 30
0.0
  0
VERTEX
  5
1AFDF
  8
ALPHA
 10
1749.187082
 20
584.774986
 30
0.0
  0
SEQEND
  5
1AFE0
  8
ALPHA
  0
LINE
  5
16E37
  8
ALPHA
 10
1751.2357
 20
578.10513
 30
0.0
 11
1750.4357
 21
578.90513
 31
0.0
  0
POLYLINE
  5
16E38
  8
ALPHA
 66
     1
 10
0.0
 20
0.0
 30
0.0
  0
VERTEX
  5
1AFE1
  8
ALPHA
 10
1741.996265
 20
605.355128
 30
0.0
  0
VERTEX
  5
1AFE2
  8
ALPHA
 10
1742.000909
 20
605.9471
 30
0.0
  0
VERTEX
  5
1AFE3
  8
ALPHA
 10
1742.016899
 20
606.594681
 30
0.0
  0
VERTEX
  5
1AFE4
  8
ALPHA
 10
1742.047415
 20
607.283465
 30
0.0
  0
VERTEX
  5
1AFE5
  8
ALPHA
 10
1742.090142
 20
607.92334
 30
0.0
  0
VERTEX
  5
1AFE6
  8
ALPHA
 10
1742.139775
 20
608.466434
 30
0.0
  0
VERTEX
  5
1AFE7
  8
ALPHA
 10
1742.19511
 20
608.932512
 30
0.0
  0
VERTEX
  5
1AFE8
  8
ALPHA
 10
1742.257771
 20
609.345721
 30
0.0
  0
VERTEX
  5
1AFE9
  8
ALPHA
 10
1742.332419
 20
609.726052
 30
0.0
  0
VERTEX
  5
1AFEA
  8
ALPHA
 10
1742.424423
 20
610.069686
 30
0.0
  0
VERTEX
  5
1AFEB
  8
ALPHA
 10
1742.535195
 20
610.340091
 30
0.0
  0
VERTEX
  5
1AFEC
  8
ALPHA
 10
1742.665816
 20
610.493212
 30
0.0
  0
VERTEX
  5
1AFED
  8
ALPHA
 10
1742.818798
 20
610.47128
 30
0.0
  0
VERTEX
  5
1AFEE
  8
ALPHA
 10
1742.976471
 20
610.226869
 30
0.0
  0
VERTEX
  5
1AFEF
  8
ALPHA
 10
1743.112211
 20
609.817034
 30
0.0
  0
VERTEX
  5
1AFF0
  8
ALPHA
 10
1743.221776
 20
609.317489
 30
0.0
  0
SEQEND
  5
1AFF1
  8
ALPHA
  0
LINE
  5
16E4A
  8
ALPHA
 10
1765.6857
 20
606.868013
 30
0.0
 11
1749.5857
 21
606.868013
 31
0.0
  0
LINE
  5
16E4B
  8
ALPHA
 10
1765.6857
 20
606.80513
 30
0.0
 11
1749.5857
 21
606.80513
 31
0.0
  0
LINE
  5
16E4C
  8
ALPHA
 10
1749.5857
 20
603.90513
 30
0.0
 11
1765.6857
 21
603.90513
 31
0.0
  0
LINE
  5
16E4D
  8
ALPHA
 10
1749.5857
 20
603.842247
 30
0.0
 11
1765.6857
 21
603.842247
 31
0.0
  0
LINE
  5
16E4E
  8
ALPHA
 10
1765.6857
 20
599.368013
 30
0.0
 11
1749.5857
 21
599.368013
 31
0.0
  0
LINE
  5
16E4F
  8
ALPHA
 10
1765.6857
 20
599.30513
 30
0.0
 11
1749.5857
 21
599.30513
 31
0.0
  0
LINE
  5
16E50
  8
ALPHA
 10
1749.5857
 20
596.40513
 30
0.0
 11
1765.6857
 21
596.40513
 31
0.0
  0
LINE
  5
16E51
  8
ALPHA
 10
1749.5857
 20
596.342247
 30
0.0
 11
1765.6857
 21
596.342247
 31
0.0
  0
LINE
  5
16E52
  8
ALPHA
 10
1765.6857
 20
591.909945
 30
0.0
 11
1749.5857
 21
591.909945
 31
0.0
  0
LINE
  5
16E53
  8
ALPHA
 10
1765.6857
 20
591.80513
 30
0.0
 11
1749.5857
 21
591.80513
 31
0.0
  0
LINE
  5
16E54
  8
ALPHA
 10
1749.5857
 20
588.90513
 30
0.0
 11
1765.6857
 21
588.90513
 31
0.0
  0
LINE
  5
16E55
  8
ALPHA
 10
1749.5857
 20
588.800314
 30
0.0
 11
1765.6857
 21
588.800314
 31
0.0
  0
POLYLINE
  5
16E56
  8
ALPHA
 66
     1
 10
0.0
 20
0.0
 30
0.0
  0
VERTEX
  5
1AFF2
  8
ALPHA
 10
1765.6857
 20
596.40513
 30
0.0
  0
VERTEX
  5
1AFF3
  8
ALPHA
 10
1766.247366
 20
596.518333
 30
0.0
  0
VERTEX
  5
1AFF4
  8
ALPHA
 10
1766.719168
 20
596.838057
 30
0.0
  0
VERTEX
  5
1AFF5
  8
ALPHA
 10
1767.028184
 20
597.3072
 30
0.0
  0
VERTEX
  5
1AFF6
  8
ALPHA
 10
1767.1357
 20
597.85513
 30
0.0
  0
VERTEX
  5
1AFF7
  8
ALPHA
 10
1767.028184
 20
598.40306
 30
0.0
  0
VERTEX
  5
1AFF8
  8
ALPHA
 10
1766.719168
 20
598.872203
 30
0.0
  0
VERTEX
  5
1AFF9
  8
ALPHA
 10
1766.247366
 20
599.191927
 30
0.0
  0
VERTEX
  5
1AFFA
  8
ALPHA
 10
1765.6857
 20
599.30513
 30
0.0
  0
SEQEND
  5
1AFFB
  8
ALPHA
  0
POLYLINE
  5
16E61
  8
ALPHA
 66
     1
 10
0.0
 20
0.0
 30
0.0
  0
VERTEX
  5
1AFFC
  8
ALPHA
 10
1765.6857
 20
596.342247
 30
0.0
  0
VERTEX
  5
1AFFD
  8
ALPHA
 10
1766.27157
 20
596.460271
 30
0.0
  0
VERTEX
  5
1AFFE
  8
ALPHA
 10
1766.763471
 20
596.793366
 30
0.0
  0
VERTEX
  5
1AFFF
  8
ALPHA
 10
1767.086377
 20
597.283229
 30
0.0
  0
VERTEX
  5
1B000
  8
ALPHA
 10
1767.19864
 20
597.85513
 30
0.0
  0
VERTEX
  5
1B001
  8
ALPHA
 10
1767.086377
 20
598.42703
 30
0.0
  0
VERTEX
  5
1B002
  8
ALPHA
 10
1766.763471
 20
598.916894
 30
0.0
  0
VERTEX
  5
1B003
  8
ALPHA
 10
1766.27157
 20
599.249989
 30
0.0
  0
VERTEX
  5
1B004
  8
ALPHA
 10
1765.6857
 20
599.368013
 30
0.0
  0
SEQEND
  5
1B005
  8
ALPHA
  0
LINE
  5
16E6C
  8
ALPHA
 10
1759.0357
 20
591.80513
 30
0.0
 11
1759.0357
 21
588.90513
 31
0.0
  0
LINE
  5
16E6D
  8
ALPHA
 10
1760.6357
 20
588.90513
 30
0.0
 11
1760.6357
 21
591.80513
 31
0.0
  0
LINE
  5
16E6E
  8
ALPHA
 10
1765.6857
 20
596.342247
 30
0.0
 11
1765.6857
 21
596.40513
 31
0.0
  0
LINE
  5
16E6F
  8
ALPHA
 10
1765.6857
 20
591.80513
 30
0.0
 11
1765.6857
 21
591.909945
 31
0.0
  0
LINE
  5
16E70
  8
ALPHA
 10
1765.6857
 20
588.90513
 30
0.0
 11
1765.6857
 21
588.800314
 31
0.0
  0
POLYLINE
  5
16E71
  8
ALPHA
 66
     1
 10
0.0
 20
0.0
 30
0.0
  0
VERTEX
  5
1B006
  8
ALPHA
 10
1765.6857
 20
588.800314
 30
0.0
  0
VERTEX
  5
1B007
  8
ALPHA
 10
1766.2877
 20
588.921548
 30
0.0
  0
VERTEX
  5
1B008
  8
ALPHA
 10
1766.793008
 20
589.263559
 30
0.0
  0
VERTEX
  5
1B009
  8
ALPHA
 10
1767.125183
 20
589.767248
 30
0.0
  0
VERTEX
  5
1B00A
  8
ALPHA
 10
1767.240611
 20
590.35513
 30
0.0
  0
VERTEX
  5
1B00B
  8
ALPHA
 10
1767.125183
 20
590.943012
 30
0.0
  0
VERTEX
  5
1B00C
  8
ALPHA
 10
1766.793008
 20
591.446701
 30
0.0
  0
VERTEX
  5
1B00D
  8
ALPHA
 10
1766.2877
 20
591.788712
 30
0.0
  0
VERTEX
  5
1B00E
  8
ALPHA
 10
1765.6857
 20
591.909945
 30
0.0
  0
SEQEND
  5
1B00F
  8
ALPHA
  0
POLYLINE
  5
16E7C
  8
ALPHA
 66
     1
 10
0.0
 20
0.0
 30
0.0
  0
VERTEX
  5
1B010
  8
ALPHA
 10
1765.6857
 20
588.90513
 30
0.0
  0
VERTEX
  5
1B011
  8
ALPHA
 10
1766.247357
 20
589.018329
 30
0.0
  0
VERTEX
  5
1B012
  8
ALPHA
 10
1766.719155
 20
589.338043
 30
0.0
  0
VERTEX
  5
1B013
  8
ALPHA
 10
1767.028183
 20
589.807198
 30
0.0
  0
VERTEX
  5
1B014
  8
ALPHA
 10
1767.1357
 20
590.35513
 30
0.0
  0
VERTEX
  5
1B015
  8
ALPHA
 10
1767.028183
 20
590.903062
 30
0.0
  0
VERTEX
  5
1B016
  8
ALPHA
 10
1766.719155
 20
591.372216
 30
0.0
  0
VERTEX
  5
1B017
  8
ALPHA
 10
1766.247357
 20
591.69193
 30
0.0
  0
VERTEX
  5
1B018
  8
ALPHA
 10
1765.6857
 20
591.80513
 30
0.0
  0
SEQEND
  5
1B019
  8
ALPHA
  0
LINE
  5
16E87
  8
ALPHA
 10
1765.6857
 20
603.842247
 30
0.0
 11
1765.6857
 21
603.90513
 31
0.0
  0
LINE
  5
16E88
  8
ALPHA
 10
1765.6857
 20
599.368013
 30
0.0
 11
1765.6857
 21
599.30513
 31
0.0
  0
LINE
  5
16E89
  8
ALPHA
 10
1765.6857
 20
606.868013
 30
0.0
 11
1765.6857
 21
606.80513
 31
0.0
  0
POLYLINE
  5
16E8A
  8
ALPHA
 66
     1
 10
0.0
 20
0.0
 30
0.0
  0
VERTEX
  5
1B01A
  8
ALPHA
 10
1765.6857
 20
603.90513
 30
0.0
  0
VERTEX
  5
1B01B
  8
ALPHA
 10
1766.247366
 20
604.018333
 30
0.0
  0
VERTEX
  5
1B01C
  8
ALPHA
 10
1766.719168
 20
604.338057
 30
0.0
  0
VERTEX
  5
1B01D
  8
ALPHA
 10
1767.028184
 20
604.8072
 30
0.0
  0
VERTEX
  5
1B01E
  8
ALPHA
 10
1767.1357
 20
605.35513
 30
0.0
  0
VERTEX
  5
1B01F
  8
ALPHA
 10
1767.028184
 20
605.90306
 30
0.0
  0
VERTEX
  5
1B020
  8
ALPHA
 10
1766.719168
 20
606.372203
 30
0.0
  0
VERTEX
  5
1B021
  8
ALPHA
 10
1766.247366
 20
606.691927
 30
0.0
  0
VERTEX
  5
1B022
  8
ALPHA
 10
1765.6857
 20
606.80513
 30
0.0
  0
SEQEND
  5
1B023
  8
ALPHA
  0
POLYLINE
  5
16E95
  8
ALPHA
 66
     1
 10
0.0
 20
0.0
 30
0.0
  0
VERTEX
  5
1B024
  8
ALPHA
 10
1765.6857
 20
603.842247
 30
0.0
  0
VERTEX
  5
1B025
  8
ALPHA
 10
1766.27157
 20
603.960271
 30
0.0
  0
VERTEX
  5
1B026
  8
ALPHA
 10
1766.763471
 20
604.293366
 30
0.0
  0
VERTEX
  5
1B027
  8
ALPHA
 10
1767.086377
 20
604.783229
 30
0.0
  0
VERTEX
  5
1B028
  8
ALPHA
 10
1767.19864
 20
605.35513
 30
0.0
  0
VERTEX
  5
1B029
  8
ALPHA
 10
1767.086377
 20
605.92703
 30
0.0
  0
VERTEX
  5
1B02A
  8
ALPHA
 10
1766.763471
 20
606.416894
 30
0.0
  0
VERTEX
  5
1B02B
  8
ALPHA
 10
1766.27157
 20
606.749989
 30
0.0
  0
VERTEX
  5
1B02C
  8
ALPHA
 10
1765.6857
 20
606.868013
 30
0.0
  0
SEQEND
  5
1B02D
  8
ALPHA
  0
POLYLINE
  5
16EA0
  8
ALPHA
 66
     1
 10
0.0
 20
0.0
 30
0.0
  0
VERTEX
  5
1B02E
  8
ALPHA
 10
1749.5857
 20
599.368013
 30
0.0
  0
VERTEX
  5
1B02F
  8
ALPHA
 10
1748.999864
 20
599.249955
 30
0.0
  0
VERTEX
  5
1B030
  8
ALPHA
 10
1748.508003
 20
598.916852
 30
0.0
  0
VERTEX
  5
1B031
  8
ALPHA
 10
1748.185127
 20
598.427003
 30
0.0
  0
VERTEX
  5
1B032
  8
ALPHA
 10
1748.072874
 20
597.85513
 30
0.0
  0
VERTEX
  5
1B033
  8
ALPHA
 10
1748.185127
 20
597.283256
 30
0.0
  0
VERTEX
  5
1B034
  8
ALPHA
 10
1748.508003
 20
596.793407
 30
0.0
  0
VERTEX
  5
1B035
  8
ALPHA
 10
1748.999864
 20
596.460304
 30
0.0
  0
VERTEX
  5
1B036
  8
ALPHA
 10
1749.5857
 20
596.342247
 30
0.0
  0
SEQEND
  5
1B037
  8
ALPHA
  0
POLYLINE
  5
16EAB
  8
ALPHA
 66
     1
 10
0.0
 20
0.0
 30
0.0
  0
VERTEX
  5
1B038
  8
ALPHA
 10
1749.5857
 20
599.30513
 30
0.0
  0
VERTEX
  5
1B039
  8
ALPHA
 10
1749.024034
 20
599.191927
 30
0.0
  0
VERTEX
  5
1B03A
  8
ALPHA
 10
1748.552232
 20
598.872203
 30
0.0
  0
VERTEX
  5
1B03B
  8
ALPHA
 10
1748.243216
 20
598.40306
 30
0.0
  0
VERTEX
  5
1B03C
  8
ALPHA
 10
1748.1357
 20
597.85513
 30
0.0
  0
VERTEX
  5
1B03D
  8
ALPHA
 10
1748.243216
 20
597.3072
 30
0.0
  0
VERTEX
  5
1B03E
  8
ALPHA
 10
1748.552232
 20
596.838057
 30
0.0
  0
VERTEX
  5
1B03F
  8
ALPHA
 10
1749.024034
 20
596.518333
 30
0.0
  0
VERTEX
  5
1B040
  8
ALPHA
 10
1749.5857
 20
596.40513
 30
0.0
  0
SEQEND
  5
1B041
  8
ALPHA
  0
LINE
  5
16EB6
  8
ALPHA
 10
1749.5857
 20
596.342247
 30
0.0
 11
1749.5857
 21
596.40513
 31
0.0
  0
LINE
  5
16EB7
  8
ALPHA
 10
1749.5857
 20
591.80513
 30
0.0
 11
1749.5857
 21
591.909945
 31
0.0
  0
LINE
  5
16EB8
  8
ALPHA
 10
1749.5857
 20
588.90513
 30
0.0
 11
1749.5857
 21
588.800314
 31
0.0
  0
POLYLINE
  5
16EB9
  8
ALPHA
 66
     1
 10
0.0
 20
0.0
 30
0.0
  0
VERTEX
  5
1B042
  8
ALPHA
 10
1749.5857
 20
591.909945
 30
0.0
  0
VERTEX
  5
1B043
  8
ALPHA
 10
1748.983759
 20
591.788656
 30
0.0
  0
VERTEX
  5
1B044
  8
ALPHA
 10
1748.478515
 20
591.446631
 30
0.0
  0
VERTEX
  5
1B045
  8
ALPHA
 10
1748.14639
 20
590.942967
 30
0.0
  0
VERTEX
  5
1B046
  8
ALPHA
 10
1748.03098
 20
590.35513
 30
0.0
  0
VERTEX
  5
1B047
  8
ALPHA
 10
1748.14639
 20
589.767292
 30
0.0
  0
VERTEX
  5
1B048
  8
ALPHA
 10
1748.478515
 20
589.263629
 30
0.0
  0
VERTEX
  5
1B049
  8
ALPHA
 10
1748.983759
 20
588.921604
 30
0.0
  0
VERTEX
  5
1B04A
  8
ALPHA
 10
1749.5857
 20
588.800314
 30
0.0
  0
SEQEND
  5
1B04B
  8
ALPHA
  0
POLYLINE
  5
16EC4
  8
ALPHA
 66
     1
 10
0.0
 20
0.0
 30
0.0
  0
VERTEX
  5
1B04C
  8
ALPHA
 10
1749.5857
 20
591.80513
 30
0.0
  0
VERTEX
  5
1B04D
  8
ALPHA
 10
1749.024043
 20
591.69193
 30
0.0
  0
VERTEX
  5
1B04E
  8
ALPHA
 10
1748.552245
 20
591.372216
 30
0.0
  0
VERTEX
  5
1B04F
  8
ALPHA
 10
1748.243216
 20
590.903062
 30
0.0
  0
VERTEX
  5
1B050
  8
ALPHA
 10
1748.1357
 20
590.35513
 30
0.0
  0
VERTEX
  5
1B051
  8
ALPHA
 10
1748.243216
 20
589.807198
 30
0.0
  0
VERTEX
  5
1B052
  8
ALPHA
 10
1748.552245
 20
589.338043
 30
0.0
  0
VERTEX
  5
1B053
  8
ALPHA
 10
1749.024043
 20
589.018329
 30
0.0
  0
VERTEX
  5
1B054
  8
ALPHA
 10
1749.5857
 20
588.90513
 30
0.0
  0
SEQEND
  5
1B055
  8
ALPHA
  0
POLYLINE
  5
16ECF
  8
ALPHA
 66
     1
 10
0.0
 20
0.0
 30
0.0
  0
VERTEX
  5
1B056
  8
ALPHA
 10
1743.221776
 20
609.317489
 30
0.0
  0
VERTEX
  5
1B057
  8
ALPHA
 10
1743.308298
 20
608.774185
 30
0.0
  0
VERTEX
  5
1B058
  8
ALPHA
 10
1743.374893
 20
608.218647
 30
0.0
  0
VERTEX
  5
1B059
  8
ALPHA
 10
1743.424737
 20
607.670709
 30
0.0
  0
VERTEX
  5
1B05A
  8
ALPHA
 10
1743.460653
 20
607.143557
 30
0.0
  0
VERTEX
  5
1B05B
  8
ALPHA
 10
1743.485193
 20
606.645228
 30
0.0
  0
VERTEX
  5
1B05C
  8
ALPHA
 10
1743.500574
 20
606.179393
 30
0.0
  0
VERTEX
  5
1B05D
  8
ALPHA
 10
1743.508662
 20
605.748803
 30
0.0
  0
VERTEX
  5
1B05E
  8
ALPHA
 10
1743.511026
 20
605.355125
 30
0.0
  0
SEQEND
  5
1B05F
  8
ALPHA
  0
POLYLINE
  5
16EDA
  8
ALPHA
 66
     1
 10
0.0
 20
0.0
 30
0.0
  0
VERTEX
  5
1B060
  8
ALPHA
 10
1743.282745
 20
601.922235
 30
0.0
  0
VERTEX
  5
1B061
  8
ALPHA
 10
1743.232981
 20
602.126641
 30
0.0
  0
VERTEX
  5
1B062
  8
ALPHA
 10
1743.174315
 20
602.433724
 30
0.0
  0
VERTEX
  5
1B063
  8
ALPHA
 10
1743.123466
 20
602.766899
 30
0.0
  0
VERTEX
  5
1B064
  8
ALPHA
 10
1743.07887
 20
603.133376
 30
0.0
  0
VERTEX
  5
1B065
  8
ALPHA
 10
1743.041228
 20
603.52918
 30
0.0
  0
VERTEX
  5
1B066
  8
ALPHA
 10
1743.011419
 20
603.943923
 30
0.0
  0
VERTEX
  5
1B067
  8
ALPHA
 10
1742.990431
 20
604.35201
 30
0.0
  0
VERTEX
  5
1B068
  8
ALPHA
 10
1742.977763
 20
604.726252
 30
0.0
  0
SEQEND
  5
1B069
  8
ALPHA
  0
POLYLINE
  5
16EE5
  8
ALPHA
 66
     1
 10
0.0
 20
0.0
 30
0.0
  0
VERTEX
  5
1B06A
  8
ALPHA
 10
1742.974327
 20
605.83226
 30
0.0
  0
VERTEX
  5
1B06B
  8
ALPHA
 10
1742.990281
 20
606.35476
 30
0.0
  0
VERTEX
  5
1B06C
  8
ALPHA
 10
1743.020733
 20
606.9103
 30
0.0
  0
VERTEX
  5
1B06D
  8
ALPHA
 10
1743.063377
 20
607.4262
 30
0.0
  0
VERTEX
  5
1B06E
  8
ALPHA
 10
1743.112908
 20
607.864008
 30
0.0
  0
VERTEX
  5
1B06F
  8
ALPHA
 10
1743.168124
 20
608.239805
 30
0.0
  0
VERTEX
  5
1B070
  8
ALPHA
 10
1743.23067
 20
608.572752
 30
0.0
  0
VERTEX
  5
1B071
  8
ALPHA
 10
1743.282326
 20
608.785268
 30
0.0
  0
SEQEND
  5
1B072
  8
ALPHA
  0
POLYLINE
  5
16EEF
  8
ALPHA
 66
     1
 10
0.0
 20
0.0
 30
0.0
  0
VERTEX
  5
1B073
  8
ALPHA
 10
1743.377505
 20
605.355127
 30
0.0
  0
VERTEX
  5
1B074
  8
ALPHA
 10
1743.40064
 20
606.521447
 30
0.0
  0
VERTEX
  5
1B075
  8
ALPHA
 10
1743.442784
 20
607.184775
 30
0.0
  0
SEQEND
  5
1B076
  8
ALPHA
  0
LINE
  5
16EF4
  8
ALPHA
 10
1742.969692
 20
605.355128
 30
0.0
 11
1742.974327
 21
605.83226
 31
0.0
  0
POLYLINE
  5
16EF5
  8
ALPHA
 66
     1
 10
0.0
 20
0.0
 30
0.0
  0
VERTEX
  5
1B077
  8
ALPHA
 10
1743.511026
 20
605.355125
 30
0.0
  0
VERTEX
  5
1B078
  8
ALPHA
 10
1743.505727
 20
604.767051
 30
0.0
  0
VERTEX
  5
1B079
  8
ALPHA
 10
1743.487483
 20
604.122675
 30
0.0
  0
VERTEX
  5
1B07A
  8
ALPHA
 10
1743.45263
 20
603.434116
 30
0.0
  0
VERTEX
  5
1B07B
  8
ALPHA
 10
1743.403924
 20
602.791923
 30
0.0
  0
VERTEX
  5
1B07C
  8
ALPHA
 10
1743.347636
 20
602.245419
 30
0.0
  0
VERTEX
  5
1B07D
  8
ALPHA
 10
1743.285486
 20
601.77664
 30
0.0
  0
VERTEX
  5
1B07E
  8
ALPHA
 10
1743.215961
 20
601.36164
 30
0.0
  0
SEQEND
  5
1B07F
  8
ALPHA
  0
POLYLINE
  5
16EFF
  8
ALPHA
 66
     1
 10
0.0
 20
0.0
 30
0.0
  0
VERTEX
  5
1B080
  8
ALPHA
 10
1743.498875
 20
605.355125
 30
0.0
  0
VERTEX
  5
1B081
  8
ALPHA
 10
1743.497623
 20
605.065051
 30
0.0
  0
VERTEX
  5
1B082
  8
ALPHA
 10
1743.480868
 20
604.292605
 30
0.0
  0
VERTEX
  5
1B083
  8
ALPHA
 10
1743.446808
 20
603.565552
 30
0.0
  0
VERTEX
  5
1B084
  8
ALPHA
 10
1743.397733
 20
602.90096
 30
0.0
  0
VERTEX
  5
1B085
  8
ALPHA
 10
1743.336805
 20
602.312993
 30
0.0
  0
VERTEX
  5
1B086
  8
ALPHA
 10
1743.26756
 20
601.81248
 30
0.0
  0
VERTEX
  5
1B087
  8
ALPHA
 10
1743.194311
 20
601.408124
 30
0.0
  0
VERTEX
  5
1B088
  8
ALPHA
 10
1743.122869
 20
601.107131
 30
0.0
  0
VERTEX
  5
1B089
  8
ALPHA
 10
1743.063313
 20
600.919318
 30
0.0
  0
VERTEX
  5
1B08A
  8
ALPHA
 10
1743.049685
 20
600.885254
 30
0.0
  0
SEQEND
  5
1B08B
  8
ALPHA
  0
POLYLINE
  5
16F0C
  8
ALPHA
 66
     1
 10
0.0
 20
0.0
 30
0.0
  0
VERTEX
  5
1B08C
  8
ALPHA
 10
1742.977763
 20
604.726252
 30
0.0
  0
VERTEX
  5
1B08D
  8
ALPHA
 10
1742.971472
 20
605.058374
 30
0.0
  0
VERTEX
  5
1B08E
  8
ALPHA
 10
1742.969692
 20
605.355128
 30
0.0
  0
SEQEND
  5
1B08F
  8
ALPHA
  0
POLYLINE
  5
16F11
  8
ALPHA
 66
     1
 10
0.0
 20
0.0
 30
0.0
  0
VERTEX
  5
1B090
  8
ALPHA
 10
1743.443277
 20
603.51773
 30
0.0
  0
VERTEX
  5
1B091
  8
ALPHA
 10
1743.40064
 20
604.1888
 30
0.0
  0
VERTEX
  5
1B092
  8
ALPHA
 10
1743.377505
 20
605.355127
 30
0.0
  0
SEQEND
  5
1B093
  8
ALPHA
  0
LINE
  5
16F16
  8
ALPHA
 10
1749.5857
 20
603.842247
 30
0.0
 11
1749.5857
 21
603.90513
 31
0.0
  0
LINE
  5
16F17
  8
ALPHA
 10
1749.5857
 20
599.368013
 30
0.0
 11
1749.5857
 21
599.30513
 31
0.0
  0
LINE
  5
16F18
  8
ALPHA
 10
1749.5857
 20
606.868013
 30
0.0
 11
1749.5857
 21
606.80513
 31
0.0
  0
POLYLINE
  5
16F19
  8
ALPHA
 66
     1
 10
0.0
 20
0.0
 30
0.0
  0
VERTEX
  5
1B094
  8
ALPHA
 10
1743.215961
 20
601.36164
 30
0.0
  0
VERTEX
  5
1B095
  8
ALPHA
 10
1743.134174
 20
600.979755
 30
0.0
  0
VERTEX
  5
1B096
  8
ALPHA
 10
1743.034972
 20
600.635279
 30
0.0
  0
VERTEX
  5
1B097
  8
ALPHA
 10
1742.917914
 20
600.365507
 30
0.0
  0
VERTEX
  5
1B098
  8
ALPHA
 10
1742.782797
 20
600.214969
 30
0.0
  0
VERTEX
  5
1B099
  8
ALPHA
 10
1742.643768
 20
600.231376
 30
0.0
  0
VERTEX
  5
1B09A
  8
ALPHA
 10
1742.520192
 20
600.398755
 30
0.0
  0
VERTEX
  5
1B09B
  8
ALPHA
 10
1742.416798
 20
600.66463
 30
0.0
  0
VERTEX
  5
1B09C
  8
ALPHA
 10
1742.330704
 20
600.991821
 30
0.0
  0
VERTEX
  5
1B09D
  8
ALPHA
 10
1742.260076
 20
601.35112
 30
0.0
  0
VERTEX
  5
1B09E
  8
ALPHA
 10
1742.201291
 20
601.732316
 30
0.0
  0
VERTEX
  5
1B09F
  8
ALPHA
 10
1742.150329
 20
602.145622
 30
0.0
  0
VERTEX
  5
1B0A0
  8
ALPHA
 10
1742.105662
 20
602.600178
 30
0.0
  0
VERTEX
  5
1B0A1
  8
ALPHA
 10
1742.067924
 20
603.091176
 30
0.0
  0
VERTEX
  5
1B0A2
  8
ALPHA
 10
1742.038077
 20
603.605215
 30
0.0
  0
VERTEX
  5
1B0A3
  8
ALPHA
 10
1742.017044
 20
604.111411
 30
0.0
  0
VERTEX
  5
1B0A4
  8
ALPHA
 10
1742.004355
 20
604.575093
 30
0.0
  0
VERTEX
  5
1B0A5
  8
ALPHA
 10
1741.998049
 20
604.987272
 30
0.0
  0
VERTEX
  5
1B0A6
  8
ALPHA
 10
1741.996265
 20
605.355128
 30
0.0
  0
SEQEND
  5
1B0A7
  8
ALPHA
  0
POLYLINE
  5
16F2E
  8
ALPHA
 66
     1
 10
0.0
 20
0.0
 30
0.0
  0
VERTEX
  5
1B0A8
  8
ALPHA
 10
1749.5857
 20
606.868013
 30
0.0
  0
VERTEX
  5
1B0A9
  8
ALPHA
 10
1748.999864
 20
606.749955
 30
0.0
  0
VERTEX
  5
1B0AA
  8
ALPHA
 10
1748.508003
 20
606.416852
 30
0.0
  0
VERTEX
  5
1B0AB
  8
ALPHA
 10
1748.185127
 20
605.927003
 30
0.0
  0
VERTEX
  5
1B0AC
  8
ALPHA
 10
1748.072874
 20
605.35513
 30
0.0
  0
VERTEX
  5
1B0AD
  8
ALPHA
 10
1748.185127
 20
604.783256
 30
0.0
  0
VERTEX
  5
1B0AE
  8
ALPHA
 10
1748.508003
 20
604.293407
 30
0.0
  0
VERTEX
  5
1B0AF
  8
ALPHA
 10
1748.999864
 20
603.960304
 30
0.0
  0
VERTEX
  5
1B0B0
  8
ALPHA
 10
1749.5857
 20
603.842247
 30
0.0
  0
SEQEND
  5
1B0B1
  8
ALPHA
  0
POLYLINE
  5
16F39
  8
ALPHA
 66
     1
 10
0.0
 20
0.0
 30
0.0
  0
VERTEX
  5
1B0B2
  8
ALPHA
 10
1749.5857
 20
606.80513
 30
0.0
  0
VERTEX
  5
1B0B3
  8
ALPHA
 10
1749.024034
 20
606.691927
 30
0.0
  0
VERTEX
  5
1B0B4
  8
ALPHA
 10
1748.552232
 20
606.372203
 30
0.0
  0
VERTEX
  5
1B0B5
  8
ALPHA
 10
1748.243216
 20
605.90306
 30
0.0
  0
VERTEX
  5
1B0B6
  8
ALPHA
 10
1748.1357
 20
605.35513
 30
0.0
  0
VERTEX
  5
1B0B7
  8
ALPHA
 10
1748.243216
 20
604.8072
 30
0.0
  0
VERTEX
  5
1B0B8
  8
ALPHA
 10
1748.552232
 20
604.338057
 30
0.0
  0
VERTEX
  5
1B0B9
  8
ALPHA
 10
1749.024034
 20
604.018333
 30
0.0
  0
VERTEX
  5
1B0BA
  8
ALPHA
 10
1749.5857
 20
603.90513
 30
0.0
  0
SEQEND
  5
1B0BB
  8
ALPHA
  0
POLYLINE
  5
16F44
  8
ALPHA
 66
     1
 10
0.0
 20
0.0
 30
0.0
  0
VERTEX
  5
1B0BC
  8
ALPHA
 10
1743.040998
 20
609.844619
 30
0.0
  0
VERTEX
  5
1B0BD
  8
ALPHA
 10
1743.040262
 20
609.845728
 30
0.0
  0
VERTEX
  5
1B0BE
  8
ALPHA
 10
1743.082568
 20
609.736674
 30
0.0
  0
VERTEX
  5
1B0BF
  8
ALPHA
 10
1743.153877
 20
609.482806
 30
0.0
  0
VERTEX
  5
1B0C0
  8
ALPHA
 10
1743.232864
 20
609.102816
 30
0.0
  0
VERTEX
  5
1B0C1
  8
ALPHA
 10
1743.31002
 20
608.60747
 30
0.0
  0
VERTEX
  5
1B0C2
  8
ALPHA
 10
1743.379261
 20
608.00749
 30
0.0
  0
VERTEX
  5
1B0C3
  8
ALPHA
 10
1743.435862
 20
607.316571
 30
0.0
  0
VERTEX
  5
1B0C4
  8
ALPHA
 10
1743.476024
 20
606.551818
 30
0.0
  0
VERTEX
  5
1B0C5
  8
ALPHA
 10
1743.49662
 20
605.734582
 30
0.0
  0
VERTEX
  5
1B0C6
  8
ALPHA
 10
1743.498883
 20
605.355125
 30
0.0
  0
SEQEND
  5
1B0C7
  8
ALPHA
  0
LINE
  5
16F51
  8
ALPHA
 10
1765.6857
 20
629.409945
 30
0.0
 11
1749.5857
 21
629.409945
 31
0.0
  0
LINE
  5
16F52
  8
ALPHA
 10
1765.6857
 20
629.30513
 30
0.0
 11
1749.5857
 21
629.30513
 31
0.0
  0
LINE
  5
16F53
  8
ALPHA
 10
1748.17151
 20
627.67263
 30
0.0
 11
1759.0357
 21
627.67263
 31
0.0
  0
LINE
  5
16F54
  8
ALPHA
 10
1749.5857
 20
626.40513
 30
0.0
 11
1765.6857
 21
626.40513
 31
0.0
  0
LINE
  5
16F55
  8
ALPHA
 10
1749.5857
 20
626.300314
 30
0.0
 11
1765.6857
 21
626.300314
 31
0.0
  0
LINE
  5
16F56
  8
ALPHA
 10
1765.6857
 20
621.909945
 30
0.0
 11
1749.5857
 21
621.909945
 31
0.0
  0
LINE
  5
16F57
  8
ALPHA
 10
1765.6857
 20
621.80513
 30
0.0
 11
1749.5857
 21
621.80513
 31
0.0
  0
LINE
  5
16F58
  8
ALPHA
 10
1749.5857
 20
618.90513
 30
0.0
 11
1765.6857
 21
618.90513
 31
0.0
  0
LINE
  5
16F59
  8
ALPHA
 10
1749.5857
 20
618.800314
 30
0.0
 11
1765.6857
 21
618.800314
 31
0.0
  0
LINE
  5
16F5A
  8
ALPHA
 10
1765.6857
 20
614.368013
 30
0.0
 11
1749.5857
 21
614.368013
 31
0.0
  0
LINE
  5
16F5B
  8
ALPHA
 10
1765.685699
 20
614.30513
 30
0.0
 11
1749.5857
 21
614.30513
 31
0.0
  0
LINE
  5
16F5C
  8
ALPHA
 10
1749.5857
 20
611.40513
 30
0.0
 11
1765.6857
 21
611.40513
 31
0.0
  0
LINE
  5
16F5D
  8
ALPHA
 10
1749.5857
 20
611.342247
 30
0.0
 11
1765.6857
 21
611.342247
 31
0.0
  0
LINE
  5
16F5E
  8
ALPHA
 10
1765.6857
 20
621.80513
 30
0.0
 11
1765.6857
 21
621.909945
 31
0.0
  0
POLYLINE
  5
16F5F
  8
ALPHA
 66
     1
 10
0.0
 20
0.0
 30
0.0
  0
VERTEX
  5
1B0C8
  8
ALPHA
 10
1765.6857
 20
618.800314
 30
0.0
  0
VERTEX
  5
1B0C9
  8
ALPHA
 10
1766.2877
 20
618.921548
 30
0.0
  0
VERTEX
  5
1B0CA
  8
ALPHA
 10
1766.793008
 20
619.263559
 30
0.0
  0
VERTEX
  5
1B0CB
  8
ALPHA
 10
1767.125183
 20
619.767248
 30
0.0
  0
VERTEX
  5
1B0CC
  8
ALPHA
 10
1767.240611
 20
620.35513
 30
0.0
  0
VERTEX
  5
1B0CD
  8
ALPHA
 10
1767.125183
 20
620.943012
 30
0.0
  0
VERTEX
  5
1B0CE
  8
ALPHA
 10
1766.793008
 20
621.446701
 30
0.0
  0
VERTEX
  5
1B0CF
  8
ALPHA
 10
1766.2877
 20
621.788712
 30
0.0
  0
VERTEX
  5
1B0D0
  8
ALPHA
 10
1765.6857
 20
621.909945
 30
0.0
  0
SEQEND
  5
1B0D1
  8
ALPHA
  0
LINE
  5
16F6A
  8
ALPHA
 10
1759.0357
 20
621.80513
 30
0.0
 11
1759.0357
 21
618.90513
 31
0.0
  0
LINE
  5
16F6B
  8
ALPHA
 10
1760.6357
 20
618.90513
 30
0.0
 11
1760.6357
 21
621.80513
 31
0.0
  0
LINE
  5
16F6C
  8
ALPHA
 10
1763.6357
 20
621.80513
 30
0.0
 11
1763.6357
 21
618.90513
 31
0.0
  0
LINE
  5
16F6D
  8
ALPHA
 10
1765.6857
 20
611.342247
 30
0.0
 11
1765.6857
 21
611.40513
 31
0.0
  0
LINE
  5
16F6E
  8
ALPHA
 10
1765.6857
 20
618.90513
 30
0.0
 11
1765.6857
 21
618.800314
 31
0.0
  0
LINE
  5
16F6F
  8
ALPHA
 10
1765.6857
 20
614.368013
 30
0.0
 11
1765.685699
 21
614.30513
 31
0.0
  0
POLYLINE
  5
16F70
  8
ALPHA
 66
     1
 10
0.0
 20
0.0
 30
0.0
  0
VERTEX
  5
1B0D2
  8
ALPHA
 10
1765.6857
 20
618.90513
 30
0.0
  0
VERTEX
  5
1B0D3
  8
ALPHA
 10
1766.247357
 20
619.018329
 30
0.0
  0
VERTEX
  5
1B0D4
  8
ALPHA
 10
1766.719155
 20
619.338043
 30
0.0
  0
VERTEX
  5
1B0D5
  8
ALPHA
 10
1767.028183
 20
619.807198
 30
0.0
  0
VERTEX
  5
1B0D6
  8
ALPHA
 10
1767.1357
 20
620.35513
 30
0.0
  0
VERTEX
  5
1B0D7
  8
ALPHA
 10
1767.028183
 20
620.903062
 30
0.0
  0
VERTEX
  5
1B0D8
  8
ALPHA
 10
1766.719155
 20
621.372216
 30
0.0
  0
VERTEX
  5
1B0D9
  8
ALPHA
 10
1766.247357
 20
621.69193
 30
0.0
  0
VERTEX
  5
1B0DA
  8
ALPHA
 10
1765.6857
 20
621.80513
 30
0.0
  0
SEQEND
  5
1B0DB
  8
ALPHA
  0
POLYLINE
  5
16F7B
  8
ALPHA
 66
     1
 10
0.0
 20
0.0
 30
0.0
  0
VERTEX
  5
1B0DC
  8
ALPHA
 10
1765.6857
 20
611.40513
 30
0.0
  0
VERTEX
  5
1B0DD
  8
ALPHA
 10
1766.247366
 20
611.518333
 30
0.0
  0
VERTEX
  5
1B0DE
  8
ALPHA
 10
1766.719168
 20
611.838057
 30
0.0
  0
VERTEX
  5
1B0DF
  8
ALPHA
 10
1767.028184
 20
612.3072
 30
0.0
  0
VERTEX
  5
1B0E0
  8
ALPHA
 10
1767.1357
 20
612.85513
 30
0.0
  0
VERTEX
  5
1B0E1
  8
ALPHA
 10
1767.028184
 20
613.40306
 30
0.0
  0
VERTEX
  5
1B0E2
  8
ALPHA
 10
1766.719168
 20
613.872203
 30
0.0
  0
VERTEX
  5
1B0E3
  8
ALPHA
 10
1766.247365
 20
614.191927
 30
0.0
  0
VERTEX
  5
1B0E4
  8
ALPHA
 10
1765.685699
 20
614.30513
 30
0.0
  0
SEQEND
  5
1B0E5
  8
ALPHA
  0
POLYLINE
  5
16F86
  8
ALPHA
 66
     1
 10
0.0
 20
0.0
 30
0.0
  0
VERTEX
  5
1B0E6
  8
ALPHA
 10
1765.6857
 20
611.342247
 30
0.0
  0
VERTEX
  5
1B0E7
  8
ALPHA
 10
1766.27157
 20
611.460271
 30
0.0
  0
VERTEX
  5
1B0E8
  8
ALPHA
 10
1766.763471
 20
611.793366
 30
0.0
  0
VERTEX
  5
1B0E9
  8
ALPHA
 10
1767.086377
 20
612.283229
 30
0.0
  0
VERTEX
  5
1B0EA
  8
ALPHA
 10
1767.19864
 20
612.85513
 30
0.0
  0
VERTEX
  5
1B0EB
  8
ALPHA
 10
1767.086377
 20
613.42703
 30
0.0
  0
VERTEX
  5
1B0EC
  8
ALPHA
 10
1766.763471
 20
613.916894
 30
0.0
  0
VERTEX
  5
1B0ED
  8
ALPHA
 10
1766.27157
 20
614.249989
 30
0.0
  0
VERTEX
  5
1B0EE
  8
ALPHA
 10
1765.6857
 20
614.368013
 30
0.0
  0
SEQEND
  5
1B0EF
  8
ALPHA
  0
LINE
  5
16F91
  8
ALPHA
 10
1755.0357
 20
629.30513
 30
0.0
 11
1755.0357
 21
627.67263
 31
0.0
  0
LINE
  5
16F92
  8
ALPHA
 10
1759.0357
 20
629.30513
 30
0.0
 11
1759.0357
 21
626.40513
 31
0.0
  0
LINE
  5
16F93
  8
ALPHA
 10
1760.6357
 20
626.40513
 30
0.0
 11
1760.6357
 21
629.30513
 31
0.0
  0
LINE
  5
16F94
  8
ALPHA
 10
1763.6357
 20
627.30513
 30
0.0
 11
1763.6357
 21
626.40513
 31
0.0
  0
LINE
  5
16F95
  8
ALPHA
 10
1765.6857
 20
629.30513
 30
0.0
 11
1765.6857
 21
629.409945
 31
0.0
  0
LINE
  5
16F96
  8
ALPHA
 10
1765.6857
 20
626.40513
 30
0.0
 11
1765.6857
 21
626.300314
 31
0.0
  0
POLYLINE
  5
16F97
  8
ALPHA
 66
     1
 10
0.0
 20
0.0
 30
0.0
  0
VERTEX
  5
1B0F0
  8
ALPHA
 10
1765.6857
 20
626.300314
 30
0.0
  0
VERTEX
  5
1B0F1
  8
ALPHA
 10
1766.2877
 20
626.421548
 30
0.0
  0
VERTEX
  5
1B0F2
  8
ALPHA
 10
1766.793008
 20
626.763559
 30
0.0
  0
VERTEX
  5
1B0F3
  8
ALPHA
 10
1767.125183
 20
627.267248
 30
0.0
  0
VERTEX
  5
1B0F4
  8
ALPHA
 10
1767.240611
 20
627.85513
 30
0.0
  0
VERTEX
  5
1B0F5
  8
ALPHA
 10
1767.125183
 20
628.443012
 30
0.0
  0
VERTEX
  5
1B0F6
  8
ALPHA
 10
1766.793008
 20
628.946701
 30
0.0
  0
VERTEX
  5
1B0F7
  8
ALPHA
 10
1766.2877
 20
629.288712
 30
0.0
  0
VERTEX
  5
1B0F8
  8
ALPHA
 10
1765.6857
 20
629.409945
 30
0.0
  0
SEQEND
  5
1B0F9
  8
ALPHA
  0
POLYLINE
  5
16FA2
  8
ALPHA
 66
     1
 10
0.0
 20
0.0
 30
0.0
  0
VERTEX
  5
1B0FA
  8
ALPHA
 10
1765.6857
 20
626.40513
 30
0.0
  0
VERTEX
  5
1B0FB
  8
ALPHA
 10
1766.247357
 20
626.518329
 30
0.0
  0
VERTEX
  5
1B0FC
  8
ALPHA
 10
1766.719155
 20
626.838043
 30
0.0
  0
VERTEX
  5
1B0FD
  8
ALPHA
 10
1767.028183
 20
627.307198
 30
0.0
  0
VERTEX
  5
1B0FE
  8
ALPHA
 10
1767.1357
 20
627.85513
 30
0.0
  0
VERTEX
  5
1B0FF
  8
ALPHA
 10
1767.028183
 20
628.403062
 30
0.0
  0
VERTEX
  5
1B100
  8
ALPHA
 10
1766.719155
 20
628.872216
 30
0.0
  0
VERTEX
  5
1B101
  8
ALPHA
 10
1766.247357
 20
629.19193
 30
0.0
  0
VERTEX
  5
1B102
  8
ALPHA
 10
1765.6857
 20
629.30513
 30
0.0
  0
SEQEND
  5
1B103
  8
ALPHA
  0
LINE
  5
16FAD
  8
ALPHA
 10
1755.0357
 20
627.91513
 30
0.0
 11
1759.0357
 21
627.91513
 31
0.0
  0
LINE
  5
16FAE
  8
ALPHA
 10
1755.0357
 20
627.80013
 30
0.0
 11
1759.0357
 21
627.80013
 31
0.0
  0
LINE
  5
16FAF
  8
ALPHA
 10
1760.6357
 20
627.30513
 30
0.0
 11
1763.6357
 21
627.30513
 31
0.0
  0
LINE
  5
16FB0
  8
ALPHA
 10
1749.5857
 20
621.80513
 30
0.0
 11
1749.5857
 21
621.909945
 31
0.0
  0
POLYLINE
  5
16FB1
  8
ALPHA
 66
     1
 10
0.0
 20
0.0
 30
0.0
  0
VERTEX
  5
1B104
  8
ALPHA
 10
1749.5857
 20
621.909945
 30
0.0
  0
VERTEX
  5
1B105
  8
ALPHA
 10
1748.983759
 20
621.788656
 30
0.0
  0
VERTEX
  5
1B106
  8
ALPHA
 10
1748.478515
 20
621.446631
 30
0.0
  0
VERTEX
  5
1B107
  8
ALPHA
 10
1748.14639
 20
620.942967
 30
0.0
  0
VERTEX
  5
1B108
  8
ALPHA
 10
1748.03098
 20
620.35513
 30
0.0
  0
VERTEX
  5
1B109
  8
ALPHA
 10
1748.14639
 20
619.767292
 30
0.0
  0
VERTEX
  5
1B10A
  8
ALPHA
 10
1748.478515
 20
619.263629
 30
0.0
  0
VERTEX
  5
1B10B
  8
ALPHA
 10
1748.983759
 20
618.921604
 30
0.0
  0
VERTEX
  5
1B10C
  8
ALPHA
 10
1749.5857
 20
618.800314
 30
0.0
  0
SEQEND
  5
1B10D
  8
ALPHA
  0
LINE
  5
16FBC
  8
ALPHA
 10
1749.5857
 20
611.342247
 30
0.0
 11
1749.5857
 21
611.40513
 31
0.0
  0
LINE
  5
16FBD
  8
ALPHA
 10
1749.5857
 20
614.368013
 30
0.0
 11
1749.5857
 21
614.30513
 31
0.0
  0
LINE
  5
16FBE
  8
ALPHA
 10
1749.5857
 20
618.90513
 30
0.0
 11
1749.5857
 21
618.800314
 31
0.0
  0
POLYLINE
  5
16FBF
  8
ALPHA
 66
     1
 10
0.0
 20
0.0
 30
0.0
  0
VERTEX
  5
1B10E
  8
ALPHA
 10
1749.5857
 20
621.80513
 30
0.0
  0
VERTEX
  5
1B10F
  8
ALPHA
 10
1749.024043
 20
621.69193
 30
0.0
  0
VERTEX
  5
1B110
  8
ALPHA
 10
1748.552245
 20
621.372216
 30
0.0
  0
VERTEX
  5
1B111
  8
ALPHA
 10
1748.243216
 20
620.903062
 30
0.0
  0
VERTEX
  5
1B112
  8
ALPHA
 10
1748.1357
 20
620.35513
 30
0.0
  0
VERTEX
  5
1B113
  8
ALPHA
 10
1748.243216
 20
619.807198
 30
0.0
  0
VERTEX
  5
1B114
  8
ALPHA
 10
1748.552245
 20
619.338043
 30
0.0
  0
VERTEX
  5
1B115
  8
ALPHA
 10
1749.024043
 20
619.018329
 30
0.0
  0
VERTEX
  5
1B116
  8
ALPHA
 10
1749.5857
 20
618.90513
 30
0.0
  0
SEQEND
  5
1B117
  8
ALPHA
  0
POLYLINE
  5
16FCA
  8
ALPHA
 66
     1
 10
0.0
 20
0.0
 30
0.0
  0
VERTEX
  5
1B118
  8
ALPHA
 10
1749.5857
 20
614.368013
 30
0.0
  0
VERTEX
  5
1B119
  8
ALPHA
 10
1748.999864
 20
614.249955
 30
0.0
  0
VERTEX
  5
1B11A
  8
ALPHA
 10
1748.508003
 20
613.916852
 30
0.0
  0
VERTEX
  5
1B11B
  8
ALPHA
 10
1748.185127
 20
613.427003
 30
0.0
  0
VERTEX
  5
1B11C
  8
ALPHA
 10
1748.072874
 20
612.85513
 30
0.0
  0
VERTEX
  5
1B11D
  8
ALPHA
 10
1748.185127
 20
612.283256
 30
0.0
  0
VERTEX
  5
1B11E
  8
ALPHA
 10
1748.508003
 20
611.793407
 30
0.0
  0
VERTEX
  5
1B11F
  8
ALPHA
 10
1748.999864
 20
611.460304
 30
0.0
  0
VERTEX
  5
1B120
  8
ALPHA
 10
1749.5857
 20
611.342247
 30
0.0
  0
SEQEND
  5
1B121
  8
ALPHA
  0
POLYLINE
  5
16FD5
  8
ALPHA
 66
     1
 10
0.0
 20
0.0
 30
0.0
  0
VERTEX
  5
1B122
  8
ALPHA
 10
1749.5857
 20
614.30513
 30
0.0
  0
VERTEX
  5
1B123
  8
ALPHA
 10
1749.024034
 20
614.191927
 30
0.0
  0
VERTEX
  5
1B124
  8
ALPHA
 10
1748.552232
 20
613.872203
 30
0.0
  0
VERTEX
  5
1B125
  8
ALPHA
 10
1748.243216
 20
613.40306
 30
0.0
  0
VERTEX
  5
1B126
  8
ALPHA
 10
1748.1357
 20
612.85513
 30
0.0
  0
VERTEX
  5
1B127
  8
ALPHA
 10
1748.243216
 20
612.3072
 30
0.0
  0
VERTEX
  5
1B128
  8
ALPHA
 10
1748.552232
 20
611.838057
 30
0.0
  0
VERTEX
  5
1B129
  8
ALPHA
 10
1749.024034
 20
611.518333
 30
0.0
  0
VERTEX
  5
1B12A
  8
ALPHA
 10
1749.5857
 20
611.40513
 30
0.0
  0
SEQEND
  5
1B12B
  8
ALPHA
  0
LINE
  5
16FE0
  8
ALPHA
 10
1749.5857
 20
629.30513
 30
0.0
 11
1749.5857
 21
629.409945
 31
0.0
  0
LINE
  5
16FE1
  8
ALPHA
 10
1749.5857
 20
626.40513
 30
0.0
 11
1749.5857
 21
626.300314
 31
0.0
  0
POLYLINE
  5
16FE2
  8
ALPHA
 66
     1
 10
0.0
 20
0.0
 30
0.0
  0
VERTEX
  5
1B12C
  8
ALPHA
 10
1749.5857
 20
629.409945
 30
0.0
  0
VERTEX
  5
1B12D
  8
ALPHA
 10
1748.983759
 20
629.288656
 30
0.0
  0
VERTEX
  5
1B12E
  8
ALPHA
 10
1748.478515
 20
628.946631
 30
0.0
  0
VERTEX
  5
1B12F
  8
ALPHA
 10
1748.14639
 20
628.442967
 30
0.0
  0
VERTEX
  5
1B130
  8
ALPHA
 10
1748.03098
 20
627.85513
 30
0.0
  0
VERTEX
  5
1B131
  8
ALPHA
 10
1748.14639
 20
627.267292
 30
0.0
  0
VERTEX
  5
1B132
  8
ALPHA
 10
1748.478515
 20
626.763629
 30
0.0
  0
VERTEX
  5
1B133
  8
ALPHA
 10
1748.983759
 20
626.421604
 30
0.0
  0
VERTEX
  5
1B134
  8
ALPHA
 10
1749.5857
 20
626.300314
 30
0.0
  0
SEQEND
  5
1B135
  8
ALPHA
  0
POLYLINE
  5
16FED
  8
ALPHA
 66
     1
 10
0.0
 20
0.0
 30
0.0
  0
VERTEX
  5
1B136
  8
ALPHA
 10
1749.5857
 20
629.30513
 30
0.0
  0
VERTEX
  5
1B137
  8
ALPHA
 10
1749.024043
 20
629.19193
 30
0.0
  0
VERTEX
  5
1B138
  8
ALPHA
 10
1748.552245
 20
628.872216
 30
0.0
  0
VERTEX
  5
1B139
  8
ALPHA
 10
1748.243216
 20
628.403062
 30
0.0
  0
VERTEX
  5
1B13A
  8
ALPHA
 10
1748.1357
 20
627.85513
 30
0.0
  0
VERTEX
  5
1B13B
  8
ALPHA
 10
1748.243216
 20
627.307198
 30
0.0
  0
VERTEX
  5
1B13C
  8
ALPHA
 10
1748.552245
 20
626.838043
 30
0.0
  0
VERTEX
  5
1B13D
  8
ALPHA
 10
1749.024043
 20
626.518329
 30
0.0
  0
VERTEX
  5
1B13E
  8
ALPHA
 10
1749.5857
 20
626.40513
 30
0.0
  0
SEQEND
  5
1B13F
  8
ALPHA
  0
LINE
  5
16FF8
  8
ALPHA
 10
1751.5357
 20
678.90513
 30
0.0
 11
1751.5357
 21
681.60513
 31
0.0
  0
LINE
  5
16FF9
  8
ALPHA
 10
1756.6557
 20
681.80513
 30
0.0
 11
1756.6557
 21
678.90513
 31
0.0
  0
LINE
  5
16FFA
  8
ALPHA
 10
1759.0357
 20
681.80513
 30
0.0
 11
1759.0357
 21
678.90513
 31
0.0
  0
LINE
  5
16FFB
  8
ALPHA
 10
1760.6357
 20
678.90513
 30
0.0
 11
1760.6357
 21
681.80513
 31
0.0
  0
POLYLINE
  5
16FFC
  8
ALPHA
 66
     1
 10
0.0
 20
0.0
 30
0.0
  0
VERTEX
  5
1B140
  8
ALPHA
 10
1749.5857
 20
681.909945
 30
0.0
  0
VERTEX
  5
1B141
  8
ALPHA
 10
1748.983759
 20
681.788656
 30
0.0
  0
VERTEX
  5
1B142
  8
ALPHA
 10
1748.478515
 20
681.446631
 30
0.0
  0
VERTEX
  5
1B143
  8
ALPHA
 10
1748.14639
 20
680.942967
 30
0.0
  0
VERTEX
  5
1B144
  8
ALPHA
 10
1748.03098
 20
680.35513
 30
0.0
  0
VERTEX
  5
1B145
  8
ALPHA
 10
1748.14639
 20
679.767292
 30
0.0
  0
VERTEX
  5
1B146
  8
ALPHA
 10
1748.478515
 20
679.263629
 30
0.0
  0
VERTEX
  5
1B147
  8
ALPHA
 10
1748.983759
 20
678.921604
 30
0.0
  0
VERTEX
  5
1B148
  8
ALPHA
 10
1749.5857
 20
678.800314
 30
0.0
  0
SEQEND
  5
1B149
  8
ALPHA
  0
POLYLINE
  5
17007
  8
ALPHA
 66
     1
 10
0.0
 20
0.0
 30
0.0
  0
VERTEX
  5
1B14A
  8
ALPHA
 10
1749.5857
 20
681.80513
 30
0.0
  0
VERTEX
  5
1B14B
  8
ALPHA
 10
1749.024043
 20
681.69193
 30
0.0
  0
VERTEX
  5
1B14C
  8
ALPHA
 10
1748.552245
 20
681.372216
 30
0.0
  0
VERTEX
  5
1B14D
  8
ALPHA
 10
1748.243216
 20
680.903062
 30
0.0
  0
VERTEX
  5
1B14E
  8
ALPHA
 10
1748.1357
 20
680.35513
 30
0.0
  0
VERTEX
  5
1B14F
  8
ALPHA
 10
1748.243216
 20
679.807198
 30
0.0
  0
VERTEX
  5
1B150
  8
ALPHA
 10
1748.552245
 20
679.338043
 30
0.0
  0
VERTEX
  5
1B151
  8
ALPHA
 10
1749.024043
 20
679.018329
 30
0.0
  0
VERTEX
  5
1B152
  8
ALPHA
 10
1749.5857
 20
678.90513
 30
0.0
  0
SEQEND
  5
1B153
  8
ALPHA
  0
POLYLINE
  5
17012
  8
ALPHA
 66
     1
 10
0.0
 20
0.0
 30
0.0
  0
VERTEX
  5
1B154
  8
ALPHA
 10
1765.6857
 20
678.800314
 30
0.0
  0
VERTEX
  5
1B155
  8
ALPHA
 10
1766.2877
 20
678.921548
 30
0.0
  0
VERTEX
  5
1B156
  8
ALPHA
 10
1766.793008
 20
679.263559
 30
0.0
  0
VERTEX
  5
1B157
  8
ALPHA
 10
1767.125183
 20
679.767248
 30
0.0
  0
VERTEX
  5
1B158
  8
ALPHA
 10
1767.240611
 20
680.35513
 30
0.0
  0
VERTEX
  5
1B159
  8
ALPHA
 10
1767.125183
 20
680.943012
 30
0.0
  0
VERTEX
  5
1B15A
  8
ALPHA
 10
1766.793008
 20
681.446701
 30
0.0
  0
VERTEX
  5
1B15B
  8
ALPHA
 10
1766.2877
 20
681.788712
 30
0.0
  0
VERTEX
  5
1B15C
  8
ALPHA
 10
1765.6857
 20
681.909945
 30
0.0
  0
SEQEND
  5
1B15D
  8
ALPHA
  0
POLYLINE
  5
1701D
  8
ALPHA
 66
     1
 10
0.0
 20
0.0
 30
0.0
  0
VERTEX
  5
1B15E
  8
ALPHA
 10
1765.6857
 20
678.90513
 30
0.0
  0
VERTEX
  5
1B15F
  8
ALPHA
 10
1766.247357
 20
679.018329
 30
0.0
  0
VERTEX
  5
1B160
  8
ALPHA
 10
1766.719155
 20
679.338043
 30
0.0
  0
VERTEX
  5
1B161
  8
ALPHA
 10
1767.028183
 20
679.807198
 30
0.0
  0
VERTEX
  5
1B162
  8
ALPHA
 10
1767.1357
 20
680.35513
 30
0.0
  0
VERTEX
  5
1B163
  8
ALPHA
 10
1767.028183
 20
680.903062
 30
0.0
  0
VERTEX
  5
1B164
  8
ALPHA
 10
1766.719155
 20
681.372216
 30
0.0
  0
VERTEX
  5
1B165
  8
ALPHA
 10
1766.247357
 20
681.69193
 30
0.0
  0
VERTEX
  5
1B166
  8
ALPHA
 10
1765.6857
 20
681.80513
 30
0.0
  0
SEQEND
  5
1B167
  8
ALPHA
  0
LINE
  5
17028
  8
ALPHA
 10
1748.2544
 20
680.92004
 30
0.0
 11
1751.5357
 21
679.725744
 31
0.0
  0
LINE
  5
17029
  8
ALPHA
 10
1749.3357
 20
659.254743
 30
0.0
 11
1749.3357
 21
656.455516
 31
0.0
  0
LINE
  5
1702A
  8
ALPHA
 10
1756.5357
 20
657.02513
 30
0.0
 11
1756.5357
 21
656.40513
 31
0.0
  0
LINE
  5
1702B
  8
ALPHA
 10
1757.2857
 20
659.30513
 30
0.0
 11
1757.2857
 21
656.55513
 31
0.0
  0
LINE
  5
1702C
  8
ALPHA
 10
1759.0357
 20
659.30513
 30
0.0
 11
1759.0357
 21
656.40513
 31
0.0
  0
LINE
  5
1702D
  8
ALPHA
 10
1760.6357
 20
656.40513
 30
0.0
 11
1760.6357
 21
659.30513
 31
0.0
  0
POLYLINE
  5
1702E
  8
ALPHA
 66
     1
 10
0.0
 20
0.0
 30
0.0
  0
VERTEX
  5
1B168
  8
ALPHA
 10
1765.6857
 20
656.300314
 30
0.0
  0
VERTEX
  5
1B169
  8
ALPHA
 10
1766.2877
 20
656.421548
 30
0.0
  0
VERTEX
  5
1B16A
  8
ALPHA
 10
1766.793008
 20
656.763559
 30
0.0
  0
VERTEX
  5
1B16B
  8
ALPHA
 10
1767.125183
 20
657.267248
 30
0.0
  0
VERTEX
  5
1B16C
  8
ALPHA
 10
1767.240611
 20
657.85513
 30
0.0
  0
VERTEX
  5
1B16D
  8
ALPHA
 10
1767.125183
 20
658.443012
 30
0.0
  0
VERTEX
  5
1B16E
  8
ALPHA
 10
1766.793008
 20
658.946701
 30
0.0
  0
VERTEX
  5
1B16F
  8
ALPHA
 10
1766.2877
 20
659.288712
 30
0.0
  0
VERTEX
  5
1B170
  8
ALPHA
 10
1765.6857
 20
659.409945
 30
0.0
  0
SEQEND
  5
1B171
  8
ALPHA
  0
POLYLINE
  5
17039
  8
ALPHA
 66
     1
 10
0.0
 20
0.0
 30
0.0
  0
VERTEX
  5
1B172
  8
ALPHA
 10
1749.5857
 20
659.409945
 30
0.0
  0
VERTEX
  5
1B173
  8
ALPHA
 10
1748.983759
 20
659.288656
 30
0.0
  0
VERTEX
  5
1B174
  8
ALPHA
 10
1748.478515
 20
658.946631
 30
0.0
  0
VERTEX
  5
1B175
  8
ALPHA
 10
1748.14639
 20
658.442967
 30
0.0
  0
VERTEX
  5
1B176
  8
ALPHA
 10
1748.03098
 20
657.85513
 30
0.0
  0
VERTEX
  5
1B177
  8
ALPHA
 10
1748.14639
 20
657.267292
 30
0.0
  0
VERTEX
  5
1B178
  8
ALPHA
 10
1748.478515
 20
656.763629
 30
0.0
  0
VERTEX
  5
1B179
  8
ALPHA
 10
1748.983759
 20
656.421604
 30
0.0
  0
VERTEX
  5
1B17A
  8
ALPHA
 10
1749.5857
 20
656.300314
 30
0.0
  0
SEQEND
  5
1B17B
  8
ALPHA
  0
POLYLINE
  5
17044
  8
ALPHA
 66
     1
 10
0.0
 20
0.0
 30
0.0
  0
VERTEX
  5
1B17C
  8
ALPHA
 10
1749.5857
 20
659.30513
 30
0.0
  0
VERTEX
  5
1B17D
  8
ALPHA
 10
1749.024043
 20
659.19193
 30
0.0
  0
VERTEX
  5
1B17E
  8
ALPHA
 10
1748.552245
 20
658.872216
 30
0.0
  0
VERTEX
  5
1B17F
  8
ALPHA
 10
1748.243216
 20
658.403062
 30
0.0
  0
VERTEX
  5
1B180
  8
ALPHA
 10
1748.1357
 20
657.85513
 30
0.0
  0
VERTEX
  5
1B181
  8
ALPHA
 10
1748.243216
 20
657.307198
 30
0.0
  0
VERTEX
  5
1B182
  8
ALPHA
 10
1748.552245
 20
656.838043
 30
0.0
  0
VERTEX
  5
1B183
  8
ALPHA
 10
1749.024043
 20
656.518329
 30
0.0
  0
VERTEX
  5
1B184
  8
ALPHA
 10
1749.5857
 20
656.40513
 30
0.0
  0
SEQEND
  5
1B185
  8
ALPHA
  0
POLYLINE
  5
1704F
  8
ALPHA
 66
     1
 10
0.0
 20
0.0
 30
0.0
  0
VERTEX
  5
1B186
  8
ALPHA
 10
1765.6857
 20
656.40513
 30
0.0
  0
VERTEX
  5
1B187
  8
ALPHA
 10
1766.247357
 20
656.518329
 30
0.0
  0
VERTEX
  5
1B188
  8
ALPHA
 10
1766.719155
 20
656.838043
 30
0.0
  0
VERTEX
  5
1B189
  8
ALPHA
 10
1767.028183
 20
657.307198
 30
0.0
  0
VERTEX
  5
1B18A
  8
ALPHA
 10
1767.1357
 20
657.85513
 30
0.0
  0
VERTEX
  5
1B18B
  8
ALPHA
 10
1767.028183
 20
658.403062
 30
0.0
  0
VERTEX
  5
1B18C
  8
ALPHA
 10
1766.719155
 20
658.872216
 30
0.0
  0
VERTEX
  5
1B18D
  8
ALPHA
 10
1766.247357
 20
659.19193
 30
0.0
  0
VERTEX
  5
1B18E
  8
ALPHA
 10
1765.6857
 20
659.30513
 30
0.0
  0
SEQEND
  5
1B18F
  8
ALPHA
  0
LINE
  5
1705A
  8
ALPHA
 10
1749.5857
 20
656.40513
 30
0.0
 11
1765.6857
 21
656.40513
 31
0.0
  0
LINE
  5
1705B
  8
ALPHA
 10
1749.5857
 20
656.300314
 30
0.0
 11
1765.6857
 21
656.300314
 31
0.0
  0
LINE
  5
1705C
  8
ALPHA
 10
1765.6857
 20
651.909945
 30
0.0
 11
1749.5857
 21
651.909945
 31
0.0
  0
LINE
  5
1705D
  8
ALPHA
 10
1765.6857
 20
651.80513
 30
0.0
 11
1749.5857
 21
651.80513
 31
0.0
  0
LINE
  5
1705E
  8
ALPHA
 10
1749.5857
 20
648.90513
 30
0.0
 11
1765.6857
 21
648.90513
 31
0.0
  0
LINE
  5
1705F
  8
ALPHA
 10
1749.5857
 20
648.800314
 30
0.0
 11
1765.6857
 21
648.800314
 31
0.0
  0
LINE
  5
17060
  8
ALPHA
 10
1765.6857
 20
644.409945
 30
0.0
 11
1749.5857
 21
644.409945
 31
0.0
  0
LINE
  5
17061
  8
ALPHA
 10
1765.6857
 20
644.30513
 30
0.0
 11
1749.5857
 21
644.30513
 31
0.0
  0
LINE
  5
17062
  8
ALPHA
 10
1750.5357
 20
644.11973
 30
0.0
 11
1755.0357
 21
644.11973
 31
0.0
  0
LINE
  5
17063
  8
ALPHA
 10
1750.5357
 20
643.10943
 30
0.0
 11
1755.0357
 21
643.10943
 31
0.0
  0
LINE
  5
17064
  8
ALPHA
 10
1750.5357
 20
641.95663
 30
0.0
 11
1755.0357
 21
641.95663
 31
0.0
  0
LINE
  5
17065
  8
ALPHA
 10
1749.5857
 20
641.40513
 30
0.0
 11
1765.6857
 21
641.40513
 31
0.0
  0
LINE
  5
17066
  8
ALPHA
 10
1749.5857
 20
641.300314
 30
0.0
 11
1765.6857
 21
641.300314
 31
0.0
  0
LINE
  5
17067
  8
ALPHA
 10
1765.6857
 20
636.909945
 30
0.0
 11
1749.5857
 21
636.909945
 31
0.0
  0
LINE
  5
17068
  8
ALPHA
 10
1765.6857
 20
636.80513
 30
0.0
 11
1749.5857
 21
636.80513
 31
0.0
  0
LINE
  5
17069
  8
ALPHA
 10
1750.5357
 20
635.70083
 30
0.0
 11
1755.0357
 21
635.70083
 31
0.0
  0
LINE
  5
1706A
  8
ALPHA
 10
1750.5357
 20
634.69053
 30
0.0
 11
1755.0357
 21
634.69053
 31
0.0
  0
LINE
  5
1706B
  8
ALPHA
 10
1749.5857
 20
633.90513
 30
0.0
 11
1765.6857
 21
633.90513
 31
0.0
  0
LINE
  5
1706C
  8
ALPHA
 10
1749.5857
 20
633.800314
 30
0.0
 11
1765.6857
 21
633.800314
 31
0.0
  0
LINE
  5
1706D
  8
ALPHA
 10
1755.0357
 20
636.80513
 30
0.0
 11
1755.0357
 21
633.90513
 31
0.0
  0
LINE
  5
1706E
  8
ALPHA
 10
1755.0357
 20
644.30513
 30
0.0
 11
1755.0357
 21
641.40513
 31
0.0
  0
LINE
  5
1706F
  8
ALPHA
 10
1759.0357
 20
636.80513
 30
0.0
 11
1759.0357
 21
633.90513
 31
0.0
  0
LINE
  5
17070
  8
ALPHA
 10
1759.0357
 20
644.30513
 30
0.0
 11
1759.0357
 21
641.40513
 31
0.0
  0
LINE
  5
17071
  8
ALPHA
 10
1760.6357
 20
641.40513
 30
0.0
 11
1760.6357
 21
644.30513
 31
0.0
  0
LINE
  5
17072
  8
ALPHA
 10
1760.6357
 20
633.90513
 30
0.0
 11
1760.6357
 21
636.80513
 31
0.0
  0
POLYLINE
  5
17073
  8
ALPHA
 66
     1
 10
0.0
 20
0.0
 30
0.0
  0
VERTEX
  5
1B190
  8
ALPHA
 10
1762.9357
 20
636.471382
 30
0.0
  0
VERTEX
  5
1B191
  8
ALPHA
 10
1762.916492
 20
636.298817
 30
0.0
  0
VERTEX
  5
1B192
  8
ALPHA
 10
1762.860043
 20
636.135901
 30
0.0
  0
VERTEX
  5
1B193
  8
ALPHA
 10
1762.770365
 20
635.991777
 30
0.0
  0
VERTEX
  5
1B194
  8
ALPHA
 10
1762.650707
 20
635.871044
 30
0.0
  0
VERTEX
  5
1B195
  8
ALPHA
 10
1762.509437
 20
635.781539
 30
0.0
  0
VERTEX
  5
1B196
  8
ALPHA
 10
1762.351098
 20
635.725686
 30
0.0
  0
VERTEX
  5
1B197
  8
ALPHA
 10
1762.1857
 20
635.706942
 30
0.0
  0
SEQEND
  5
1B198
  8
ALPHA
  0
LINE
  5
1707D
  8
ALPHA
 10
1761.7857
 20
635.706942
 30
0.0
 11
1761.7857
 21
635.65513
 31
0.0
  0
LINE
  5
1707E
  8
ALPHA
 10
1761.7857
 20
642.65513
 30
0.0
 11
1761.7857
 21
642.603318
 31
0.0
  0
LINE
  5
1707F
  8
ALPHA
 10
1762.1857
 20
636.80513
 30
0.0
 11
1762.1857
 21
635.706942
 31
0.0
  0
LINE
  5
17080
  8
ALPHA
 10
1762.1857
 20
642.603318
 30
0.0
 11
1762.1857
 21
641.40513
 31
0.0
  0
LINE
  5
17081
  8
ALPHA
 10
1762.9357
 20
636.80513
 30
0.0
 11
1762.9357
 21
636.471382
 31
0.0
  0
LINE
  5
17082
  8
ALPHA
 10
1762.9357
 20
641.838877
 30
0.0
 11
1762.9357
 21
641.40513
 31
0.0
  0
LINE
  5
17083
  8
ALPHA
 10
1765.6857
 20
644.30513
 30
0.0
 11
1765.6857
 21
644.409945
 31
0.0
  0
LINE
  5
17084
  8
ALPHA
 10
1765.6857
 20
636.80513
 30
0.0
 11
1765.6857
 21
636.909945
 31
0.0
  0
LINE
  5
17085
  8
ALPHA
 10
1765.6857
 20
633.90513
 30
0.0
 11
1765.6857
 21
633.800314
 31
0.0
  0
LINE
  5
17086
  8
ALPHA
 10
1765.6857
 20
641.40513
 30
0.0
 11
1765.6857
 21
641.300314
 31
0.0
  0
POLYLINE
  5
17087
  8
ALPHA
 66
     1
 10
0.0
 20
0.0
 30
0.0
  0
VERTEX
  5
1B199
  8
ALPHA
 10
1765.6857
 20
641.300314
 30
0.0
  0
VERTEX
  5
1B19A
  8
ALPHA
 10
1766.2877
 20
641.421548
 30
0.0
  0
VERTEX
  5
1B19B
  8
ALPHA
 10
1766.793008
 20
641.763559
 30
0.0
  0
VERTEX
  5
1B19C
  8
ALPHA
 10
1767.125183
 20
642.267248
 30
0.0
  0
VERTEX
  5
1B19D
  8
ALPHA
 10
1767.240611
 20
642.85513
 30
0.0
  0
VERTEX
  5
1B19E
  8
ALPHA
 10
1767.125183
 20
643.443012
 30
0.0
  0
VERTEX
  5
1B19F
  8
ALPHA
 10
1766.793008
 20
643.946701
 30
0.0
  0
VERTEX
  5
1B1A0
  8
ALPHA
 10
1766.2877
 20
644.288712
 30
0.0
  0
VERTEX
  5
1B1A1
  8
ALPHA
 10
1765.6857
 20
644.409945
 30
0.0
  0
SEQEND
  5
1B1A2
  8
ALPHA
  0
POLYLINE
  5
17092
  8
ALPHA
 66
     1
 10
0.0
 20
0.0
 30
0.0
  0
VERTEX
  5
1B1A3
  8
ALPHA
 10
1765.6857
 20
641.40513
 30
0.0
  0
VERTEX
  5
1B1A4
  8
ALPHA
 10
1766.247357
 20
641.518329
 30
0.0
  0
VERTEX
  5
1B1A5
  8
ALPHA
 10
1766.719155
 20
641.838043
 30
0.0
  0
VERTEX
  5
1B1A6
  8
ALPHA
 10
1767.028183
 20
642.307198
 30
0.0
  0
VERTEX
  5
1B1A7
  8
ALPHA
 10
1767.1357
 20
642.85513
 30
0.0
  0
VERTEX
  5
1B1A8
  8
ALPHA
 10
1767.028183
 20
643.403062
 30
0.0
  0
VERTEX
  5
1B1A9
  8
ALPHA
 10
1766.719155
 20
643.872216
 30
0.0
  0
VERTEX
  5
1B1AA
  8
ALPHA
 10
1766.247357
 20
644.19193
 30
0.0
  0
VERTEX
  5
1B1AB
  8
ALPHA
 10
1765.6857
 20
644.30513
 30
0.0
  0
SEQEND
  5
1B1AC
  8
ALPHA
  0
POLYLINE
  5
1709D
  8
ALPHA
 66
     1
 10
0.0
 20
0.0
 30
0.0
  0
VERTEX
  5
1B1AD
  8
ALPHA
 10
1765.6857
 20
633.800314
 30
0.0
  0
VERTEX
  5
1B1AE
  8
ALPHA
 10
1766.2877
 20
633.921548
 30
0.0
  0
VERTEX
  5
1B1AF
  8
ALPHA
 10
1766.793008
 20
634.263559
 30
0.0
  0
VERTEX
  5
1B1B0
  8
ALPHA
 10
1767.125183
 20
634.767248
 30
0.0
  0
VERTEX
  5
1B1B1
  8
ALPHA
 10
1767.240611
 20
635.35513
 30
0.0
  0
VERTEX
  5
1B1B2
  8
ALPHA
 10
1767.125183
 20
635.943012
 30
0.0
  0
VERTEX
  5
1B1B3
  8
ALPHA
 10
1766.793008
 20
636.446701
 30
0.0
  0
VERTEX
  5
1B1B4
  8
ALPHA
 10
1766.2877
 20
636.788712
 30
0.0
  0
VERTEX
  5
1B1B5
  8
ALPHA
 10
1765.6857
 20
636.909945
 30
0.0
  0
SEQEND
  5
1B1B6
  8
ALPHA
  0
POLYLINE
  5
170A8
  8
ALPHA
 66
     1
 10
0.0
 20
0.0
 30
0.0
  0
VERTEX
  5
1B1B7
  8
ALPHA
 10
1765.6857
 20
633.90513
 30
0.0
  0
VERTEX
  5
1B1B8
  8
ALPHA
 10
1766.247357
 20
634.018329
 30
0.0
  0
VERTEX
  5
1B1B9
  8
ALPHA
 10
1766.719155
 20
634.338043
 30
0.0
  0
VERTEX
  5
1B1BA
  8
ALPHA
 10
1767.028183
 20
634.807198
 30
0.0
  0
VERTEX
  5
1B1BB
  8
ALPHA
 10
1767.1357
 20
635.35513
 30
0.0
  0
VERTEX
  5
1B1BC
  8
ALPHA
 10
1767.028183
 20
635.903062
 30
0.0
  0
VERTEX
  5
1B1BD
  8
ALPHA
 10
1766.719155
 20
636.372216
 30
0.0
  0
VERTEX
  5
1B1BE
  8
ALPHA
 10
1766.247357
 20
636.69193
 30
0.0
  0
VERTEX
  5
1B1BF
  8
ALPHA
 10
1765.6857
 20
636.80513
 30
0.0
  0
SEQEND
  5
1B1C0
  8
ALPHA
  0
LINE
  5
170B3
  8
ALPHA
 10
1760.6357
 20
642.65513
 30
0.0
 11
1761.7857
 21
642.65513
 31
0.0
  0
LINE
  5
170B4
  8
ALPHA
 10
1761.7857
 20
642.603318
 30
0.0
 11
1762.1857
 21
642.603318
 31
0.0
  0
POLYLINE
  5
170B5
  8
ALPHA
 66
     1
 10
0.0
 20
0.0
 30
0.0
  0
VERTEX
  5
1B1C1
  8
ALPHA
 10
1762.1857
 20
642.603318
 30
0.0
  0
VERTEX
  5
1B1C2
  8
ALPHA
 10
1762.351098
 20
642.584574
 30
0.0
  0
VERTEX
  5
1B1C3
  8
ALPHA
 10
1762.509437
 20
642.52872
 30
0.0
  0
VERTEX
  5
1B1C4
  8
ALPHA
 10
1762.650707
 20
642.439215
 30
0.0
  0
VERTEX
  5
1B1C5
  8
ALPHA
 10
1762.770365
 20
642.318482
 30
0.0
  0
VERTEX
  5
1B1C6
  8
ALPHA
 10
1762.860043
 20
642.174359
 30
0.0
  0
VERTEX
  5
1B1C7
  8
ALPHA
 10
1762.916492
 20
642.011442
 30
0.0
  0
VERTEX
  5
1B1C8
  8
ALPHA
 10
1762.9357
 20
641.838877
 30
0.0
  0
SEQEND
  5
1B1C9
  8
ALPHA
  0
LINE
  5
170BF
  8
ALPHA
 10
1755.0357
 20
641.88513
 30
0.0
 11
1759.0357
 21
641.88513
 31
0.0
  0
LINE
  5
170C0
  8
ALPHA
 10
1761.7857
 20
635.706942
 30
0.0
 11
1762.1857
 21
635.706942
 31
0.0
  0
LINE
  5
170C1
  8
ALPHA
 10
1760.6357
 20
635.65513
 30
0.0
 11
1761.7857
 21
635.65513
 31
0.0
  0
LINE
  5
170C2
  8
ALPHA
 10
1755.0357
 20
650.18513
 30
0.0
 11
1755.0357
 21
648.90513
 31
0.0
  0
LINE
  5
170C3
  8
ALPHA
 10
1755.0357
 20
651.80513
 30
0.0
 11
1755.0357
 21
651.28263
 31
0.0
  0
LINE
  5
170C4
  8
ALPHA
 10
1757.2857
 20
650.15513
 30
0.0
 11
1757.2857
 21
648.90513
 31
0.0
  0
LINE
  5
170C5
  8
ALPHA
 10
1757.2857
 20
651.28263
 30
0.0
 11
1757.2857
 21
650.18513
 31
0.0
  0
LINE
  5
170C6
  8
ALPHA
 10
1758.0357
 20
650.30513
 30
0.0
 11
1758.0357
 21
650.18513
 31
0.0
  0
LINE
  5
170C7
  8
ALPHA
 10
1758.3357
 20
651.28263
 30
0.0
 11
1758.3357
 21
650.35513
 31
0.0
  0
LINE
  5
170C8
  8
ALPHA
 10
1758.4857
 20
651.80513
 30
0.0
 11
1758.4857
 21
650.74763
 31
0.0
  0
LINE
  5
170C9
  8
ALPHA
 10
1759.0357
 20
651.80513
 30
0.0
 11
1759.0357
 21
648.90513
 31
0.0
  0
LINE
  5
170CA
  8
ALPHA
 10
1760.6357
 20
648.90513
 30
0.0
 11
1760.6357
 21
651.80513
 31
0.0
  0
LINE
  5
170CB
  8
ALPHA
 10
1765.6857
 20
651.80513
 30
0.0
 11
1765.6857
 21
651.909945
 31
0.0
  0
LINE
  5
170CC
  8
ALPHA
 10
1765.6857
 20
648.90513
 30
0.0
 11
1765.6857
 21
648.800314
 31
0.0
  0
LINE
  5
170CD
  8
ALPHA
 10
1765.6857
 20
656.40513
 30
0.0
 11
1765.6857
 21
656.300314
 31
0.0
  0
POLYLINE
  5
170CE
  8
ALPHA
 66
     1
 10
0.0
 20
0.0
 30
0.0
  0
VERTEX
  5
1B1CA
  8
ALPHA
 10
1765.6857
 20
648.800314
 30
0.0
  0
VERTEX
  5
1B1CB
  8
ALPHA
 10
1766.2877
 20
648.921548
 30
0.0
  0
VERTEX
  5
1B1CC
  8
ALPHA
 10
1766.793008
 20
649.263559
 30
0.0
  0
VERTEX
  5
1B1CD
  8
ALPHA
 10
1767.125183
 20
649.767248
 30
0.0
  0
VERTEX
  5
1B1CE
  8
ALPHA
 10
1767.240611
 20
650.35513
 30
0.0
  0
VERTEX
  5
1B1CF
  8
ALPHA
 10
1767.125183
 20
650.943012
 30
0.0
  0
VERTEX
  5
1B1D0
  8
ALPHA
 10
1766.793008
 20
651.446701
 30
0.0
  0
VERTEX
  5
1B1D1
  8
ALPHA
 10
1766.2877
 20
651.788712
 30
0.0
  0
VERTEX
  5
1B1D2
  8
ALPHA
 10
1765.6857
 20
651.909945
 30
0.0
  0
SEQEND
  5
1B1D3
  8
ALPHA
  0
POLYLINE
  5
170D9
  8
ALPHA
 66
     1
 10
0.0
 20
0.0
 30
0.0
  0
VERTEX
  5
1B1D4
  8
ALPHA
 10
1765.6857
 20
648.90513
 30
0.0
  0
VERTEX
  5
1B1D5
  8
ALPHA
 10
1766.247357
 20
649.018329
 30
0.0
  0
VERTEX
  5
1B1D6
  8
ALPHA
 10
1766.719155
 20
649.338043
 30
0.0
  0
VERTEX
  5
1B1D7
  8
ALPHA
 10
1767.028183
 20
649.807198
 30
0.0
  0
VERTEX
  5
1B1D8
  8
ALPHA
 10
1767.1357
 20
650.35513
 30
0.0
  0
VERTEX
  5
1B1D9
  8
ALPHA
 10
1767.028183
 20
650.903062
 30
0.0
  0
VERTEX
  5
1B1DA
  8
ALPHA
 10
1766.719155
 20
651.372216
 30
0.0
  0
VERTEX
  5
1B1DB
  8
ALPHA
 10
1766.247357
 20
651.69193
 30
0.0
  0
VERTEX
  5
1B1DC
  8
ALPHA
 10
1765.6857
 20
651.80513
 30
0.0
  0
SEQEND
  5
1B1DD
  8
ALPHA
  0
LINE
  5
170E4
  8
ALPHA
 10
1757.2857
 20
656.55513
 30
0.0
 11
1759.0357
 21
656.55513
 31
0.0
  0
LINE
  5
170E5
  8
ALPHA
 10
1755.0357
 20
651.28263
 30
0.0
 11
1758.4857
 21
651.28263
 31
0.0
  0
LINE
  5
170E6
  8
ALPHA
 10
1758.3357
 20
651.00513
 30
0.0
 11
1757.2857
 21
651.00513
 31
0.0
  0
LINE
  5
170E7
  8
ALPHA
 10
1759.0357
 20
650.74763
 30
0.0
 11
1758.4857
 21
650.74763
 31
0.0
  0
LINE
  5
170E8
  8
ALPHA
 10
1758.3357
 20
650.35513
 30
0.0
 11
1759.0357
 21
650.35513
 31
0.0
  0
LINE
  5
170E9
  8
ALPHA
 10
1758.0357
 20
650.30513
 30
0.0
 11
1759.0357
 21
650.30513
 31
0.0
  0
LINE
  5
170EA
  8
ALPHA
 10
1755.0357
 20
650.18513
 30
0.0
 11
1759.0357
 21
650.18513
 31
0.0
  0
LINE
  5
170EB
  8
ALPHA
 10
1757.2857
 20
650.15513
 30
0.0
 11
1759.0357
 21
650.15513
 31
0.0
  0
LINE
  5
170EC
  8
ALPHA
 10
1749.5857
 20
644.30513
 30
0.0
 11
1749.5857
 21
644.409945
 31
0.0
  0
LINE
  5
170ED
  8
ALPHA
 10
1749.5857
 20
636.80513
 30
0.0
 11
1749.5857
 21
636.909945
 31
0.0
  0
LINE
  5
170EE
  8
ALPHA
 10
1749.5857
 20
633.90513
 30
0.0
 11
1749.5857
 21
633.800314
 31
0.0
  0
LINE
  5
170EF
  8
ALPHA
 10
1749.5857
 20
641.40513
 30
0.0
 11
1749.5857
 21
641.300314
 31
0.0
  0
LINE
  5
170F0
  8
ALPHA
 10
1750.5357
 20
636.80513
 30
0.0
 11
1750.5357
 21
633.90513
 31
0.0
  0
LINE
  5
170F1
  8
ALPHA
 10
1750.5357
 20
644.30513
 30
0.0
 11
1750.5357
 21
641.40513
 31
0.0
  0
POLYLINE
  5
170F2
  8
ALPHA
 66
     1
 10
0.0
 20
0.0
 30
0.0
  0
VERTEX
  5
1B1DE
  8
ALPHA
 10
1749.5857
 20
644.409945
 30
0.0
  0
VERTEX
  5
1B1DF
  8
ALPHA
 10
1748.983759
 20
644.288656
 30
0.0
  0
VERTEX
  5
1B1E0
  8
ALPHA
 10
1748.478515
 20
643.946631
 30
0.0
  0
VERTEX
  5
1B1E1
  8
ALPHA
 10
1748.14639
 20
643.442967
 30
0.0
  0
VERTEX
  5
1B1E2
  8
ALPHA
 10
1748.03098
 20
642.85513
 30
0.0
  0
VERTEX
  5
1B1E3
  8
ALPHA
 10
1748.14639
 20
642.267292
 30
0.0
  0
VERTEX
  5
1B1E4
  8
ALPHA
 10
1748.478515
 20
641.763629
 30
0.0
  0
VERTEX
  5
1B1E5
  8
ALPHA
 10
1748.983759
 20
641.421604
 30
0.0
  0
VERTEX
  5
1B1E6
  8
ALPHA
 10
1749.5857
 20
641.300314
 30
0.0
  0
SEQEND
  5
1B1E7
  8
ALPHA
  0
POLYLINE
  5
170FD
  8
ALPHA
 66
     1
 10
0.0
 20
0.0
 30
0.0
  0
VERTEX
  5
1B1E8
  8
ALPHA
 10
1749.5857
 20
644.30513
 30
0.0
  0
VERTEX
  5
1B1E9
  8
ALPHA
 10
1749.024043
 20
644.19193
 30
0.0
  0
VERTEX
  5
1B1EA
  8
ALPHA
 10
1748.552245
 20
643.872216
 30
0.0
  0
VERTEX
  5
1B1EB
  8
ALPHA
 10
1748.243216
 20
643.403062
 30
0.0
  0
VERTEX
  5
1B1EC
  8
ALPHA
 10
1748.1357
 20
642.85513
 30
0.0
  0
VERTEX
  5
1B1ED
  8
ALPHA
 10
1748.243216
 20
642.307198
 30
0.0
  0
VERTEX
  5
1B1EE
  8
ALPHA
 10
1748.552245
 20
641.838043
 30
0.0
  0
VERTEX
  5
1B1EF
  8
ALPHA
 10
1749.024043
 20
641.518329
 30
0.0
  0
VERTEX
  5
1B1F0
  8
ALPHA
 10
1749.5857
 20
641.40513
 30
0.0
  0
SEQEND
  5
1B1F1
  8
ALPHA
  0
POLYLINE
  5
17108
  8
ALPHA
 66
     1
 10
0.0
 20
0.0
 30
0.0
  0
VERTEX
  5
1B1F2
  8
ALPHA
 10
1749.5857
 20
636.909945
 30
0.0
  0
VERTEX
  5
1B1F3
  8
ALPHA
 10
1748.983759
 20
636.788656
 30
0.0
  0
VERTEX
  5
1B1F4
  8
ALPHA
 10
1748.478515
 20
636.446631
 30
0.0
  0
VERTEX
  5
1B1F5
  8
ALPHA
 10
1748.14639
 20
635.942967
 30
0.0
  0
VERTEX
  5
1B1F6
  8
ALPHA
 10
1748.03098
 20
635.35513
 30
0.0
  0
VERTEX
  5
1B1F7
  8
ALPHA
 10
1748.14639
 20
634.767292
 30
0.0
  0
VERTEX
  5
1B1F8
  8
ALPHA
 10
1748.478515
 20
634.263629
 30
0.0
  0
VERTEX
  5
1B1F9
  8
ALPHA
 10
1748.983759
 20
633.921604
 30
0.0
  0
VERTEX
  5
1B1FA
  8
ALPHA
 10
1749.5857
 20
633.800314
 30
0.0
  0
SEQEND
  5
1B1FB
  8
ALPHA
  0
POLYLINE
  5
17113
  8
ALPHA
 66
     1
 10
0.0
 20
0.0
 30
0.0
  0
VERTEX
  5
1B1FC
  8
ALPHA
 10
1749.5857
 20
636.80513
 30
0.0
  0
VERTEX
  5
1B1FD
  8
ALPHA
 10
1749.024043
 20
636.69193
 30
0.0
  0
VERTEX
  5
1B1FE
  8
ALPHA
 10
1748.552245
 20
636.372216
 30
0.0
  0
VERTEX
  5
1B1FF
  8
ALPHA
 10
1748.243216
 20
635.903062
 30
0.0
  0
VERTEX
  5
1B200
  8
ALPHA
 10
1748.1357
 20
635.35513
 30
0.0
  0
VERTEX
  5
1B201
  8
ALPHA
 10
1748.243216
 20
634.807198
 30
0.0
  0
VERTEX
  5
1B202
  8
ALPHA
 10
1748.552245
 20
634.338043
 30
0.0
  0
VERTEX
  5
1B203
  8
ALPHA
 10
1749.024043
 20
634.018329
 30
0.0
  0
VERTEX
  5
1B204
  8
ALPHA
 10
1749.5857
 20
633.90513
 30
0.0
  0
SEQEND
  5
1B205
  8
ALPHA
  0
LINE
  5
1711E
  8
ALPHA
 10
1750.387113
 20
635.133255
 30
0.0
 11
1750.5357
 21
635.183123
 31
0.0
  0
LINE
  5
1711F
  8
ALPHA
 10
1748.455385
 20
634.485092
 30
0.0
 11
1750.387113
 21
635.133255
 31
0.0
  0
LINE
  5
17120
  8
ALPHA
 10
1750.5357
 20
642.605237
 30
0.0
 11
1748.178765
 21
642.635659
 31
0.0
  0
LINE
  5
17121
  8
ALPHA
 10
1750.53531
 20
643.078044
 30
0.0
 11
1748.185163
 21
643.107204
 31
0.0
  0
LINE
  5
17122
  8
ALPHA
 10
1749.3357
 20
651.754743
 30
0.0
 11
1749.3357
 21
649.447143
 31
0.0
  0
LINE
  5
17123
  8
ALPHA
 10
1749.5857
 20
651.80513
 30
0.0
 11
1749.5857
 21
651.909945
 31
0.0
  0
LINE
  5
17124
  8
ALPHA
 10
1749.5857
 20
648.90513
 30
0.0
 11
1749.5857
 21
648.800314
 31
0.0
  0
LINE
  5
17125
  8
ALPHA
 10
1749.5857
 20
656.40513
 30
0.0
 11
1749.5857
 21
656.300314
 31
0.0
  0
POLYLINE
  5
17126
  8
ALPHA
 66
     1
 10
0.0
 20
0.0
 30
0.0
  0
VERTEX
  5
1B206
  8
ALPHA
 10
1749.5857
 20
651.909945
 30
0.0
  0
VERTEX
  5
1B207
  8
ALPHA
 10
1748.983759
 20
651.788656
 30
0.0
  0
VERTEX
  5
1B208
  8
ALPHA
 10
1748.478515
 20
651.446631
 30
0.0
  0
VERTEX
  5
1B209
  8
ALPHA
 10
1748.14639
 20
650.942967
 30
0.0
  0
VERTEX
  5
1B20A
  8
ALPHA
 10
1748.03098
 20
650.35513
 30
0.0
  0
VERTEX
  5
1B20B
  8
ALPHA
 10
1748.14639
 20
649.767292
 30
0.0
  0
VERTEX
  5
1B20C
  8
ALPHA
 10
1748.478515
 20
649.263629
 30
0.0
  0
VERTEX
  5
1B20D
  8
ALPHA
 10
1748.983759
 20
648.921604
 30
0.0
  0
VERTEX
  5
1B20E
  8
ALPHA
 10
1749.5857
 20
648.800314
 30
0.0
  0
SEQEND
  5
1B20F
  8
ALPHA
  0
POLYLINE
  5
17131
  8
ALPHA
 66
     1
 10
0.0
 20
0.0
 30
0.0
  0
VERTEX
  5
1B210
  8
ALPHA
 10
1749.5857
 20
651.80513
 30
0.0
  0
VERTEX
  5
1B211
  8
ALPHA
 10
1749.024043
 20
651.69193
 30
0.0
  0
VERTEX
  5
1B212
  8
ALPHA
 10
1748.552245
 20
651.372216
 30
0.0
  0
VERTEX
  5
1B213
  8
ALPHA
 10
1748.243216
 20
650.903062
 30
0.0
  0
VERTEX
  5
1B214
  8
ALPHA
 10
1748.1357
 20
650.35513
 30
0.0
  0
VERTEX
  5
1B215
  8
ALPHA
 10
1748.243216
 20
649.807198
 30
0.0
  0
VERTEX
  5
1B216
  8
ALPHA
 10
1748.552245
 20
649.338043
 30
0.0
  0
VERTEX
  5
1B217
  8
ALPHA
 10
1749.024043
 20
649.018329
 30
0.0
  0
VERTEX
  5
1B218
  8
ALPHA
 10
1749.5857
 20
648.90513
 30
0.0
  0
SEQEND
  5
1B219
  8
ALPHA
  0
LINE
  5
1713C
  8
ALPHA
 10
1737.4357
 20
647.715978
 30
0.0
 11
1739.18991
 21
647.569591
 31
0.0
  0
LINE
  5
1713D
  8
ALPHA
 10
1750.055886
 20
648.90513
 30
0.0
 11
1748.159249
 21
650.235115
 31
0.0
  0
LINE
  5
1713E
  8
ALPHA
 10
1750.109775
 20
648.90513
 30
0.0
 11
1748.151109
 21
650.276603
 31
0.0
  0
LINE
  5
1713F
  8
ALPHA
 10
1749.5857
 20
678.90513
 30
0.0
 11
1765.6857
 21
678.90513
 31
0.0
  0
LINE
  5
17140
  8
ALPHA
 10
1749.5857
 20
678.800314
 30
0.0
 11
1765.6857
 21
678.800314
 31
0.0
  0
LINE
  5
17141
  8
ALPHA
 10
1765.6857
 20
674.409945
 30
0.0
 11
1749.5857
 21
674.409945
 31
0.0
  0
LINE
  5
17142
  8
ALPHA
 10
1765.6857
 20
674.30513
 30
0.0
 11
1749.5857
 21
674.30513
 31
0.0
  0
LINE
  5
17143
  8
ALPHA
 10
1749.5857
 20
671.40513
 30
0.0
 11
1765.6857
 21
671.40513
 31
0.0
  0
LINE
  5
17144
  8
ALPHA
 10
1749.5857
 20
671.300314
 30
0.0
 11
1765.6857
 21
671.300314
 31
0.0
  0
LINE
  5
17145
  8
ALPHA
 10
1765.6857
 20
666.909945
 30
0.0
 11
1749.5857
 21
666.909945
 31
0.0
  0
LINE
  5
17146
  8
ALPHA
 10
1765.6857
 20
666.80513
 30
0.0
 11
1749.5857
 21
666.80513
 31
0.0
  0
LINE
  5
17147
  8
ALPHA
 10
1755.0357
 20
665.04513
 30
0.0
 11
1752.0357
 21
665.04513
 31
0.0
  0
LINE
  5
17148
  8
ALPHA
 10
1749.5857
 20
663.90513
 30
0.0
 11
1765.6857
 21
663.90513
 31
0.0
  0
LINE
  5
17149
  8
ALPHA
 10
1749.5857
 20
663.800314
 30
0.0
 11
1765.6857
 21
663.800314
 31
0.0
  0
LINE
  5
1714A
  8
ALPHA
 10
1765.6857
 20
659.409945
 30
0.0
 11
1749.5857
 21
659.409945
 31
0.0
  0
LINE
  5
1714B
  8
ALPHA
 10
1765.6857
 20
659.30513
 30
0.0
 11
1749.5857
 21
659.30513
 31
0.0
  0
LINE
  5
1714C
  8
ALPHA
 10
1755.0357
 20
659.30513
 30
0.0
 11
1755.0357
 21
657.02513
 31
0.0
  0
LINE
  5
1714D
  8
ALPHA
 10
1755.0357
 20
666.80513
 30
0.0
 11
1755.0357
 21
663.90513
 31
0.0
  0
LINE
  5
1714E
  8
ALPHA
 10
1758.3357
 20
666.80513
 30
0.0
 11
1758.3357
 21
664.20513
 31
0.0
  0
LINE
  5
1714F
  8
ALPHA
 10
1758.4857
 20
665.60513
 30
0.0
 11
1758.4857
 21
664.20513
 31
0.0
  0
LINE
  5
17150
  8
ALPHA
 10
1759.0357
 20
666.80513
 30
0.0
 11
1759.0357
 21
663.90513
 31
0.0
  0
LINE
  5
17151
  8
ALPHA
 10
1760.6357
 20
663.90513
 30
0.0
 11
1760.6357
 21
666.80513
 31
0.0
  0
LINE
  5
17152
  8
ALPHA
 10
1762.9357
 20
666.764992
 30
0.0
 11
1762.9357
 21
665.965267
 31
0.0
  0
LINE
  5
17153
  8
ALPHA
 10
1765.6857
 20
666.80513
 30
0.0
 11
1765.6857
 21
666.909945
 31
0.0
  0
LINE
  5
17154
  8
ALPHA
 10
1765.6857
 20
659.30513
 30
0.0
 11
1765.6857
 21
659.409945
 31
0.0
  0
LINE
  5
17155
  8
ALPHA
 10
1765.6857
 20
663.90513
 30
0.0
 11
1765.6857
 21
663.800314
 31
0.0
  0
POLYLINE
  5
17156
  8
ALPHA
 66
     1
 10
0.0
 20
0.0
 30
0.0
  0
VERTEX
  5
1B21A
  8
ALPHA
 10
1765.6857
 20
663.800314
 30
0.0
  0
VERTEX
  5
1B21B
  8
ALPHA
 10
1766.2877
 20
663.921548
 30
0.0
  0
VERTEX
  5
1B21C
  8
ALPHA
 10
1766.793008
 20
664.263559
 30
0.0
  0
VERTEX
  5
1B21D
  8
ALPHA
 10
1767.125183
 20
664.767248
 30
0.0
  0
VERTEX
  5
1B21E
  8
ALPHA
 10
1767.240611
 20
665.35513
 30
0.0
  0
VERTEX
  5
1B21F
  8
ALPHA
 10
1767.125183
 20
665.943012
 30
0.0
  0
VERTEX
  5
1B220
  8
ALPHA
 10
1766.793008
 20
666.446701
 30
0.0
  0
VERTEX
  5
1B221
  8
ALPHA
 10
1766.2877
 20
666.788712
 30
0.0
  0
VERTEX
  5
1B222
  8
ALPHA
 10
1765.6857
 20
666.909945
 30
0.0
  0
SEQEND
  5
1B223
  8
ALPHA
  0
POLYLINE
  5
17161
  8
ALPHA
 66
     1
 10
0.0
 20
0.0
 30
0.0
  0
VERTEX
  5
1B224
  8
ALPHA
 10
1765.6857
 20
663.90513
 30
0.0
  0
VERTEX
  5
1B225
  8
ALPHA
 10
1766.247357
 20
664.018329
 30
0.0
  0
VERTEX
  5
1B226
  8
ALPHA
 10
1766.719155
 20
664.338043
 30
0.0
  0
VERTEX
  5
1B227
  8
ALPHA
 10
1767.028183
 20
664.807198
 30
0.0
  0
VERTEX
  5
1B228
  8
ALPHA
 10
1767.1357
 20
665.35513
 30
0.0
  0
VERTEX
  5
1B229
  8
ALPHA
 10
1767.028183
 20
665.903062
 30
0.0
  0
VERTEX
  5
1B22A
  8
ALPHA
 10
1766.719155
 20
666.372216
 30
0.0
  0
VERTEX
  5
1B22B
  8
ALPHA
 10
1766.247357
 20
666.69193
 30
0.0
  0
VERTEX
  5
1B22C
  8
ALPHA
 10
1765.6857
 20
666.80513
 30
0.0
  0
SEQEND
  5
1B22D
  8
ALPHA
  0
LINE
  5
1716C
  8
ALPHA
 10
1760.6357
 20
666.76513
 30
0.0
 11
1762.9357
 21
666.76513
 31
0.0
  0
LINE
  5
1716D
  8
ALPHA
 10
1760.6357
 20
665.96513
 30
0.0
 11
1762.9357
 21
665.96513
 31
0.0
  0
LINE
  5
1716E
  8
ALPHA
 10
1758.4857
 20
665.60513
 30
0.0
 11
1759.0357
 21
665.60513
 31
0.0
  0
LINE
  5
1716F
  8
ALPHA
 10
1758.3357
 20
664.20513
 30
0.0
 11
1759.0357
 21
664.20513
 31
0.0
  0
LINE
  5
17170
  8
ALPHA
 10
1755.0357
 20
657.02513
 30
0.0
 11
1757.2857
 21
657.02513
 31
0.0
  0
LINE
  5
17171
  8
ALPHA
 10
1756.6557
 20
674.30513
 30
0.0
 11
1756.6557
 21
673.90513
 31
0.0
  0
LINE
  5
17172
  8
ALPHA
 10
1758.3357
 20
673.45513
 30
0.0
 11
1758.3357
 21
671.40513
 31
0.0
  0
LINE
  5
17173
  8
ALPHA
 10
1758.3357
 20
679.30513
 30
0.0
 11
1758.3357
 21
678.90513
 31
0.0
  0
LINE
  5
17174
  8
ALPHA
 10
1758.4857
 20
673.90513
 30
0.0
 11
1758.4857
 21
673.45513
 31
0.0
  0
LINE
  5
17175
  8
ALPHA
 10
1759.0357
 20
674.30513
 30
0.0
 11
1759.0357
 21
671.40513
 31
0.0
  0
LINE
  5
17176
  8
ALPHA
 10
1760.6357
 20
671.40513
 30
0.0
 11
1760.6357
 21
674.30513
 31
0.0
  0
LINE
  5
17177
  8
ALPHA
 10
1765.6857
 20
674.30513
 30
0.0
 11
1765.6857
 21
674.409945
 31
0.0
  0
LINE
  5
17178
  8
ALPHA
 10
1765.6857
 20
671.40513
 30
0.0
 11
1765.6857
 21
671.300314
 31
0.0
  0
LINE
  5
17179
  8
ALPHA
 10
1765.6857
 20
678.90513
 30
0.0
 11
1765.6857
 21
678.800314
 31
0.0
  0
POLYLINE
  5
1717A
  8
ALPHA
 66
     1
 10
0.0
 20
0.0
 30
0.0
  0
VERTEX
  5
1B22E
  8
ALPHA
 10
1765.6857
 20
671.300314
 30
0.0
  0
VERTEX
  5
1B22F
  8
ALPHA
 10
1766.2877
 20
671.421548
 30
0.0
  0
VERTEX
  5
1B230
  8
ALPHA
 10
1766.793008
 20
671.763559
 30
0.0
  0
VERTEX
  5
1B231
  8
ALPHA
 10
1767.125183
 20
672.267248
 30
0.0
  0
VERTEX
  5
1B232
  8
ALPHA
 10
1767.240611
 20
672.85513
 30
0.0
  0
VERTEX
  5
1B233
  8
ALPHA
 10
1767.125183
 20
673.443012
 30
0.0
  0
VERTEX
  5
1B234
  8
ALPHA
 10
1766.793008
 20
673.946701
 30
0.0
  0
VERTEX
  5
1B235
  8
ALPHA
 10
1766.2877
 20
674.288712
 30
0.0
  0
VERTEX
  5
1B236
  8
ALPHA
 10
1765.6857
 20
674.409945
 30
0.0
  0
SEQEND
  5
1B237
  8
ALPHA
  0
POLYLINE
  5
17185
  8
ALPHA
 66
     1
 10
0.0
 20
0.0
 30
0.0
  0
VERTEX
  5
1B238
  8
ALPHA
 10
1765.6857
 20
671.40513
 30
0.0
  0
VERTEX
  5
1B239
  8
ALPHA
 10
1766.247357
 20
671.518329
 30
0.0
  0
VERTEX
  5
1B23A
  8
ALPHA
 10
1766.719155
 20
671.838043
 30
0.0
  0
VERTEX
  5
1B23B
  8
ALPHA
 10
1767.028183
 20
672.307198
 30
0.0
  0
VERTEX
  5
1B23C
  8
ALPHA
 10
1767.1357
 20
672.85513
 30
0.0
  0
VERTEX
  5
1B23D
  8
ALPHA
 10
1767.028183
 20
673.403062
 30
0.0
  0
VERTEX
  5
1B23E
  8
ALPHA
 10
1766.719155
 20
673.872216
 30
0.0
  0
VERTEX
  5
1B23F
  8
ALPHA
 10
1766.247357
 20
674.19193
 30
0.0
  0
VERTEX
  5
1B240
  8
ALPHA
 10
1765.6857
 20
674.30513
 30
0.0
  0
SEQEND
  5
1B241
  8
ALPHA
  0
LINE
  5
17190
  8
ALPHA
 10
1758.3357
 20
679.30513
 30
0.0
 11
1759.0357
 21
679.30513
 31
0.0
  0
LINE
  5
17191
  8
ALPHA
 10
1756.6557
 20
673.90513
 30
0.0
 11
1759.0357
 21
673.90513
 31
0.0
  0
LINE
  5
17192
  8
ALPHA
 10
1759.0357
 20
673.45513
 30
0.0
 11
1758.3357
 21
673.45513
 31
0.0
  0
LINE
  5
17193
  8
ALPHA
 10
1749.5857
 20
666.80513
 30
0.0
 11
1749.5857
 21
666.909945
 31
0.0
  0
LINE
  5
17194
  8
ALPHA
 10
1749.5857
 20
659.30513
 30
0.0
 11
1749.5857
 21
659.409945
 31
0.0
  0
LINE
  5
17195
  8
ALPHA
 10
1749.5857
 20
663.90513
 30
0.0
 11
1749.5857
 21
663.800314
 31
0.0
  0
LINE
  5
17196
  8
ALPHA
 10
1751.5357
 20
663.90513
 30
0.0
 11
1751.5357
 21
666.80513
 31
0.0
  0
LINE
  5
17197
  8
ALPHA
 10
1752.0357
 20
665.04513
 30
0.0
 11
1752.0357
 21
666.80513
 31
0.0
  0
POLYLINE
  5
17198
  8
ALPHA
 66
     1
 10
0.0
 20
0.0
 30
0.0
  0
VERTEX
  5
1B242
  8
ALPHA
 10
1749.5857
 20
666.909945
 30
0.0
  0
VERTEX
  5
1B243
  8
ALPHA
 10
1748.983759
 20
666.788656
 30
0.0
  0
VERTEX
  5
1B244
  8
ALPHA
 10
1748.478515
 20
666.446631
 30
0.0
  0
VERTEX
  5
1B245
  8
ALPHA
 10
1748.14639
 20
665.942967
 30
0.0
  0
VERTEX
  5
1B246
  8
ALPHA
 10
1748.03098
 20
665.35513
 30
0.0
  0
VERTEX
  5
1B247
  8
ALPHA
 10
1748.14639
 20
664.767292
 30
0.0
  0
VERTEX
  5
1B248
  8
ALPHA
 10
1748.478515
 20
664.263629
 30
0.0
  0
VERTEX
  5
1B249
  8
ALPHA
 10
1748.983759
 20
663.921604
 30
0.0
  0
VERTEX
  5
1B24A
  8
ALPHA
 10
1749.5857
 20
663.800314
 30
0.0
  0
SEQEND
  5
1B24B
  8
ALPHA
  0
POLYLINE
  5
171A3
  8
ALPHA
 66
     1
 10
0.0
 20
0.0
 30
0.0
  0
VERTEX
  5
1B24C
  8
ALPHA
 10
1749.5857
 20
666.80513
 30
0.0
  0
VERTEX
  5
1B24D
  8
ALPHA
 10
1749.024043
 20
666.69193
 30
0.0
  0
VERTEX
  5
1B24E
  8
ALPHA
 10
1748.552245
 20
666.372216
 30
0.0
  0
VERTEX
  5
1B24F
  8
ALPHA
 10
1748.243216
 20
665.903062
 30
0.0
  0
VERTEX
  5
1B250
  8
ALPHA
 10
1748.1357
 20
665.35513
 30
0.0
  0
VERTEX
  5
1B251
  8
ALPHA
 10
1748.243216
 20
664.807198
 30
0.0
  0
VERTEX
  5
1B252
  8
ALPHA
 10
1748.552245
 20
664.338043
 30
0.0
  0
VERTEX
  5
1B253
  8
ALPHA
 10
1749.024043
 20
664.018329
 30
0.0
  0
VERTEX
  5
1B254
  8
ALPHA
 10
1749.5857
 20
663.90513
 30
0.0
  0
SEQEND
  5
1B255
  8
ALPHA
  0
LINE
  5
171AE
  8
ALPHA
 10
1749.5857
 20
674.30513
 30
0.0
 11
1749.5857
 21
674.409945
 31
0.0
  0
LINE
  5
171AF
  8
ALPHA
 10
1749.5857
 20
671.40513
 30
0.0
 11
1749.5857
 21
671.300314
 31
0.0
  0
LINE
  5
171B0
  8
ALPHA
 10
1749.5857
 20
678.90513
 30
0.0
 11
1749.5857
 21
678.800314
 31
0.0
  0
LINE
  5
171B1
  8
ALPHA
 10
1751.5357
 20
671.40513
 30
0.0
 11
1751.5357
 21
674.30513
 31
0.0
  0
LINE
  5
171B2
  8
ALPHA
 10
1752.0357
 20
671.40513
 30
0.0
 11
1752.0357
 21
674.30513
 31
0.0
  0
POLYLINE
  5
171B3
  8
ALPHA
 66
     1
 10
0.0
 20
0.0
 30
0.0
  0
VERTEX
  5
1B256
  8
ALPHA
 10
1749.5857
 20
674.409945
 30
0.0
  0
VERTEX
  5
1B257
  8
ALPHA
 10
1748.983759
 20
674.288656
 30
0.0
  0
VERTEX
  5
1B258
  8
ALPHA
 10
1748.478515
 20
673.946631
 30
0.0
  0
VERTEX
  5
1B259
  8
ALPHA
 10
1748.14639
 20
673.442967
 30
0.0
  0
VERTEX
  5
1B25A
  8
ALPHA
 10
1748.03098
 20
672.85513
 30
0.0
  0
VERTEX
  5
1B25B
  8
ALPHA
 10
1748.14639
 20
672.267292
 30
0.0
  0
VERTEX
  5
1B25C
  8
ALPHA
 10
1748.478515
 20
671.763629
 30
0.0
  0
VERTEX
  5
1B25D
  8
ALPHA
 10
1748.983759
 20
671.421604
 30
0.0
  0
VERTEX
  5
1B25E
  8
ALPHA
 10
1749.5857
 20
671.300314
 30
0.0
  0
SEQEND
  5
1B25F
  8
ALPHA
  0
POLYLINE
  5
171BE
  8
ALPHA
 66
     1
 10
0.0
 20
0.0
 30
0.0
  0
VERTEX
  5
1B260
  8
ALPHA
 10
1749.5857
 20
674.30513
 30
0.0
  0
VERTEX
  5
1B261
  8
ALPHA
 10
1749.024043
 20
674.19193
 30
0.0
  0
VERTEX
  5
1B262
  8
ALPHA
 10
1748.552245
 20
673.872216
 30
0.0
  0
VERTEX
  5
1B263
  8
ALPHA
 10
1748.243216
 20
673.403062
 30
0.0
  0
VERTEX
  5
1B264
  8
ALPHA
 10
1748.1357
 20
672.85513
 30
0.0
  0
VERTEX
  5
1B265
  8
ALPHA
 10
1748.243216
 20
672.307198
 30
0.0
  0
VERTEX
  5
1B266
  8
ALPHA
 10
1748.552245
 20
671.838043
 30
0.0
  0
VERTEX
  5
1B267
  8
ALPHA
 10
1749.024043
 20
671.518329
 30
0.0
  0
VERTEX
  5
1B268
  8
ALPHA
 10
1749.5857
 20
671.40513
 30
0.0
  0
SEQEND
  5
1B269
  8
ALPHA
  0
POLYLINE
  5
171C9
  8
ALPHA
 66
     1
 10
0.0
 20
0.0
 30
0.0
  0
VERTEX
  5
1B26A
  8
ALPHA
 10
1749.5857
 20
704.409945
 30
0.0
  0
VERTEX
  5
1B26B
  8
ALPHA
 10
1748.983759
 20
704.288656
 30
0.0
  0
VERTEX
  5
1B26C
  8
ALPHA
 10
1748.478515
 20
703.946631
 30
0.0
  0
VERTEX
  5
1B26D
  8
ALPHA
 10
1748.14639
 20
703.442967
 30
0.0
  0
VERTEX
  5
1B26E
  8
ALPHA
 10
1748.03098
 20
702.85513
 30
0.0
  0
VERTEX
  5
1B26F
  8
ALPHA
 10
1748.14639
 20
702.267292
 30
0.0
  0
VERTEX
  5
1B270
  8
ALPHA
 10
1748.478515
 20
701.763629
 30
0.0
  0
VERTEX
  5
1B271
  8
ALPHA
 10
1748.983759
 20
701.421604
 30
0.0
  0
VERTEX
  5
1B272
  8
ALPHA
 10
1749.5857
 20
701.300314
 30
0.0
  0
SEQEND
  5
1B273
  8
ALPHA
  0
POLYLINE
  5
171D4
  8
ALPHA
 66
     1
 10
0.0
 20
0.0
 30
0.0
  0
VERTEX
  5
1B274
  8
ALPHA
 10
1749.5857
 20
704.30513
 30
0.0
  0
VERTEX
  5
1B275
  8
ALPHA
 10
1749.024043
 20
704.19193
 30
0.0
  0
VERTEX
  5
1B276
  8
ALPHA
 10
1748.552245
 20
703.872216
 30
0.0
  0
VERTEX
  5
1B277
  8
ALPHA
 10
1748.243216
 20
703.403062
 30
0.0
  0
VERTEX
  5
1B278
  8
ALPHA
 10
1748.1357
 20
702.85513
 30
0.0
  0
VERTEX
  5
1B279
  8
ALPHA
 10
1748.243216
 20
702.307198
 30
0.0
  0
VERTEX
  5
1B27A
  8
ALPHA
 10
1748.552245
 20
701.838043
 30
0.0
  0
VERTEX
  5
1B27B
  8
ALPHA
 10
1749.024043
 20
701.518329
 30
0.0
  0
VERTEX
  5
1B27C
  8
ALPHA
 10
1749.5857
 20
701.40513
 30
0.0
  0
SEQEND
  5
1B27D
  8
ALPHA
  0
POLYLINE
  5
171DF
  8
ALPHA
 66
     1
 10
0.0
 20
0.0
 30
0.0
  0
VERTEX
  5
1B27E
  8
ALPHA
 10
1765.6857
 20
701.300314
 30
0.0
  0
VERTEX
  5
1B27F
  8
ALPHA
 10
1766.2877
 20
701.421548
 30
0.0
  0
VERTEX
  5
1B280
  8
ALPHA
 10
1766.793008
 20
701.763559
 30
0.0
  0
VERTEX
  5
1B281
  8
ALPHA
 10
1767.125183
 20
702.267248
 30
0.0
  0
VERTEX
  5
1B282
  8
ALPHA
 10
1767.240611
 20
702.85513
 30
0.0
  0
VERTEX
  5
1B283
  8
ALPHA
 10
1767.125183
 20
703.443012
 30
0.0
  0
VERTEX
  5
1B284
  8
ALPHA
 10
1766.793008
 20
703.946701
 30
0.0
  0
VERTEX
  5
1B285
  8
ALPHA
 10
1766.2877
 20
704.288712
 30
0.0
  0
VERTEX
  5
1B286
  8
ALPHA
 10
1765.6857
 20
704.409945
 30
0.0
  0
SEQEND
  5
1B287
  8
ALPHA
  0
POLYLINE
  5
171EA
  8
ALPHA
 66
     1
 10
0.0
 20
0.0
 30
0.0
  0
VERTEX
  5
1B288
  8
ALPHA
 10
1765.6857
 20
701.40513
 30
0.0
  0
VERTEX
  5
1B289
  8
ALPHA
 10
1766.247357
 20
701.518329
 30
0.0
  0
VERTEX
  5
1B28A
  8
ALPHA
 10
1766.719155
 20
701.838043
 30
0.0
  0
VERTEX
  5
1B28B
  8
ALPHA
 10
1767.028183
 20
702.307198
 30
0.0
  0
VERTEX
  5
1B28C
  8
ALPHA
 10
1767.1357
 20
702.85513
 30
0.0
  0
VERTEX
  5
1B28D
  8
ALPHA
 10
1767.028183
 20
703.403062
 30
0.0
  0
VERTEX
  5
1B28E
  8
ALPHA
 10
1766.719155
 20
703.872216
 30
0.0
  0
VERTEX
  5
1B28F
  8
ALPHA
 10
1766.247357
 20
704.19193
 30
0.0
  0
VERTEX
  5
1B290
  8
ALPHA
 10
1765.6857
 20
704.30513
 30
0.0
  0
SEQEND
  5
1B291
  8
ALPHA
  0
LINE
  5
171F5
  8
ALPHA
 10
1749.5857
 20
701.40513
 30
0.0
 11
1765.6857
 21
701.40513
 31
0.0
  0
LINE
  5
171F6
  8
ALPHA
 10
1749.5857
 20
701.300314
 30
0.0
 11
1765.6857
 21
701.300314
 31
0.0
  0
LINE
  5
171F7
  8
ALPHA
 10
1765.6857
 20
696.868013
 30
0.0
 11
1749.5857
 21
696.868013
 31
0.0
  0
LINE
  5
171F8
  8
ALPHA
 10
1765.685699
 20
696.80513
 30
0.0
 11
1749.5857
 21
696.80513
 31
0.0
  0
LINE
  5
171F9
  8
ALPHA
 10
1749.5857
 20
693.90513
 30
0.0
 11
1765.6857
 21
693.90513
 31
0.0
  0
LINE
  5
171FA
  8
ALPHA
 10
1749.5857
 20
693.842247
 30
0.0
 11
1765.6857
 21
693.842247
 31
0.0
  0
LINE
  5
171FB
  8
ALPHA
 10
1765.6857
 20
689.409945
 30
0.0
 11
1749.5857
 21
689.409945
 31
0.0
  0
LINE
  5
171FC
  8
ALPHA
 10
1765.6857
 20
689.30513
 30
0.0
 11
1749.5857
 21
689.30513
 31
0.0
  0
LINE
  5
171FD
  8
ALPHA
 10
1749.5857
 20
686.40513
 30
0.0
 11
1765.6857
 21
686.40513
 31
0.0
  0
LINE
  5
171FE
  8
ALPHA
 10
1749.5857
 20
686.300314
 30
0.0
 11
1765.6857
 21
686.300314
 31
0.0
  0
LINE
  5
171FF
  8
ALPHA
 10
1765.6857
 20
681.909945
 30
0.0
 11
1749.5857
 21
681.909945
 31
0.0
  0
LINE
  5
17200
  8
ALPHA
 10
1765.6857
 20
681.80513
 30
0.0
 11
1749.5857
 21
681.80513
 31
0.0
  0
LINE
  5
17201
  8
ALPHA
 10
1753.5357
 20
689.20513
 30
0.0
 11
1753.5357
 21
689.30513
 31
0.0
  0
LINE
  5
17202
  8
ALPHA
 10
1757.5357
 20
689.20513
 30
0.0
 11
1757.5357
 21
686.40513
 31
0.0
  0
LINE
  5
17203
  8
ALPHA
 10
1758.0357
 20
681.80513
 30
0.0
 11
1758.0357
 21
680.10513
 31
0.0
  0
LINE
  5
17204
  8
ALPHA
 10
1759.0357
 20
689.30513
 30
0.0
 11
1759.0357
 21
686.40513
 31
0.0
  0
LINE
  5
17205
  8
ALPHA
 10
1760.6357
 20
686.40513
 30
0.0
 11
1760.6357
 21
689.30513
 31
0.0
  0
LINE
  5
17206
  8
ALPHA
 10
1765.6857
 20
689.30513
 30
0.0
 11
1765.6857
 21
689.409945
 31
0.0
  0
LINE
  5
17207
  8
ALPHA
 10
1765.6857
 20
681.80513
 30
0.0
 11
1765.6857
 21
681.909945
 31
0.0
  0
LINE
  5
17208
  8
ALPHA
 10
1765.6857
 20
686.40513
 30
0.0
 11
1765.6857
 21
686.300314
 31
0.0
  0
POLYLINE
  5
17209
  8
ALPHA
 66
     1
 10
0.0
 20
0.0
 30
0.0
  0
VERTEX
  5
1B292
  8
ALPHA
 10
1765.6857
 20
686.300314
 30
0.0
  0
VERTEX
  5
1B293
  8
ALPHA
 10
1766.2877
 20
686.421548
 30
0.0
  0
VERTEX
  5
1B294
  8
ALPHA
 10
1766.793008
 20
686.763559
 30
0.0
  0
VERTEX
  5
1B295
  8
ALPHA
 10
1767.125183
 20
687.267248
 30
0.0
  0
VERTEX
  5
1B296
  8
ALPHA
 10
1767.240611
 20
687.85513
 30
0.0
  0
VERTEX
  5
1B297
  8
ALPHA
 10
1767.125183
 20
688.443012
 30
0.0
  0
VERTEX
  5
1B298
  8
ALPHA
 10
1766.793008
 20
688.946701
 30
0.0
  0
VERTEX
  5
1B299
  8
ALPHA
 10
1766.2877
 20
689.288712
 30
0.0
  0
VERTEX
  5
1B29A
  8
ALPHA
 10
1765.6857
 20
689.409945
 30
0.0
  0
SEQEND
  5
1B29B
  8
ALPHA
  0
POLYLINE
  5
17214
  8
ALPHA
 66
     1
 10
0.0
 20
0.0
 30
0.0
  0
VERTEX
  5
1B29C
  8
ALPHA
 10
1765.6857
 20
686.40513
 30
0.0
  0
VERTEX
  5
1B29D
  8
ALPHA
 10
1766.247357
 20
686.518329
 30
0.0
  0
VERTEX
  5
1B29E
  8
ALPHA
 10
1766.719155
 20
686.838043
 30
0.0
  0
VERTEX
  5
1B29F
  8
ALPHA
 10
1767.028183
 20
687.307198
 30
0.0
  0
VERTEX
  5
1B2A0
  8
ALPHA
 10
1767.1357
 20
687.85513
 30
0.0
  0
VERTEX
  5
1B2A1
  8
ALPHA
 10
1767.028183
 20
688.403062
 30
0.0
  0
VERTEX
  5
1B2A2
  8
ALPHA
 10
1766.719155
 20
688.872216
 30
0.0
  0
VERTEX
  5
1B2A3
  8
ALPHA
 10
1766.247357
 20
689.19193
 30
0.0
  0
VERTEX
  5
1B2A4
  8
ALPHA
 10
1765.6857
 20
689.30513
 30
0.0
  0
SEQEND
  5
1B2A5
  8
ALPHA
  0
LINE
  5
1721F
  8
ALPHA
 10
1759.0357
 20
689.20513
 30
0.0
 11
1753.5357
 21
689.20513
 31
0.0
  0
LINE
  5
17220
  8
ALPHA
 10
1758.0357
 20
680.10513
 30
0.0
 11
1759.0357
 21
680.10513
 31
0.0
  0
LINE
  5
17221
  8
ALPHA
 10
1765.6857
 20
696.868013
 30
0.0
 11
1765.685699
 21
696.80513
 31
0.0
  0
LINE
  5
17222
  8
ALPHA
 10
1765.6857
 20
693.842247
 30
0.0
 11
1765.6857
 21
693.90513
 31
0.0
  0
LINE
  5
17223
  8
ALPHA
 10
1765.6857
 20
701.40513
 30
0.0
 11
1765.6857
 21
701.300314
 31
0.0
  0
POLYLINE
  5
17224
  8
ALPHA
 66
     1
 10
0.0
 20
0.0
 30
0.0
  0
VERTEX
  5
1B2A6
  8
ALPHA
 10
1765.6857
 20
693.90513
 30
0.0
  0
VERTEX
  5
1B2A7
  8
ALPHA
 10
1766.247366
 20
694.018333
 30
0.0
  0
VERTEX
  5
1B2A8
  8
ALPHA
 10
1766.719168
 20
694.338057
 30
0.0
  0
VERTEX
  5
1B2A9
  8
ALPHA
 10
1767.028184
 20
694.8072
 30
0.0
  0
VERTEX
  5
1B2AA
  8
ALPHA
 10
1767.1357
 20
695.35513
 30
0.0
  0
VERTEX
  5
1B2AB
  8
ALPHA
 10
1767.028184
 20
695.90306
 30
0.0
  0
VERTEX
  5
1B2AC
  8
ALPHA
 10
1766.719168
 20
696.372203
 30
0.0
  0
VERTEX
  5
1B2AD
  8
ALPHA
 10
1766.247365
 20
696.691927
 30
0.0
  0
VERTEX
  5
1B2AE
  8
ALPHA
 10
1765.685699
 20
696.80513
 30
0.0
  0
SEQEND
  5
1B2AF
  8
ALPHA
  0
POLYLINE
  5
1722F
  8
ALPHA
 66
     1
 10
0.0
 20
0.0
 30
0.0
  0
VERTEX
  5
1B2B0
  8
ALPHA
 10
1765.6857
 20
693.842247
 30
0.0
  0
VERTEX
  5
1B2B1
  8
ALPHA
 10
1766.27157
 20
693.960271
 30
0.0
  0
VERTEX
  5
1B2B2
  8
ALPHA
 10
1766.763471
 20
694.293366
 30
0.0
  0
VERTEX
  5
1B2B3
  8
ALPHA
 10
1767.086377
 20
694.783229
 30
0.0
  0
VERTEX
  5
1B2B4
  8
ALPHA
 10
1767.19864
 20
695.35513
 30
0.0
  0
VERTEX
  5
1B2B5
  8
ALPHA
 10
1767.086377
 20
695.92703
 30
0.0
  0
VERTEX
  5
1B2B6
  8
ALPHA
 10
1766.763471
 20
696.416894
 30
0.0
  0
VERTEX
  5
1B2B7
  8
ALPHA
 10
1766.27157
 20
696.749989
 30
0.0
  0
VERTEX
  5
1B2B8
  8
ALPHA
 10
1765.6857
 20
696.868013
 30
0.0
  0
SEQEND
  5
1B2B9
  8
ALPHA
  0
LINE
  5
1723A
  8
ALPHA
 10
1749.5857
 20
689.30513
 30
0.0
 11
1749.5857
 21
689.409945
 31
0.0
  0
LINE
  5
1723B
  8
ALPHA
 10
1749.5857
 20
681.80513
 30
0.0
 11
1749.5857
 21
681.909945
 31
0.0
  0
LINE
  5
1723C
  8
ALPHA
 10
1749.5857
 20
686.40513
 30
0.0
 11
1749.5857
 21
686.300314
 31
0.0
  0
POLYLINE
  5
1723D
  8
ALPHA
 66
     1
 10
0.0
 20
0.0
 30
0.0
  0
VERTEX
  5
1B2BA
  8
ALPHA
 10
1749.5857
 20
689.409945
 30
0.0
  0
VERTEX
  5
1B2BB
  8
ALPHA
 10
1748.983759
 20
689.288656
 30
0.0
  0
VERTEX
  5
1B2BC
  8
ALPHA
 10
1748.478515
 20
688.946631
 30
0.0
  0
VERTEX
  5
1B2BD
  8
ALPHA
 10
1748.14639
 20
688.442967
 30
0.0
  0
VERTEX
  5
1B2BE
  8
ALPHA
 10
1748.03098
 20
687.85513
 30
0.0
  0
VERTEX
  5
1B2BF
  8
ALPHA
 10
1748.14639
 20
687.267292
 30
0.0
  0
VERTEX
  5
1B2C0
  8
ALPHA
 10
1748.478515
 20
686.763629
 30
0.0
  0
VERTEX
  5
1B2C1
  8
ALPHA
 10
1748.983759
 20
686.421604
 30
0.0
  0
VERTEX
  5
1B2C2
  8
ALPHA
 10
1749.5857
 20
686.300314
 30
0.0
  0
SEQEND
  5
1B2C3
  8
ALPHA
  0
POLYLINE
  5
17248
  8
ALPHA
 66
     1
 10
0.0
 20
0.0
 30
0.0
  0
VERTEX
  5
1B2C4
  8
ALPHA
 10
1749.5857
 20
689.30513
 30
0.0
  0
VERTEX
  5
1B2C5
  8
ALPHA
 10
1749.024043
 20
689.19193
 30
0.0
  0
VERTEX
  5
1B2C6
  8
ALPHA
 10
1748.552245
 20
688.872216
 30
0.0
  0
VERTEX
  5
1B2C7
  8
ALPHA
 10
1748.243216
 20
688.403062
 30
0.0
  0
VERTEX
  5
1B2C8
  8
ALPHA
 10
1748.1357
 20
687.85513
 30
0.0
  0
VERTEX
  5
1B2C9
  8
ALPHA
 10
1748.243216
 20
687.307198
 30
0.0
  0
VERTEX
  5
1B2CA
  8
ALPHA
 10
1748.552245
 20
686.838043
 30
0.0
  0
VERTEX
  5
1B2CB
  8
ALPHA
 10
1749.024043
 20
686.518329
 30
0.0
  0
VERTEX
  5
1B2CC
  8
ALPHA
 10
1749.5857
 20
686.40513
 30
0.0
  0
SEQEND
  5
1B2CD
  8
ALPHA
  0
LINE
  5
17253
  8
ALPHA
 10
1750.986204
 20
681.80513
 30
0.0
 11
1751.5357
 21
681.60513
 31
0.0
  0
LINE
  5
17254
  8
ALPHA
 10
1749.5857
 20
693.842247
 30
0.0
 11
1749.5857
 21
693.90513
 31
0.0
  0
LINE
  5
17255
  8
ALPHA
 10
1749.5857
 20
696.868013
 30
0.0
 11
1749.5857
 21
696.80513
 31
0.0
  0
LINE
  5
17256
  8
ALPHA
 10
1749.5857
 20
701.40513
 30
0.0
 11
1749.5857
 21
701.300314
 31
0.0
  0
POLYLINE
  5
17257
  8
ALPHA
 66
     1
 10
0.0
 20
0.0
 30
0.0
  0
VERTEX
  5
1B2CE
  8
ALPHA
 10
1749.5857
 20
696.868013
 30
0.0
  0
VERTEX
  5
1B2CF
  8
ALPHA
 10
1748.999864
 20
696.749955
 30
0.0
  0
VERTEX
  5
1B2D0
  8
ALPHA
 10
1748.508003
 20
696.416852
 30
0.0
  0
VERTEX
  5
1B2D1
  8
ALPHA
 10
1748.185127
 20
695.927004
 30
0.0
  0
VERTEX
  5
1B2D2
  8
ALPHA
 10
1748.072874
 20
695.35513
 30
0.0
  0
VERTEX
  5
1B2D3
  8
ALPHA
 10
1748.185127
 20
694.783256
 30
0.0
  0
VERTEX
  5
1B2D4
  8
ALPHA
 10
1748.508003
 20
694.293407
 30
0.0
  0
VERTEX
  5
1B2D5
  8
ALPHA
 10
1748.999864
 20
693.960304
 30
0.0
  0
VERTEX
  5
1B2D6
  8
ALPHA
 10
1749.5857
 20
693.842247
 30
0.0
  0
SEQEND
  5
1B2D7
  8
ALPHA
  0
POLYLINE
  5
17262
  8
ALPHA
 66
     1
 10
0.0
 20
0.0
 30
0.0
  0
VERTEX
  5
1B2D8
  8
ALPHA
 10
1749.5857
 20
696.80513
 30
0.0
  0
VERTEX
  5
1B2D9
  8
ALPHA
 10
1749.024034
 20
696.691927
 30
0.0
  0
VERTEX
  5
1B2DA
  8
ALPHA
 10
1748.552232
 20
696.372203
 30
0.0
  0
VERTEX
  5
1B2DB
  8
ALPHA
 10
1748.243216
 20
695.90306
 30
0.0
  0
VERTEX
  5
1B2DC
  8
ALPHA
 10
1748.1357
 20
695.35513
 30
0.0
  0
VERTEX
  5
1B2DD
  8
ALPHA
 10
1748.243216
 20
694.8072
 30
0.0
  0
VERTEX
  5
1B2DE
  8
ALPHA
 10
1748.552232
 20
694.338057
 30
0.0
  0
VERTEX
  5
1B2DF
  8
ALPHA
 10
1749.024034
 20
694.018333
 30
0.0
  0
VERTEX
  5
1B2E0
  8
ALPHA
 10
1749.5857
 20
693.90513
 30
0.0
  0
SEQEND
  5
1B2E1
  8
ALPHA
  0
LINE
  5
1726D
  8
ALPHA
 10
1749.5857
 20
723.90513
 30
0.0
 11
1765.6857
 21
723.90513
 31
0.0
  0
LINE
  5
1726E
  8
ALPHA
 10
1749.5857
 20
723.800314
 30
0.0
 11
1765.6857
 21
723.800314
 31
0.0
  0
LINE
  5
1726F
  8
ALPHA
 10
1765.6857
 20
719.409945
 30
0.0
 11
1749.5857
 21
719.409945
 31
0.0
  0
LINE
  5
17270
  8
ALPHA
 10
1765.6857
 20
719.30513
 30
0.0
 11
1749.5857
 21
719.30513
 31
0.0
  0
LINE
  5
17271
  8
ALPHA
 10
1749.5857
 20
716.40513
 30
0.0
 11
1765.6857
 21
716.40513
 31
0.0
  0
LINE
  5
17272
  8
ALPHA
 10
1749.5857
 20
716.300314
 30
0.0
 11
1765.6857
 21
716.300314
 31
0.0
  0
LINE
  5
17273
  8
ALPHA
 10
1765.6857
 20
711.909945
 30
0.0
 11
1749.5857
 21
711.909945
 31
0.0
  0
LINE
  5
17274
  8
ALPHA
 10
1765.6857
 20
711.80513
 30
0.0
 11
1749.5857
 21
711.80513
 31
0.0
  0
LINE
  5
17275
  8
ALPHA
 10
1749.5857
 20
708.90513
 30
0.0
 11
1765.6857
 21
708.90513
 31
0.0
  0
LINE
  5
17276
  8
ALPHA
 10
1749.5857
 20
708.800314
 30
0.0
 11
1765.6857
 21
708.800314
 31
0.0
  0
LINE
  5
17277
  8
ALPHA
 10
1765.6857
 20
704.409945
 30
0.0
 11
1749.5857
 21
704.409945
 31
0.0
  0
LINE
  5
17278
  8
ALPHA
 10
1765.6857
 20
704.30513
 30
0.0
 11
1749.5857
 21
704.30513
 31
0.0
  0
LINE
  5
17279
  8
ALPHA
 10
1765.6857
 20
711.80513
 30
0.0
 11
1765.6857
 21
711.909945
 31
0.0
  0
LINE
  5
1727A
  8
ALPHA
 10
1765.6857
 20
704.30513
 30
0.0
 11
1765.6857
 21
704.409945
 31
0.0
  0
LINE
  5
1727B
  8
ALPHA
 10
1765.6857
 20
708.90513
 30
0.0
 11
1765.6857
 21
708.800314
 31
0.0
  0
POLYLINE
  5
1727C
  8
ALPHA
 66
     1
 10
0.0
 20
0.0
 30
0.0
  0
VERTEX
  5
1B2E2
  8
ALPHA
 10
1765.6857
 20
708.800314
 30
0.0
  0
VERTEX
  5
1B2E3
  8
ALPHA
 10
1766.2877
 20
708.921548
 30
0.0
  0
VERTEX
  5
1B2E4
  8
ALPHA
 10
1766.793008
 20
709.263559
 30
0.0
  0
VERTEX
  5
1B2E5
  8
ALPHA
 10
1767.125183
 20
709.767248
 30
0.0
  0
VERTEX
  5
1B2E6
  8
ALPHA
 10
1767.240611
 20
710.35513
 30
0.0
  0
VERTEX
  5
1B2E7
  8
ALPHA
 10
1767.125183
 20
710.943012
 30
0.0
  0
VERTEX
  5
1B2E8
  8
ALPHA
 10
1766.793008
 20
711.446701
 30
0.0
  0
VERTEX
  5
1B2E9
  8
ALPHA
 10
1766.2877
 20
711.788712
 30
0.0
  0
VERTEX
  5
1B2EA
  8
ALPHA
 10
1765.6857
 20
711.909945
 30
0.0
  0
SEQEND
  5
1B2EB
  8
ALPHA
  0
POLYLINE
  5
17287
  8
ALPHA
 66
     1
 10
0.0
 20
0.0
 30
0.0
  0
VERTEX
  5
1B2EC
  8
ALPHA
 10
1765.6857
 20
708.90513
 30
0.0
  0
VERTEX
  5
1B2ED
  8
ALPHA
 10
1766.247357
 20
709.018329
 30
0.0
  0
VERTEX
  5
1B2EE
  8
ALPHA
 10
1766.719155
 20
709.338043
 30
0.0
  0
VERTEX
  5
1B2EF
  8
ALPHA
 10
1767.028183
 20
709.807198
 30
0.0
  0
VERTEX
  5
1B2F0
  8
ALPHA
 10
1767.1357
 20
710.35513
 30
0.0
  0
VERTEX
  5
1B2F1
  8
ALPHA
 10
1767.028183
 20
710.903062
 30
0.0
  0
VERTEX
  5
1B2F2
  8
ALPHA
 10
1766.719155
 20
711.372216
 30
0.0
  0
VERTEX
  5
1B2F3
  8
ALPHA
 10
1766.247357
 20
711.69193
 30
0.0
  0
VERTEX
  5
1B2F4
  8
ALPHA
 10
1765.6857
 20
711.80513
 30
0.0
  0
SEQEND
  5
1B2F5
  8
ALPHA
  0
LINE
  5
17292
  8
ALPHA
 10
1765.6857
 20
719.30513
 30
0.0
 11
1765.6857
 21
719.409945
 31
0.0
  0
LINE
  5
17293
  8
ALPHA
 10
1765.6857
 20
716.40513
 30
0.0
 11
1765.6857
 21
716.300314
 31
0.0
  0
LINE
  5
17294
  8
ALPHA
 10
1765.6857
 20
723.90513
 30
0.0
 11
1765.6857
 21
723.800314
 31
0.0
  0
POLYLINE
  5
17295
  8
ALPHA
 66
     1
 10
0.0
 20
0.0
 30
0.0
  0
VERTEX
  5
1B2F6
  8
ALPHA
 10
1765.6857
 20
716.300314
 30
0.0
  0
VERTEX
  5
1B2F7
  8
ALPHA
 10
1766.2877
 20
716.421548
 30
0.0
  0
VERTEX
  5
1B2F8
  8
ALPHA
 10
1766.793008
 20
716.763559
 30
0.0
  0
VERTEX
  5
1B2F9
  8
ALPHA
 10
1767.125183
 20
717.267248
 30
0.0
  0
VERTEX
  5
1B2FA
  8
ALPHA
 10
1767.240611
 20
717.85513
 30
0.0
  0
VERTEX
  5
1B2FB
  8
ALPHA
 10
1767.125183
 20
718.443012
 30
0.0
  0
VERTEX
  5
1B2FC
  8
ALPHA
 10
1766.793008
 20
718.946701
 30
0.0
  0
VERTEX
  5
1B2FD
  8
ALPHA
 10
1766.2877
 20
719.288712
 30
0.0
  0
VERTEX
  5
1B2FE
  8
ALPHA
 10
1765.6857
 20
719.409945
 30
0.0
  0
SEQEND
  5
1B2FF
  8
ALPHA
  0
POLYLINE
  5
172A0
  8
ALPHA
 66
     1
 10
0.0
 20
0.0
 30
0.0
  0
VERTEX
  5
1B300
  8
ALPHA
 10
1765.6857
 20
716.40513
 30
0.0
  0
VERTEX
  5
1B301
  8
ALPHA
 10
1766.247357
 20
716.518329
 30
0.0
  0
VERTEX
  5
1B302
  8
ALPHA
 10
1766.719155
 20
716.838043
 30
0.0
  0
VERTEX
  5
1B303
  8
ALPHA
 10
1767.028183
 20
717.307198
 30
0.0
  0
VERTEX
  5
1B304
  8
ALPHA
 10
1767.1357
 20
717.85513
 30
0.0
  0
VERTEX
  5
1B305
  8
ALPHA
 10
1767.028183
 20
718.403062
 30
0.0
  0
VERTEX
  5
1B306
  8
ALPHA
 10
1766.719155
 20
718.872216
 30
0.0
  0
VERTEX
  5
1B307
  8
ALPHA
 10
1766.247357
 20
719.19193
 30
0.0
  0
VERTEX
  5
1B308
  8
ALPHA
 10
1765.6857
 20
719.30513
 30
0.0
  0
SEQEND
  5
1B309
  8
ALPHA
  0
LINE
  5
172AB
  8
ALPHA
 10
1749.5857
 20
711.80513
 30
0.0
 11
1749.5857
 21
711.909945
 31
0.0
  0
LINE
  5
172AC
  8
ALPHA
 10
1749.5857
 20
704.30513
 30
0.0
 11
1749.5857
 21
704.409945
 31
0.0
  0
LINE
  5
172AD
  8
ALPHA
 10
1749.5857
 20
708.90513
 30
0.0
 11
1749.5857
 21
708.800314
 31
0.0
  0
POLYLINE
  5
172AE
  8
ALPHA
 66
     1
 10
0.0
 20
0.0
 30
0.0
  0
VERTEX
  5
1B30A
  8
ALPHA
 10
1749.5857
 20
711.909945
 30
0.0
  0
VERTEX
  5
1B30B
  8
ALPHA
 10
1748.983759
 20
711.788656
 30
0.0
  0
VERTEX
  5
1B30C
  8
ALPHA
 10
1748.478515
 20
711.446631
 30
0.0
  0
VERTEX
  5
1B30D
  8
ALPHA
 10
1748.14639
 20
710.942967
 30
0.0
  0
VERTEX
  5
1B30E
  8
ALPHA
 10
1748.03098
 20
710.35513
 30
0.0
  0
VERTEX
  5
1B30F
  8
ALPHA
 10
1748.14639
 20
709.767292
 30
0.0
  0
VERTEX
  5
1B310
  8
ALPHA
 10
1748.478515
 20
709.263629
 30
0.0
  0
VERTEX
  5
1B311
  8
ALPHA
 10
1748.983759
 20
708.921604
 30
0.0
  0
VERTEX
  5
1B312
  8
ALPHA
 10
1749.5857
 20
708.800314
 30
0.0
  0
SEQEND
  5
1B313
  8
ALPHA
  0
POLYLINE
  5
172B9
  8
ALPHA
 66
     1
 10
0.0
 20
0.0
 30
0.0
  0
VERTEX
  5
1B314
  8
ALPHA
 10
1749.5857
 20
711.80513
 30
0.0
  0
VERTEX
  5
1B315
  8
ALPHA
 10
1749.024043
 20
711.69193
 30
0.0
  0
VERTEX
  5
1B316
  8
ALPHA
 10
1748.552245
 20
711.372216
 30
0.0
  0
VERTEX
  5
1B317
  8
ALPHA
 10
1748.243216
 20
710.903062
 30
0.0
  0
VERTEX
  5
1B318
  8
ALPHA
 10
1748.1357
 20
710.35513
 30
0.0
  0
VERTEX
  5
1B319
  8
ALPHA
 10
1748.243216
 20
709.807198
 30
0.0
  0
VERTEX
  5
1B31A
  8
ALPHA
 10
1748.552245
 20
709.338043
 30
0.0
  0
VERTEX
  5
1B31B
  8
ALPHA
 10
1749.024043
 20
709.018329
 30
0.0
  0
VERTEX
  5
1B31C
  8
ALPHA
 10
1749.5857
 20
708.90513
 30
0.0
  0
SEQEND
  5
1B31D
  8
ALPHA
  0
LINE
  5
172C4
  8
ALPHA
 10
1749.5857
 20
719.30513
 30
0.0
 11
1749.5857
 21
719.409945
 31
0.0
  0
LINE
  5
172C5
  8
ALPHA
 10
1749.5857
 20
716.40513
 30
0.0
 11
1749.5857
 21
716.300314
 31
0.0
  0
LINE
  5
172C6
  8
ALPHA
 10
1749.5857
 20
723.90513
 30
0.0
 11
1749.5857
 21
723.800314
 31
0.0
  0
POLYLINE
  5
172C7
  8
ALPHA
 66
     1
 10
0.0
 20
0.0
 30
0.0
  0
VERTEX
  5
1B31E
  8
ALPHA
 10
1749.5857
 20
719.409945
 30
0.0
  0
VERTEX
  5
1B31F
  8
ALPHA
 10
1748.983759
 20
719.288656
 30
0.0
  0
VERTEX
  5
1B320
  8
ALPHA
 10
1748.478515
 20
718.946631
 30
0.0
  0
VERTEX
  5
1B321
  8
ALPHA
 10
1748.14639
 20
718.442967
 30
0.0
  0
VERTEX
  5
1B322
  8
ALPHA
 10
1748.03098
 20
717.85513
 30
0.0
  0
VERTEX
  5
1B323
  8
ALPHA
 10
1748.14639
 20
717.267292
 30
0.0
  0
VERTEX
  5
1B324
  8
ALPHA
 10
1748.478515
 20
716.763629
 30
0.0
  0
VERTEX
  5
1B325
  8
ALPHA
 10
1748.983759
 20
716.421604
 30
0.0
  0
VERTEX
  5
1B326
  8
ALPHA
 10
1749.5857
 20
716.300314
 30
0.0
  0
SEQEND
  5
1B327
  8
ALPHA
  0
POLYLINE
  5
172D2
  8
ALPHA
 66
     1
 10
0.0
 20
0.0
 30
0.0
  0
VERTEX
  5
1B328
  8
ALPHA
 10
1749.5857
 20
719.30513
 30
0.0
  0
VERTEX
  5
1B329
  8
ALPHA
 10
1749.024043
 20
719.19193
 30
0.0
  0
VERTEX
  5
1B32A
  8
ALPHA
 10
1748.552245
 20
718.872216
 30
0.0
  0
VERTEX
  5
1B32B
  8
ALPHA
 10
1748.243216
 20
718.403062
 30
0.0
  0
VERTEX
  5
1B32C
  8
ALPHA
 10
1748.1357
 20
717.85513
 30
0.0
  0
VERTEX
  5
1B32D
  8
ALPHA
 10
1748.243216
 20
717.307198
 30
0.0
  0
VERTEX
  5
1B32E
  8
ALPHA
 10
1748.552245
 20
716.838043
 30
0.0
  0
VERTEX
  5
1B32F
  8
ALPHA
 10
1749.024043
 20
716.518329
 30
0.0
  0
VERTEX
  5
1B330
  8
ALPHA
 10
1749.5857
 20
716.40513
 30
0.0
  0
SEQEND
  5
1B331
  8
ALPHA
  0
POLYLINE
  5
172EE
  8
ALPHA
 66
     1
 10
0.0
 20
0.0
 30
0.0
  0
VERTEX
  5
1B332
  8
ALPHA
 10
1769.107497
 20
770.423757
 30
0.0
  0
VERTEX
  5
1B333
  8
ALPHA
 10
1768.878766
 20
769.994663
 30
0.0
  0
VERTEX
  5
1B334
  8
ALPHA
 10
1768.693973
 20
769.593448
 30
0.0
  0
VERTEX
  5
1B335
  8
ALPHA
 10
1768.545956
 20
769.221668
 30
0.0
  0
VERTEX
  5
1B336
  8
ALPHA
 10
1768.428113
 20
768.878891
 30
0.0
  0
VERTEX
  5
1B337
  8
ALPHA
 10
1768.335016
 20
768.564506
 30
0.0
  0
VERTEX
  5
1B338
  8
ALPHA
 10
1768.262037
 20
768.277264
 30
0.0
  0
VERTEX
  5
1B339
  8
ALPHA
 10
1768.205179
 20
768.01492
 30
0.0
  0
VERTEX
  5
1B33A
  8
ALPHA
 10
1768.161148
 20
767.774761
 30
0.0
  0
VERTEX
  5
1B33B
  8
ALPHA
 10
1768.127325
 20
767.554044
 30
0.0
  0
SEQEND
  5
1B33C
  8
ALPHA
  0
LINE
  5
172FA
  8
ALPHA
 10
1766.43553
 20
797.95513
 30
0.0
 11
1770.800314
 21
797.95513
 31
0.0
  0
LINE
  5
172FB
  8
ALPHA
 10
1765.435535
 20
796.972582
 30
0.0
 11
1769.818549
 21
796.972609
 31
0.0
  0
LINE
  5
172FC
  8
ALPHA
 10
1767.738896
 20
796.95513
 30
0.0
 11
1768.702229
 21
796.95513
 31
0.0
  0
LINE
  5
172FD
  8
ALPHA
 10
1771.397578
 20
772.85513
 30
0.0
 11
1765.014515
 21
772.85513
 31
0.0
  0
LINE
  5
172FE
  8
ALPHA
 10
1771.1357
 20
772.05513
 30
0.0
 11
1738.909521
 21
771.49262
 31
0.0
  0
LINE
  5
172FF
  8
ALPHA
 10
1745.056777
 20
770.100149
 30
0.0
 11
1771.1357
 21
770.555358
 31
0.0
  0
LINE
  5
17300
  8
ALPHA
 10
1768.702211
 20
796.95513
 30
0.0
 11
1768.5935
 21
790.75513
 31
0.0
  0
POLYLINE
  5
17301
  8
ALPHA
 66
     1
 10
0.0
 20
0.0
 30
0.0
  0
VERTEX
  5
1B33D
  8
ALPHA
 10
1768.101694
 20
765.55984
 30
0.0
  0
VERTEX
  5
1B33E
  8
ALPHA
 10
1768.126832
 20
765.359775
 30
0.0
  0
VERTEX
  5
1B33F
  8
ALPHA
 10
1768.160267
 20
765.140761
 30
0.0
  0
VERTEX
  5
1B340
  8
ALPHA
 10
1768.204102
 20
764.900755
 30
0.0
  0
VERTEX
  5
1B341
  8
ALPHA
 10
1768.260989
 20
764.637474
 30
0.0
  0
VERTEX
  5
1B342
  8
ALPHA
 10
1768.334223
 20
764.348651
 30
0.0
  0
VERTEX
  5
1B343
  8
ALPHA
 10
1768.427761
 20
764.032473
 30
0.0
  0
VERTEX
  5
1B344
  8
ALPHA
 10
1768.546129
 20
763.688122
 30
0.0
  0
VERTEX
  5
1B345
  8
ALPHA
 10
1768.694576
 20
763.3154
 30
0.0
  0
VERTEX
  5
1B346
  8
ALPHA
 10
1768.879116
 20
762.914937
 30
0.0
  0
SEQEND
  5
1B347
  8
ALPHA
  0
LINE
  5
17359
  8
ALPHA
 10
1899.779844
 20
795.65513
 30
0.0
 11
1900.4357
 21
795.65513
 31
0.0
  0
LINE
  5
1735A
  8
ALPHA
 10
1771.739697
 20
792.45513
 30
0.0
 11
1942.6357
 21
792.45513
 31
0.0
  0
LINE
  5
1735D
  8
ALPHA
 10
1942.6357
 20
792.45513
 30
0.0
 11
1960.1357
 21
824.45513
 31
0.0
  0
LINE
  5
1735E
  8
ALPHA
 10
1943.647419
 20
794.30513
 30
0.0
 11
1900.4357
 21
794.30513
 31
0.0
  0
LINE
  5
1735F
  8
ALPHA
 10
1900.4357
 20
795.65513
 30
0.0
 11
1900.4357
 21
792.45513
 31
0.0
  0
LINE
  5
17360
  8
ALPHA
 10
1971.6357
 20
824.45513
 30
0.0
 11
1960.1357
 21
824.45513
 31
0.0
  0
LINE
  5
1736B
  8
ALPHA
 10
1899.739697
 20
797.95513
 30
0.0
 11
1770.818397
 21
797.95513
 31
0.0
  0
LINE
  5
1736C
  8
ALPHA
 10
1899.756847
 20
796.972582
 30
0.0
 11
1770.818397
 21
796.972582
 31
0.0
  0
LINE
  5
1736D
  8
ALPHA
 10
1879.8357
 20
789.45513
 30
0.0
 11
1775.6357
 21
789.45513
 31
0.0
  0
LINE
  5
1736E
  8
ALPHA
 10
1899.8357
 20
792.45513
 30
0.0
 11
1899.739697
 21
797.95513
 31
0.0
  0
LINE
  5
1736F
  8
ALPHA
 10
1879.8357
 20
789.45513
 30
0.0
 11
1881.8357
 21
789.45513
 31
0.0
  0
LINE
  5
17370
  8
ALPHA
 10
1879.8357
 20
792.45513
 30
0.0
 11
1879.8357
 21
789.45513
 31
0.0
  0
LINE
  5
17371
  8
ALPHA
 10
1881.8357
 20
789.45513
 30
0.0
 11
1881.8357
 21
792.45513
 31
0.0
  0
POLYLINE
  5
17372
  8
ALPHA
 66
     1
 10
0.0
 20
0.0
 30
0.0
  0
VERTEX
  5
1B348
  8
ALPHA
 10
1897.304327
 20
799.983333
 30
0.0
  0
VERTEX
  5
1B349
  8
ALPHA
 10
1896.875233
 20
800.212064
 30
0.0
  0
VERTEX
  5
1B34A
  8
ALPHA
 10
1896.474018
 20
800.396857
 30
0.0
  0
VERTEX
  5
1B34B
  8
ALPHA
 10
1896.102238
 20
800.544874
 30
0.0
  0
VERTEX
  5
1B34C
  8
ALPHA
 10
1895.759461
 20
800.662717
 30
0.0
  0
VERTEX
  5
1B34D
  8
ALPHA
 10
1895.445076
 20
800.755814
 30
0.0
  0
VERTEX
  5
1B34E
  8
ALPHA
 10
1895.157834
 20
800.828792
 30
0.0
  0
VERTEX
  5
1B34F
  8
ALPHA
 10
1894.895491
 20
800.88565
 30
0.0
  0
VERTEX
  5
1B350
  8
ALPHA
 10
1894.655331
 20
800.929682
 30
0.0
  0
VERTEX
  5
1B351
  8
ALPHA
 10
1894.434614
 20
800.963504
 30
0.0
  0
SEQEND
  5
1B352
  8
ALPHA
  0
LINE
  5
1737E
  8
ALPHA
 10
1894.175523
 20
800.962645
 30
0.0
 11
1894.1857
 21
800.952597
 31
0.0
  0
POLYLINE
  5
1737F
  8
ALPHA
 66
     1
 10
0.0
 20
0.0
 30
0.0
  0
VERTEX
  5
1B353
  8
ALPHA
 10
1892.461884
 20
800.984893
 30
0.0
  0
VERTEX
  5
1B354
  8
ALPHA
 10
1892.456208
 20
800.987885
 30
0.0
  0
VERTEX
  5
1B355
  8
ALPHA
 10
1892.44041
 20
800.989136
 30
0.0
  0
SEQEND
  5
1B356
  8
ALPHA
  0
LINE
  5
17384
  8
ALPHA
 10
1894.434614
 20
800.963504
 30
0.0
 11
1894.230849
 21
800.989152
 31
0.0
  0
POLYLINE
  5
17385
  8
ALPHA
 66
     1
 10
0.0
 20
0.0
 30
0.0
  0
VERTEX
  5
1B357
  8
ALPHA
 10
1892.464914
 20
800.988786
 30
0.0
  0
VERTEX
  5
1B358
  8
ALPHA
 10
1892.48102
 20
800.986835
 30
0.0
  0
VERTEX
  5
1B359
  8
ALPHA
 10
1892.487624
 20
800.98323
 30
0.0
  0
VERTEX
  5
1B35A
  8
ALPHA
 10
1892.487732
 20
800.98258
 30
0.0
  0
SEQEND
  5
1B35B
  8
ALPHA
  0
POLYLINE
  5
1738B
  8
ALPHA
 66
     1
 10
0.0
 20
0.0
 30
0.0
  0
VERTEX
  5
1B35C
  8
ALPHA
 10
1892.487732
 20
800.940092
 30
0.0
  0
VERTEX
  5
1B35D
  8
ALPHA
 10
1892.529099
 20
800.93512
 30
0.0
  0
VERTEX
  5
1B35E
  8
ALPHA
 10
1892.595124
 20
800.93209
 30
0.0
  0
VERTEX
  5
1B35F
  8
ALPHA
 10
1892.601049
 20
800.932088
 30
0.0
  0
SEQEND
  5
1B360
  8
ALPHA
  0
POLYLINE
  5
17391
  8
ALPHA
 66
     1
 10
0.0
 20
0.0
 30
0.0
  0
VERTEX
  5
1B361
  8
ALPHA
 10
1892.513341
 20
800.93265
 30
0.0
  0
VERTEX
  5
1B362
  8
ALPHA
 10
1892.456804
 20
800.936381
 30
0.0
  0
VERTEX
  5
1B363
  8
ALPHA
 10
1892.418859
 20
800.94273
 30
0.0
  0
VERTEX
  5
1B364
  8
ALPHA
 10
1892.401879
 20
800.951668
 30
0.0
  0
VERTEX
  5
1B365
  8
ALPHA
 10
1892.40134
 20
800.953804
 30
0.0
  0
SEQEND
  5
1B366
  8
ALPHA
  0
LINE
  5
17398
  8
ALPHA
 10
1897.304327
 20
799.983333
 30
0.0
 11
1889.367073
 21
799.983333
 31
0.0
  0
LINE
  5
17399
  8
ALPHA
 10
1889.367073
 20
799.45513
 30
0.0
 11
1889.335716
 21
799.45513
 31
0.0
  0
LINE
  5
1739A
  8
ALPHA
 10
1897.335684
 20
799.45513
 30
0.0
 11
1897.304327
 21
799.45513
 31
0.0
  0
POLYLINE
  5
1739B
  8
ALPHA
 66
     1
 10
0.0
 20
0.0
 30
0.0
  0
VERTEX
  5
1B367
  8
ALPHA
 10
1894.230849
 20
800.989152
 30
0.0
  0
VERTEX
  5
1B368
  8
ALPHA
 10
1894.198673
 20
800.988595
 30
0.0
  0
VERTEX
  5
1B369
  8
ALPHA
 10
1894.174903
 20
800.985971
 30
0.0
  0
VERTEX
  5
1B36A
  8
ALPHA
 10
1894.161398
 20
800.980945
 30
0.0
  0
VERTEX
  5
1B36B
  8
ALPHA
 10
1894.159299
 20
800.977095
 30
0.0
  0
SEQEND
  5
1B36C
  8
ALPHA
  0
POLYLINE
  5
173A2
  8
ALPHA
 66
     1
 10
0.0
 20
0.0
 30
0.0
  0
VERTEX
  5
1B36D
  8
ALPHA
 10
1892.44041
 20
800.989136
 30
0.0
  0
VERTEX
  5
1B36E
  8
ALPHA
 10
1892.240345
 20
800.963998
 30
0.0
  0
VERTEX
  5
1B36F
  8
ALPHA
 10
1892.021331
 20
800.930562
 30
0.0
  0
VERTEX
  5
1B370
  8
ALPHA
 10
1891.781325
 20
800.886727
 30
0.0
  0
VERTEX
  5
1B371
  8
ALPHA
 10
1891.518044
 20
800.829841
 30
0.0
  0
VERTEX
  5
1B372
  8
ALPHA
 10
1891.229222
 20
800.756607
 30
0.0
  0
VERTEX
  5
1B373
  8
ALPHA
 10
1890.913043
 20
800.663069
 30
0.0
  0
VERTEX
  5
1B374
  8
ALPHA
 10
1890.568693
 20
800.544701
 30
0.0
  0
VERTEX
  5
1B375
  8
ALPHA
 10
1890.19597
 20
800.396253
 30
0.0
  0
VERTEX
  5
1B376
  8
ALPHA
 10
1889.795507
 20
800.211714
 30
0.0
  0
SEQEND
  5
1B377
  8
ALPHA
  0
POLYLINE
  5
173AE
  8
ALPHA
 66
     1
 10
0.0
 20
0.0
 30
0.0
  0
VERTEX
  5
1B378
  8
ALPHA
 10
1893.022169
 20
800.966975
 30
0.0
  0
VERTEX
  5
1B379
  8
ALPHA
 10
1893.098337
 20
800.977237
 30
0.0
  0
VERTEX
  5
1B37A
  8
ALPHA
 10
1893.178254
 20
800.984141
 30
0.0
  0
VERTEX
  5
1B37B
  8
ALPHA
 10
1893.262616
 20
800.98813
 30
0.0
  0
VERTEX
  5
1B37C
  8
ALPHA
 10
1893.350081
 20
800.989153
 30
0.0
  0
VERTEX
  5
1B37D
  8
ALPHA
 10
1893.436877
 20
800.987143
 30
0.0
  0
VERTEX
  5
1B37E
  8
ALPHA
 10
1893.519843
 20
800.982205
 30
0.0
  0
VERTEX
  5
1B37F
  8
ALPHA
 10
1893.598554
 20
800.974267
 30
0.0
  0
VERTEX
  5
1B380
  8
ALPHA
 10
1893.673693
 20
800.962645
 30
0.0
  0
SEQEND
  5
1B381
  8
ALPHA
  0
POLYLINE
  5
173B9
  8
ALPHA
 66
     1
 10
0.0
 20
0.0
 30
0.0
  0
VERTEX
  5
1B382
  8
ALPHA
 10
1893.022169
 20
800.966975
 30
0.0
  0
VERTEX
  5
1B383
  8
ALPHA
 10
1892.943954
 20
800.955763
 30
0.0
  0
VERTEX
  5
1B384
  8
ALPHA
 10
1892.853611
 20
800.945936
 30
0.0
  0
VERTEX
  5
1B385
  8
ALPHA
 10
1892.759666
 20
800.938438
 30
0.0
  0
VERTEX
  5
1B386
  8
ALPHA
 10
1892.669673
 20
800.933698
 30
0.0
  0
VERTEX
  5
1B387
  8
ALPHA
 10
1892.585523
 20
800.931723
 30
0.0
  0
VERTEX
  5
1B388
  8
ALPHA
 10
1892.513341
 20
800.93265
 30
0.0
  0
SEQEND
  5
1B389
  8
ALPHA
  0
POLYLINE
  5
173C2
  8
ALPHA
 66
     1
 10
0.0
 20
0.0
 30
0.0
  0
VERTEX
  5
1B38A
  8
ALPHA
 10
1894.175042
 20
800.943775
 30
0.0
  0
VERTEX
  5
1B38B
  8
ALPHA
 10
1894.144924
 20
800.937207
 30
0.0
  0
VERTEX
  5
1B38C
  8
ALPHA
 10
1894.098438
 20
800.933136
 30
0.0
  0
VERTEX
  5
1B38D
  8
ALPHA
 10
1894.03591
 20
800.931677
 30
0.0
  0
VERTEX
  5
1B38E
  8
ALPHA
 10
1893.962923
 20
800.93312
 30
0.0
  0
VERTEX
  5
1B38F
  8
ALPHA
 10
1893.88711
 20
800.93719
 30
0.0
  0
VERTEX
  5
1B390
  8
ALPHA
 10
1893.809369
 20
800.943805
 30
0.0
  0
VERTEX
  5
1B391
  8
ALPHA
 10
1893.735751
 20
800.952591
 30
0.0
  0
VERTEX
  5
1B392
  8
ALPHA
 10
1893.673693
 20
800.962645
 30
0.0
  0
SEQEND
  5
1B393
  8
ALPHA
  0
POLYLINE
  5
173CD
  8
ALPHA
 66
     1
 10
0.0
 20
0.0
 30
0.0
  0
VERTEX
  5
1B394
  8
ALPHA
 10
1892.439134
 20
800.974306
 30
0.0
  0
VERTEX
  5
1B395
  8
ALPHA
 10
1892.456516
 20
800.980467
 30
0.0
  0
VERTEX
  5
1B396
  8
ALPHA
 10
1892.461884
 20
800.984893
 30
0.0
  0
SEQEND
  5
1B397
  8
ALPHA
  0
POLYLINE
  5
173D2
  8
ALPHA
 66
     1
 10
0.0
 20
0.0
 30
0.0
  0
VERTEX
  5
1B398
  8
ALPHA
 10
1894.159299
 20
800.977095
 30
0.0
  0
VERTEX
  5
1B399
  8
ALPHA
 10
1894.160797
 20
800.973208
 30
0.0
  0
VERTEX
  5
1B39A
  8
ALPHA
 10
1894.175523
 20
800.962645
 30
0.0
  0
SEQEND
  5
1B39B
  8
ALPHA
  0
LINE
  5
173D7
  8
ALPHA
 10
1889.795507
 20
800.211714
 30
0.0
 11
1889.367073
 21
799.983333
 31
0.0
  0
LINE
  5
173D8
  8
ALPHA
 10
1894.1857
 20
800.952597
 30
0.0
 11
1894.175042
 21
800.943775
 31
0.0
  0
POLYLINE
  5
173D9
  8
ALPHA
 66
     1
 10
0.0
 20
0.0
 30
0.0
  0
VERTEX
  5
1B39C
  8
ALPHA
 10
1892.40134
 20
800.953804
 30
0.0
  0
VERTEX
  5
1B39D
  8
ALPHA
 10
1892.408981
 20
800.962541
 30
0.0
  0
VERTEX
  5
1B39E
  8
ALPHA
 10
1892.439134
 20
800.974306
 30
0.0
  0
SEQEND
  5
1B39F
  8
ALPHA
  0
LINE
  5
173DE
  8
ALPHA
 10
1889.3357
 20
799.45513
 30
0.0
 11
1889.3357
 21
797.95513
 31
0.0
  0
LINE
  5
173DF
  8
ALPHA
 10
1889.367073
 20
799.983333
 30
0.0
 11
1889.367073
 21
799.45513
 31
0.0
  0
LINE
  5
173E0
  8
ALPHA
 10
1892.439134
 20
800.974306
 30
0.0
 11
1892.439134
 21
800.939337
 31
0.0
  0
LINE
  5
173E1
  8
ALPHA
 10
1892.461884
 20
800.936046
 30
0.0
 11
1892.461884
 21
800.984872
 31
0.0
  0
LINE
  5
173E2
  8
ALPHA
 10
1892.487732
 20
800.93434
 30
0.0
 11
1892.487732
 21
800.982487
 31
0.0
  0
LINE
  5
173E3
  8
ALPHA
 10
1894.159299
 20
800.940342
 30
0.0
 11
1894.159299
 21
800.976751
 31
0.0
  0
LINE
  5
173E4
  8
ALPHA
 10
1894.175523
 20
800.962645
 30
0.0
 11
1894.175523
 21
800.944174
 31
0.0
  0
LINE
  5
173E5
  8
ALPHA
 10
1897.304327
 20
799.983333
 30
0.0
 11
1897.304327
 21
799.45513
 31
0.0
  0
LINE
  5
173E6
  8
ALPHA
 10
1897.3357
 20
799.45513
 30
0.0
 11
1897.3357
 21
797.95513
 31
0.0
  0
LINE
  5
173E7
  8
ALPHA
 10
1772.6357
 20
772.05513
 30
0.0
 11
1771.1357
 21
772.05513
 31
0.0
  0
LINE
  5
173E8
  8
ALPHA
 10
1769.6357
 20
770.45513
 30
0.0
 11
1771.1357
 21
770.45513
 31
0.0
  0
LINE
  5
173E9
  8
ALPHA
 10
1769.107497
 20
770.423757
 30
0.0
 11
1769.6357
 21
770.423757
 31
0.0
  0
LINE
  5
173EA
  8
ALPHA
 10
1772.6357
 20
770.05513
 30
0.0
 11
1771.1357
 21
770.05513
 31
0.0
  0
LINE
  5
173EB
  8
ALPHA
 10
1769.107497
 20
762.486503
 30
0.0
 11
1769.6357
 21
762.486503
 31
0.0
  0
LINE
  5
173EC
  8
ALPHA
 10
1769.6357
 20
762.45513
 30
0.0
 11
1771.1357
 21
762.45513
 31
0.0
  0
LINE
  5
173ED
  8
ALPHA
 10
1769.107497
 20
762.486503
 30
0.0
 11
1769.107497
 21
770.423757
 31
0.0
  0
LINE
  5
173EE
  8
ALPHA
 10
1769.6357
 20
762.486503
 30
0.0
 11
1769.6357
 21
762.455146
 31
0.0
  0
LINE
  5
173EF
  8
ALPHA
 10
1769.6357
 20
770.455114
 30
0.0
 11
1769.6357
 21
770.423757
 31
0.0
  0
LINE
  5
173F0
  8
ALPHA
 10
1768.879116
 20
762.914937
 30
0.0
 11
1769.107497
 21
762.486503
 31
0.0
  0
LINE
  5
173F1
  8
ALPHA
 10
1769.385529
 20
772.85513
 30
0.0
 11
1769.806494
 21
796.972582
 31
0.0
  0
LINE
  5
173F2
  8
ALPHA
 10
1769.818549
 20
796.972582
 30
0.0
 11
1769.397578
 21
772.85513
 31
0.0
  0
LINE
  5
173F3
  8
ALPHA
 10
1770.818397
 20
796.972582
 30
0.0
 11
1770.397425
 21
772.85513
 31
0.0
  0
LINE
  5
173F4
  8
ALPHA
 10
1771.397578
 20
772.85513
 30
0.0
 11
1771.739697
 21
792.45513
 31
0.0
  0
LINE
  5
173F5
  8
ALPHA
 10
1772.6357
 20
776.45513
 30
0.0
 11
1771.460416
 21
776.45513
 31
0.0
  0
LINE
  5
173F6
  8
ALPHA
 10
1772.6357
 20
789.45513
 30
0.0
 11
1775.6357
 21
789.45513
 31
0.0
  0
LINE
  5
173F7
  8
ALPHA
 10
1775.6357
 20
789.45513
 30
0.0
 11
1775.6357
 21
792.45513
 31
0.0
  0
ARC
  5
173F8
  8
ALPHA
 10
1770.818397
 20
796.95513
 30
0.0
 40
1.0
 50
90.0
 51
179.0
  0
POLYLINE
  5
173F9
  8
ALPHA
 66
     1
 10
0.0
 20
0.0
 30
0.0
  0
VERTEX
  5
1B3A0
  8
ALPHA
 10
1770.800314
 20
797.95513
 30
0.0
  0
VERTEX
  5
1B3A1
  8
ALPHA
 10
1770.423949
 20
797.880671
 30
0.0
  0
VERTEX
  5
1B3A2
  8
ALPHA
 10
1770.103631
 20
797.668381
 30
0.0
  0
VERTEX
  5
1B3A3
  8
ALPHA
 10
1769.887062
 20
797.349874
 30
0.0
  0
VERTEX
  5
1B3A4
  8
ALPHA
 10
1769.806494
 20
796.972582
 30
0.0
  0
SEQEND
  5
1B3A5
  8
ALPHA
  0
POLYLINE
  5
17400
  8
ALPHA
 66
     1
 10
0.0
 20
0.0
 30
0.0
  0
VERTEX
  5
1B3A6
  8
ALPHA
 10
1770.818397
 20
796.972582
 30
0.0
  0
VERTEX
  5
1B3A7
  8
ALPHA
 10
1770.435842
 20
796.97793
 30
0.0
  0
VERTEX
  5
1B3A8
  8
ALPHA
 10
1770.111506
 20
796.979807
 30
0.0
  0
VERTEX
  5
1B3A9
  8
ALPHA
 10
1769.894746
 20
796.97793
 30
0.0
  0
VERTEX
  5
1B3AA
  8
ALPHA
 10
1769.818549
 20
796.972582
 30
0.0
  0
SEQEND
  5
1B3AB
  8
ALPHA
  0
LINE
  5
17407
  8
ALPHA
 10
1770.818397
 20
796.972582
 30
0.0
 11
1770.818397
 21
797.95513
 31
0.0
  0
LINE
  5
183D3
  8
ALPHA
 10
1765.6857
 20
749.409945
 30
0.0
 11
1749.5857
 21
749.409945
 31
0.0
  0
LINE
  5
183D4
  8
ALPHA
 10
1765.6857
 20
749.30513
 30
0.0
 11
1749.5857
 21
749.30513
 31
0.0
  0
LINE
  5
183D5
  8
ALPHA
 10
1749.5857
 20
746.40513
 30
0.0
 11
1765.6857
 21
746.40513
 31
0.0
  0
LINE
  5
183D6
  8
ALPHA
 10
1749.5857
 20
746.300314
 30
0.0
 11
1765.6857
 21
746.300314
 31
0.0
  0
LINE
  5
183D7
  8
ALPHA
 10
1765.6857
 20
741.909945
 30
0.0
 11
1749.5857
 21
741.909945
 31
0.0
  0
LINE
  5
183D8
  8
ALPHA
 10
1765.6857
 20
741.80513
 30
0.0
 11
1749.5857
 21
741.80513
 31
0.0
  0
LINE
  5
183D9
  8
ALPHA
 10
1749.5857
 20
738.90513
 30
0.0
 11
1765.6857
 21
738.90513
 31
0.0
  0
LINE
  5
183DA
  8
ALPHA
 10
1749.5857
 20
738.800314
 30
0.0
 11
1765.6857
 21
738.800314
 31
0.0
  0
LINE
  5
183DB
  8
ALPHA
 10
1765.6857
 20
734.409945
 30
0.0
 11
1749.5857
 21
734.409945
 31
0.0
  0
LINE
  5
183DC
  8
ALPHA
 10
1765.6857
 20
734.30513
 30
0.0
 11
1749.5857
 21
734.30513
 31
0.0
  0
LINE
  5
183DD
  8
ALPHA
 10
1749.5857
 20
731.40513
 30
0.0
 11
1765.6857
 21
731.40513
 31
0.0
  0
LINE
  5
183DE
  8
ALPHA
 10
1749.5857
 20
731.300314
 30
0.0
 11
1765.6857
 21
731.300314
 31
0.0
  0
LINE
  5
183DF
  8
ALPHA
 10
1765.6857
 20
726.909945
 30
0.0
 11
1749.5857
 21
726.909945
 31
0.0
  0
LINE
  5
183E0
  8
ALPHA
 10
1765.6857
 20
726.80513
 30
0.0
 11
1749.5857
 21
726.80513
 31
0.0
  0
LINE
  5
183E1
  8
ALPHA
 10
1765.6857
 20
734.30513
 30
0.0
 11
1765.6857
 21
734.409945
 31
0.0
  0
LINE
  5
183E2
  8
ALPHA
 10
1765.6857
 20
726.80513
 30
0.0
 11
1765.6857
 21
726.909945
 31
0.0
  0
LINE
  5
183E3
  8
ALPHA
 10
1765.6857
 20
731.40513
 30
0.0
 11
1765.6857
 21
731.300314
 31
0.0
  0
POLYLINE
  5
183E4
  8
ALPHA
 66
     1
 10
0.0
 20
0.0
 30
0.0
  0
VERTEX
  5
1B3AC
  8
ALPHA
 10
1765.6857
 20
731.300314
 30
0.0
  0
VERTEX
  5
1B3AD
  8
ALPHA
 10
1766.2877
 20
731.421548
 30
0.0
  0
VERTEX
  5
1B3AE
  8
ALPHA
 10
1766.793008
 20
731.763559
 30
0.0
  0
VERTEX
  5
1B3AF
  8
ALPHA
 10
1767.125183
 20
732.267248
 30
0.0
  0
VERTEX
  5
1B3B0
  8
ALPHA
 10
1767.240611
 20
732.85513
 30
0.0
  0
VERTEX
  5
1B3B1
  8
ALPHA
 10
1767.125183
 20
733.443012
 30
0.0
  0
VERTEX
  5
1B3B2
  8
ALPHA
 10
1766.793008
 20
733.946701
 30
0.0
  0
VERTEX
  5
1B3B3
  8
ALPHA
 10
1766.2877
 20
734.288712
 30
0.0
  0
VERTEX
  5
1B3B4
  8
ALPHA
 10
1765.6857
 20
734.409945
 30
0.0
  0
SEQEND
  5
1B3B5
  8
ALPHA
  0
POLYLINE
  5
183EF
  8
ALPHA
 66
     1
 10
0.0
 20
0.0
 30
0.0
  0
VERTEX
  5
1B3B6
  8
ALPHA
 10
1765.6857
 20
731.40513
 30
0.0
  0
VERTEX
  5
1B3B7
  8
ALPHA
 10
1766.247357
 20
731.518329
 30
0.0
  0
VERTEX
  5
1B3B8
  8
ALPHA
 10
1766.719155
 20
731.838043
 30
0.0
  0
VERTEX
  5
1B3B9
  8
ALPHA
 10
1767.028183
 20
732.307198
 30
0.0
  0
VERTEX
  5
1B3BA
  8
ALPHA
 10
1767.1357
 20
732.85513
 30
0.0
  0
VERTEX
  5
1B3BB
  8
ALPHA
 10
1767.028183
 20
733.403062
 30
0.0
  0
VERTEX
  5
1B3BC
  8
ALPHA
 10
1766.719155
 20
733.872216
 30
0.0
  0
VERTEX
  5
1B3BD
  8
ALPHA
 10
1766.247357
 20
734.19193
 30
0.0
  0
VERTEX
  5
1B3BE
  8
ALPHA
 10
1765.6857
 20
734.30513
 30
0.0
  0
SEQEND
  5
1B3BF
  8
ALPHA
  0
POLYLINE
  5
183FA
  8
ALPHA
 66
     1
 10
0.0
 20
0.0
 30
0.0
  0
VERTEX
  5
1B3C0
  8
ALPHA
 10
1765.6857
 20
746.300314
 30
0.0
  0
VERTEX
  5
1B3C1
  8
ALPHA
 10
1766.2877
 20
746.421548
 30
0.0
  0
VERTEX
  5
1B3C2
  8
ALPHA
 10
1766.793008
 20
746.763559
 30
0.0
  0
VERTEX
  5
1B3C3
  8
ALPHA
 10
1767.125183
 20
747.267248
 30
0.0
  0
VERTEX
  5
1B3C4
  8
ALPHA
 10
1767.240611
 20
747.85513
 30
0.0
  0
VERTEX
  5
1B3C5
  8
ALPHA
 10
1767.125183
 20
748.443012
 30
0.0
  0
VERTEX
  5
1B3C6
  8
ALPHA
 10
1766.793008
 20
748.946701
 30
0.0
  0
VERTEX
  5
1B3C7
  8
ALPHA
 10
1766.2877
 20
749.288712
 30
0.0
  0
VERTEX
  5
1B3C8
  8
ALPHA
 10
1765.6857
 20
749.409945
 30
0.0
  0
SEQEND
  5
1B3C9
  8
ALPHA
  0
POLYLINE
  5
18405
  8
ALPHA
 66
     1
 10
0.0
 20
0.0
 30
0.0
  0
VERTEX
  5
1B3CA
  8
ALPHA
 10
1765.6857
 20
746.40513
 30
0.0
  0
VERTEX
  5
1B3CB
  8
ALPHA
 10
1766.247357
 20
746.518329
 30
0.0
  0
VERTEX
  5
1B3CC
  8
ALPHA
 10
1766.719155
 20
746.838043
 30
0.0
  0
VERTEX
  5
1B3CD
  8
ALPHA
 10
1767.028183
 20
747.307198
 30
0.0
  0
VERTEX
  5
1B3CE
  8
ALPHA
 10
1767.1357
 20
747.85513
 30
0.0
  0
VERTEX
  5
1B3CF
  8
ALPHA
 10
1767.028183
 20
748.403062
 30
0.0
  0
VERTEX
  5
1B3D0
  8
ALPHA
 10
1766.719155
 20
748.872216
 30
0.0
  0
VERTEX
  5
1B3D1
  8
ALPHA
 10
1766.247357
 20
749.19193
 30
0.0
  0
VERTEX
  5
1B3D2
  8
ALPHA
 10
1765.6857
 20
749.30513
 30
0.0
  0
SEQEND
  5
1B3D3
  8
ALPHA
  0
POLYLINE
  5
18410
  8
ALPHA
 66
     1
 10
0.0
 20
0.0
 30
0.0
  0
VERTEX
  5
1B3D4
  8
ALPHA
 10
1765.6857
 20
738.800314
 30
0.0
  0
VERTEX
  5
1B3D5
  8
ALPHA
 10
1766.2877
 20
738.921548
 30
0.0
  0
VERTEX
  5
1B3D6
  8
ALPHA
 10
1766.793008
 20
739.263559
 30
0.0
  0
VERTEX
  5
1B3D7
  8
ALPHA
 10
1767.125183
 20
739.767248
 30
0.0
  0
VERTEX
  5
1B3D8
  8
ALPHA
 10
1767.240611
 20
740.35513
 30
0.0
  0
VERTEX
  5
1B3D9
  8
ALPHA
 10
1767.125183
 20
740.943012
 30
0.0
  0
VERTEX
  5
1B3DA
  8
ALPHA
 10
1766.793008
 20
741.446701
 30
0.0
  0
VERTEX
  5
1B3DB
  8
ALPHA
 10
1766.2877
 20
741.788712
 30
0.0
  0
VERTEX
  5
1B3DC
  8
ALPHA
 10
1765.6857
 20
741.909945
 30
0.0
  0
SEQEND
  5
1B3DD
  8
ALPHA
  0
POLYLINE
  5
1841B
  8
ALPHA
 66
     1
 10
0.0
 20
0.0
 30
0.0
  0
VERTEX
  5
1B3DE
  8
ALPHA
 10
1765.6857
 20
738.90513
 30
0.0
  0
VERTEX
  5
1B3DF
  8
ALPHA
 10
1766.247357
 20
739.018329
 30
0.0
  0
VERTEX
  5
1B3E0
  8
ALPHA
 10
1766.719155
 20
739.338043
 30
0.0
  0
VERTEX
  5
1B3E1
  8
ALPHA
 10
1767.028183
 20
739.807198
 30
0.0
  0
VERTEX
  5
1B3E2
  8
ALPHA
 10
1767.1357
 20
740.35513
 30
0.0
  0
VERTEX
  5
1B3E3
  8
ALPHA
 10
1767.028183
 20
740.903062
 30
0.0
  0
VERTEX
  5
1B3E4
  8
ALPHA
 10
1766.719155
 20
741.372216
 30
0.0
  0
VERTEX
  5
1B3E5
  8
ALPHA
 10
1766.247357
 20
741.69193
 30
0.0
  0
VERTEX
  5
1B3E6
  8
ALPHA
 10
1765.6857
 20
741.80513
 30
0.0
  0
SEQEND
  5
1B3E7
  8
ALPHA
  0
LINE
  5
18426
  8
ALPHA
 10
1765.6857
 20
741.80513
 30
0.0
 11
1765.6857
 21
741.909945
 31
0.0
  0
LINE
  5
18427
  8
ALPHA
 10
1765.6857
 20
749.30513
 30
0.0
 11
1765.6857
 21
749.409945
 31
0.0
  0
LINE
  5
18428
  8
ALPHA
 10
1765.6857
 20
738.90513
 30
0.0
 11
1765.6857
 21
738.800314
 31
0.0
  0
LINE
  5
18429
  8
ALPHA
 10
1765.6857
 20
746.40513
 30
0.0
 11
1765.6857
 21
746.300314
 31
0.0
  0
LINE
  5
1842A
  8
ALPHA
 10
1749.5857
 20
734.30513
 30
0.0
 11
1749.5857
 21
734.409945
 31
0.0
  0
LINE
  5
1842B
  8
ALPHA
 10
1749.5857
 20
726.80513
 30
0.0
 11
1749.5857
 21
726.909945
 31
0.0
  0
LINE
  5
1842C
  8
ALPHA
 10
1749.5857
 20
731.40513
 30
0.0
 11
1749.5857
 21
731.300314
 31
0.0
  0
POLYLINE
  5
1842D
  8
ALPHA
 66
     1
 10
0.0
 20
0.0
 30
0.0
  0
VERTEX
  5
1B3E8
  8
ALPHA
 10
1749.5857
 20
734.409945
 30
0.0
  0
VERTEX
  5
1B3E9
  8
ALPHA
 10
1748.983759
 20
734.288656
 30
0.0
  0
VERTEX
  5
1B3EA
  8
ALPHA
 10
1748.478515
 20
733.946631
 30
0.0
  0
VERTEX
  5
1B3EB
  8
ALPHA
 10
1748.14639
 20
733.442967
 30
0.0
  0
VERTEX
  5
1B3EC
  8
ALPHA
 10
1748.03098
 20
732.85513
 30
0.0
  0
VERTEX
  5
1B3ED
  8
ALPHA
 10
1748.14639
 20
732.267292
 30
0.0
  0
VERTEX
  5
1B3EE
  8
ALPHA
 10
1748.478515
 20
731.763629
 30
0.0
  0
VERTEX
  5
1B3EF
  8
ALPHA
 10
1748.983759
 20
731.421604
 30
0.0
  0
VERTEX
  5
1B3F0
  8
ALPHA
 10
1749.5857
 20
731.300314
 30
0.0
  0
SEQEND
  5
1B3F1
  8
ALPHA
  0
POLYLINE
  5
18438
  8
ALPHA
 66
     1
 10
0.0
 20
0.0
 30
0.0
  0
VERTEX
  5
1B3F2
  8
ALPHA
 10
1749.5857
 20
734.30513
 30
0.0
  0
VERTEX
  5
1B3F3
  8
ALPHA
 10
1749.024043
 20
734.19193
 30
0.0
  0
VERTEX
  5
1B3F4
  8
ALPHA
 10
1748.552245
 20
733.872216
 30
0.0
  0
VERTEX
  5
1B3F5
  8
ALPHA
 10
1748.243216
 20
733.403062
 30
0.0
  0
VERTEX
  5
1B3F6
  8
ALPHA
 10
1748.1357
 20
732.85513
 30
0.0
  0
VERTEX
  5
1B3F7
  8
ALPHA
 10
1748.243216
 20
732.307198
 30
0.0
  0
VERTEX
  5
1B3F8
  8
ALPHA
 10
1748.552245
 20
731.838043
 30
0.0
  0
VERTEX
  5
1B3F9
  8
ALPHA
 10
1749.024043
 20
731.518329
 30
0.0
  0
VERTEX
  5
1B3FA
  8
ALPHA
 10
1749.5857
 20
731.40513
 30
0.0
  0
SEQEND
  5
1B3FB
  8
ALPHA
  0
LINE
  5
18443
  8
ALPHA
 10
1748.30062
 20
747.22005
 30
0.0
 11
1750.3857
 21
749.30513
 31
0.0
  0
POLYLINE
  5
18444
  8
ALPHA
 66
     1
 10
0.0
 20
0.0
 30
0.0
  0
VERTEX
  5
1B3FC
  8
ALPHA
 10
1749.5857
 20
749.409945
 30
0.0
  0
VERTEX
  5
1B3FD
  8
ALPHA
 10
1748.983759
 20
749.288656
 30
0.0
  0
VERTEX
  5
1B3FE
  8
ALPHA
 10
1748.478515
 20
748.946631
 30
0.0
  0
VERTEX
  5
1B3FF
  8
ALPHA
 10
1748.14639
 20
748.442967
 30
0.0
  0
VERTEX
  5
1B400
  8
ALPHA
 10
1748.03098
 20
747.85513
 30
0.0
  0
VERTEX
  5
1B401
  8
ALPHA
 10
1748.14639
 20
747.267292
 30
0.0
  0
VERTEX
  5
1B402
  8
ALPHA
 10
1748.478515
 20
746.763629
 30
0.0
  0
VERTEX
  5
1B403
  8
ALPHA
 10
1748.983759
 20
746.421604
 30
0.0
  0
VERTEX
  5
1B404
  8
ALPHA
 10
1749.5857
 20
746.300314
 30
0.0
  0
SEQEND
  5
1B405
  8
ALPHA
  0
POLYLINE
  5
1844F
  8
ALPHA
 66
     1
 10
0.0
 20
0.0
 30
0.0
  0
VERTEX
  5
1B406
  8
ALPHA
 10
1749.5857
 20
749.30513
 30
0.0
  0
VERTEX
  5
1B407
  8
ALPHA
 10
1749.024043
 20
749.19193
 30
0.0
  0
VERTEX
  5
1B408
  8
ALPHA
 10
1748.552245
 20
748.872216
 30
0.0
  0
VERTEX
  5
1B409
  8
ALPHA
 10
1748.243216
 20
748.403062
 30
0.0
  0
VERTEX
  5
1B40A
  8
ALPHA
 10
1748.1357
 20
747.85513
 30
0.0
  0
VERTEX
  5
1B40B
  8
ALPHA
 10
1748.243216
 20
747.307198
 30
0.0
  0
VERTEX
  5
1B40C
  8
ALPHA
 10
1748.552245
 20
746.838043
 30
0.0
  0
VERTEX
  5
1B40D
  8
ALPHA
 10
1749.024043
 20
746.518329
 30
0.0
  0
VERTEX
  5
1B40E
  8
ALPHA
 10
1749.5857
 20
746.40513
 30
0.0
  0
SEQEND
  5
1B40F
  8
ALPHA
  0
LINE
  5
1845A
  8
ALPHA
 10
1749.5857
 20
749.30513
 30
0.0
 11
1749.5857
 21
749.409945
 31
0.0
  0
LINE
  5
1845B
  8
ALPHA
 10
1749.5857
 20
741.80513
 30
0.0
 11
1749.5857
 21
741.909945
 31
0.0
  0
LINE
  5
1845C
  8
ALPHA
 10
1749.5857
 20
738.90513
 30
0.0
 11
1749.5857
 21
738.800314
 31
0.0
  0
LINE
  5
1845D
  8
ALPHA
 10
1749.5857
 20
746.40513
 30
0.0
 11
1749.5857
 21
746.300314
 31
0.0
  0
POLYLINE
  5
1845E
  8
ALPHA
 66
     1
 10
0.0
 20
0.0
 30
0.0
  0
VERTEX
  5
1B410
  8
ALPHA
 10
1749.5857
 20
741.909945
 30
0.0
  0
VERTEX
  5
1B411
  8
ALPHA
 10
1748.983759
 20
741.788656
 30
0.0
  0
VERTEX
  5
1B412
  8
ALPHA
 10
1748.478515
 20
741.446631
 30
0.0
  0
VERTEX
  5
1B413
  8
ALPHA
 10
1748.14639
 20
740.942967
 30
0.0
  0
VERTEX
  5
1B414
  8
ALPHA
 10
1748.03098
 20
740.35513
 30
0.0
  0
VERTEX
  5
1B415
  8
ALPHA
 10
1748.14639
 20
739.767292
 30
0.0
  0
VERTEX
  5
1B416
  8
ALPHA
 10
1748.478515
 20
739.263629
 30
0.0
  0
VERTEX
  5
1B417
  8
ALPHA
 10
1748.983759
 20
738.921604
 30
0.0
  0
VERTEX
  5
1B418
  8
ALPHA
 10
1749.5857
 20
738.800314
 30
0.0
  0
SEQEND
  5
1B419
  8
ALPHA
  0
POLYLINE
  5
18469
  8
ALPHA
 66
     1
 10
0.0
 20
0.0
 30
0.0
  0
VERTEX
  5
1B41A
  8
ALPHA
 10
1749.5857
 20
741.80513
 30
0.0
  0
VERTEX
  5
1B41B
  8
ALPHA
 10
1749.024043
 20
741.69193
 30
0.0
  0
VERTEX
  5
1B41C
  8
ALPHA
 10
1748.552245
 20
741.372216
 30
0.0
  0
VERTEX
  5
1B41D
  8
ALPHA
 10
1748.243216
 20
740.903062
 30
0.0
  0
VERTEX
  5
1B41E
  8
ALPHA
 10
1748.1357
 20
740.35513
 30
0.0
  0
VERTEX
  5
1B41F
  8
ALPHA
 10
1748.243216
 20
739.807198
 30
0.0
  0
VERTEX
  5
1B420
  8
ALPHA
 10
1748.552245
 20
739.338043
 30
0.0
  0
VERTEX
  5
1B421
  8
ALPHA
 10
1749.024043
 20
739.018329
 30
0.0
  0
VERTEX
  5
1B422
  8
ALPHA
 10
1749.5857
 20
738.90513
 30
0.0
  0
SEQEND
  5
1B423
  8
ALPHA
  0
LINE
  5
18474
  8
ALPHA
 10
1765.6857
 20
756.909945
 30
0.0
 11
1749.5857
 21
756.909945
 31
0.0
  0
LINE
  5
18475
  8
ALPHA
 10
1765.6857
 20
756.80513
 30
0.0
 11
1749.5857
 21
756.80513
 31
0.0
  0
LINE
  5
18476
  8
ALPHA
 10
1749.5857
 20
753.90513
 30
0.0
 11
1765.6857
 21
753.90513
 31
0.0
  0
LINE
  5
18477
  8
ALPHA
 10
1749.5857
 20
753.800314
 30
0.0
 11
1765.6857
 21
753.800314
 31
0.0
  0
LINE
  5
18478
  8
ALPHA
 10
1754.9857
 20
753.90513
 30
0.0
 11
1757.8857
 21
756.80513
 31
0.0
  0
POLYLINE
  5
18479
  8
ALPHA
 66
     1
 10
0.0
 20
0.0
 30
0.0
  0
VERTEX
  5
1B424
  8
ALPHA
 10
1765.6857
 20
753.800314
 30
0.0
  0
VERTEX
  5
1B425
  8
ALPHA
 10
1766.2877
 20
753.921548
 30
0.0
  0
VERTEX
  5
1B426
  8
ALPHA
 10
1766.793008
 20
754.263559
 30
0.0
  0
VERTEX
  5
1B427
  8
ALPHA
 10
1767.125183
 20
754.767248
 30
0.0
  0
VERTEX
  5
1B428
  8
ALPHA
 10
1767.240611
 20
755.35513
 30
0.0
  0
VERTEX
  5
1B429
  8
ALPHA
 10
1767.125183
 20
755.943012
 30
0.0
  0
VERTEX
  5
1B42A
  8
ALPHA
 10
1766.793008
 20
756.446701
 30
0.0
  0
VERTEX
  5
1B42B
  8
ALPHA
 10
1766.2877
 20
756.788712
 30
0.0
  0
VERTEX
  5
1B42C
  8
ALPHA
 10
1765.6857
 20
756.909945
 30
0.0
  0
SEQEND
  5
1B42D
  8
ALPHA
  0
POLYLINE
  5
18484
  8
ALPHA
 66
     1
 10
0.0
 20
0.0
 30
0.0
  0
VERTEX
  5
1B42E
  8
ALPHA
 10
1765.6857
 20
753.90513
 30
0.0
  0
VERTEX
  5
1B42F
  8
ALPHA
 10
1766.247357
 20
754.018329
 30
0.0
  0
VERTEX
  5
1B430
  8
ALPHA
 10
1766.719155
 20
754.338043
 30
0.0
  0
VERTEX
  5
1B431
  8
ALPHA
 10
1767.028183
 20
754.807198
 30
0.0
  0
VERTEX
  5
1B432
  8
ALPHA
 10
1767.1357
 20
755.35513
 30
0.0
  0
VERTEX
  5
1B433
  8
ALPHA
 10
1767.028183
 20
755.903062
 30
0.0
  0
VERTEX
  5
1B434
  8
ALPHA
 10
1766.719155
 20
756.372216
 30
0.0
  0
VERTEX
  5
1B435
  8
ALPHA
 10
1766.247357
 20
756.69193
 30
0.0
  0
VERTEX
  5
1B436
  8
ALPHA
 10
1765.6857
 20
756.80513
 30
0.0
  0
SEQEND
  5
1B437
  8
ALPHA
  0
LINE
  5
1848F
  8
ALPHA
 10
1765.6857
 20
753.90513
 30
0.0
 11
1765.6857
 21
753.800314
 31
0.0
  0
LINE
  5
18490
  8
ALPHA
 10
1765.6857
 20
756.80513
 30
0.0
 11
1765.6857
 21
756.909945
 31
0.0
  0
POLYLINE
  5
18491
  8
ALPHA
 66
     1
 10
0.0
 20
0.0
 30
0.0
  0
VERTEX
  5
1B438
  8
ALPHA
 10
1768.113735
 20
767.278729
 30
0.0
  0
VERTEX
  5
1B439
  8
ALPHA
 10
1768.117621
 20
767.280227
 30
0.0
  0
VERTEX
  5
1B43A
  8
ALPHA
 10
1768.128184
 20
767.294953
 30
0.0
  0
SEQEND
  5
1B43B
  8
ALPHA
  0
LINE
  5
18496
  8
ALPHA
 10
1768.128184
 20
767.294953
 30
0.0
 11
1768.138232
 21
767.30513
 31
0.0
  0
POLYLINE
  5
18497
  8
ALPHA
 66
     1
 10
0.0
 20
0.0
 30
0.0
  0
VERTEX
  5
1B43C
  8
ALPHA
 10
1768.105937
 20
765.581314
 30
0.0
  0
VERTEX
  5
1B43D
  8
ALPHA
 10
1768.102944
 20
765.575638
 30
0.0
  0
VERTEX
  5
1B43E
  8
ALPHA
 10
1768.101694
 20
765.55984
 30
0.0
  0
SEQEND
  5
1B43F
  8
ALPHA
  0
LINE
  5
1849C
  8
ALPHA
 10
1768.127325
 20
767.554044
 30
0.0
 11
1768.101678
 21
767.350279
 31
0.0
  0
POLYLINE
  5
1849D
  8
ALPHA
 66
     1
 10
0.0
 20
0.0
 30
0.0
  0
VERTEX
  5
1B440
  8
ALPHA
 10
1768.102043
 20
765.584344
 30
0.0
  0
VERTEX
  5
1B441
  8
ALPHA
 10
1768.103994
 20
765.600449
 30
0.0
  0
VERTEX
  5
1B442
  8
ALPHA
 10
1768.1076
 20
765.607054
 30
0.0
  0
VERTEX
  5
1B443
  8
ALPHA
 10
1768.10825
 20
765.607162
 30
0.0
  0
SEQEND
  5
1B444
  8
ALPHA
  0
POLYLINE
  5
184A3
  8
ALPHA
 66
     1
 10
0.0
 20
0.0
 30
0.0
  0
VERTEX
  5
1B445
  8
ALPHA
 10
1768.150737
 20
765.607162
 30
0.0
  0
VERTEX
  5
1B446
  8
ALPHA
 10
1768.15571
 20
765.648529
 30
0.0
  0
VERTEX
  5
1B447
  8
ALPHA
 10
1768.158739
 20
765.714554
 30
0.0
  0
VERTEX
  5
1B448
  8
ALPHA
 10
1768.158742
 20
765.720479
 30
0.0
  0
SEQEND
  5
1B449
  8
ALPHA
  0
LINE
  5
184A9
  8
ALPHA
 10
1768.128184
 20
767.294953
 30
0.0
 11
1768.146656
 21
767.294953
 31
0.0
  0
LINE
  5
184AA
  8
ALPHA
 10
1768.150488
 20
767.278729
 30
0.0
 11
1768.114079
 21
767.278729
 31
0.0
  0
LINE
  5
184AB
  8
ALPHA
 10
1768.15649
 20
765.607162
 30
0.0
 11
1768.108342
 21
765.607162
 31
0.0
  0
LINE
  5
184AC
  8
ALPHA
 10
1768.154784
 20
765.581314
 30
0.0
 11
1768.105958
 21
765.581314
 31
0.0
  0
LINE
  5
184AD
  8
ALPHA
 10
1768.116524
 20
765.558564
 30
0.0
 11
1768.151492
 21
765.558564
 31
0.0
  0
POLYLINE
  5
184AE
  8
ALPHA
 66
     1
 10
0.0
 20
0.0
 30
0.0
  0
VERTEX
  5
1B44A
  8
ALPHA
 10
1768.15818
 20
765.632771
 30
0.0
  0
VERTEX
  5
1B44B
  8
ALPHA
 10
1768.154449
 20
765.576233
 30
0.0
  0
VERTEX
  5
1B44C
  8
ALPHA
 10
1768.1481
 20
765.538289
 30
0.0
  0
VERTEX
  5
1B44D
  8
ALPHA
 10
1768.139162
 20
765.521309
 30
0.0
  0
VERTEX
  5
1B44E
  8
ALPHA
 10
1768.137025
 20
765.52077
 30
0.0
  0
SEQEND
  5
1B44F
  8
ALPHA
  0
POLYLINE
  5
184B5
  8
ALPHA
 66
     1
 10
0.0
 20
0.0
 30
0.0
  0
VERTEX
  5
1B450
  8
ALPHA
 10
1768.101678
 20
767.350279
 30
0.0
  0
VERTEX
  5
1B451
  8
ALPHA
 10
1768.102234
 20
767.318103
 30
0.0
  0
VERTEX
  5
1B452
  8
ALPHA
 10
1768.104858
 20
767.294333
 30
0.0
  0
VERTEX
  5
1B453
  8
ALPHA
 10
1768.109885
 20
767.280828
 30
0.0
  0
VERTEX
  5
1B454
  8
ALPHA
 10
1768.113735
 20
767.278729
 30
0.0
  0
SEQEND
  5
1B455
  8
ALPHA
  0
POLYLINE
  5
184BC
  8
ALPHA
 66
     1
 10
0.0
 20
0.0
 30
0.0
  0
VERTEX
  5
1B456
  8
ALPHA
 10
1768.123854
 20
766.141599
 30
0.0
  0
VERTEX
  5
1B457
  8
ALPHA
 10
1768.113592
 20
766.217767
 30
0.0
  0
VERTEX
  5
1B458
  8
ALPHA
 10
1768.106688
 20
766.297684
 30
0.0
  0
VERTEX
  5
1B459
  8
ALPHA
 10
1768.1027
 20
766.382045
 30
0.0
  0
VERTEX
  5
1B45A
  8
ALPHA
 10
1768.101677
 20
766.469511
 30
0.0
  0
VERTEX
  5
1B45B
  8
ALPHA
 10
1768.103687
 20
766.556307
 30
0.0
  0
VERTEX
  5
1B45C
  8
ALPHA
 10
1768.108625
 20
766.639273
 30
0.0
  0
VERTEX
  5
1B45D
  8
ALPHA
 10
1768.116562
 20
766.717983
 30
0.0
  0
VERTEX
  5
1B45E
  8
ALPHA
 10
1768.128184
 20
766.793123
 30
0.0
  0
SEQEND
  5
1B45F
  8
ALPHA
  0
POLYLINE
  5
184C7
  8
ALPHA
 66
     1
 10
0.0
 20
0.0
 30
0.0
  0
VERTEX
  5
1B460
  8
ALPHA
 10
1768.123854
 20
766.141599
 30
0.0
  0
VERTEX
  5
1B461
  8
ALPHA
 10
1768.135067
 20
766.063384
 30
0.0
  0
VERTEX
  5
1B462
  8
ALPHA
 10
1768.144893
 20
765.973041
 30
0.0
  0
VERTEX
  5
1B463
  8
ALPHA
 10
1768.152392
 20
765.879096
 30
0.0
  0
VERTEX
  5
1B464
  8
ALPHA
 10
1768.157131
 20
765.789103
 30
0.0
  0
VERTEX
  5
1B465
  8
ALPHA
 10
1768.159106
 20
765.704953
 30
0.0
  0
VERTEX
  5
1B466
  8
ALPHA
 10
1768.15818
 20
765.632771
 30
0.0
  0
SEQEND
  5
1B467
  8
ALPHA
  0
POLYLINE
  5
184D0
  8
ALPHA
 66
     1
 10
0.0
 20
0.0
 30
0.0
  0
VERTEX
  5
1B468
  8
ALPHA
 10
1768.147055
 20
767.294471
 30
0.0
  0
VERTEX
  5
1B469
  8
ALPHA
 10
1768.153622
 20
767.264354
 30
0.0
  0
VERTEX
  5
1B46A
  8
ALPHA
 10
1768.157694
 20
767.217868
 30
0.0
  0
VERTEX
  5
1B46B
  8
ALPHA
 10
1768.159152
 20
767.155339
 30
0.0
  0
VERTEX
  5
1B46C
  8
ALPHA
 10
1768.157709
 20
767.082353
 30
0.0
  0
VERTEX
  5
1B46D
  8
ALPHA
 10
1768.153639
 20
767.00654
 30
0.0
  0
VERTEX
  5
1B46E
  8
ALPHA
 10
1768.147025
 20
766.928799
 30
0.0
  0
VERTEX
  5
1B46F
  8
ALPHA
 10
1768.138239
 20
766.85518
 30
0.0
  0
VERTEX
  5
1B470
  8
ALPHA
 10
1768.128184
 20
766.793123
 30
0.0
  0
SEQEND
  5
1B471
  8
ALPHA
  0
POLYLINE
  5
184DB
  8
ALPHA
 66
     1
 10
0.0
 20
0.0
 30
0.0
  0
VERTEX
  5
1B472
  8
ALPHA
 10
1768.137025
 20
765.52077
 30
0.0
  0
VERTEX
  5
1B473
  8
ALPHA
 10
1768.128288
 20
765.528411
 30
0.0
  0
VERTEX
  5
1B474
  8
ALPHA
 10
1768.116524
 20
765.558564
 30
0.0
  0
SEQEND
  5
1B475
  8
ALPHA
  0
LINE
  5
184E0
  8
ALPHA
 10
1768.138232
 20
767.30513
 30
0.0
 11
1768.147055
 21
767.294471
 31
0.0
  0
POLYLINE
  5
184E1
  8
ALPHA
 66
     1
 10
0.0
 20
0.0
 30
0.0
  0
VERTEX
  5
1B476
  8
ALPHA
 10
1768.116524
 20
765.558564
 30
0.0
  0
VERTEX
  5
1B477
  8
ALPHA
 10
1768.110363
 20
765.575945
 30
0.0
  0
VERTEX
  5
1B478
  8
ALPHA
 10
1768.105937
 20
765.581314
 30
0.0
  0
SEQEND
  5
1B479
  8
ALPHA
  0
POLYLINE
  5
184E6
  8
ALPHA
 66
     1
 10
0.0
 20
0.0
 30
0.0
  0
VERTEX
  5
1B47A
  8
ALPHA
 10
1743.263183
 20
761.545309
 30
0.0
  0
VERTEX
  5
1B47B
  8
ALPHA
 10
1743.102851
 20
760.783007
 30
0.0
  0
VERTEX
  5
1B47C
  8
ALPHA
 10
1742.919707
 20
760.298009
 30
0.0
  0
VERTEX
  5
1B47D
  8
ALPHA
 10
1742.726482
 20
760.129461
 30
0.0
  0
SEQEND
  5
1B47E
  8
ALPHA
  0
POLYLINE
  5
184EC
  8
ALPHA
 66
     1
 10
0.0
 20
0.0
 30
0.0
  0
VERTEX
  5
1B47F
  8
ALPHA
 10
1742.726482
 20
760.129461
 30
0.0
  0
VERTEX
  5
1B480
  8
ALPHA
 10
1742.533901
 20
760.296229
 30
0.0
  0
VERTEX
  5
1B481
  8
ALPHA
 10
1742.357624
 20
760.790154
 30
0.0
  0
VERTEX
  5
1B482
  8
ALPHA
 10
1742.208635
 20
761.570563
 30
0.0
  0
VERTEX
  5
1B483
  8
ALPHA
 10
1742.094091
 20
762.58328
 30
0.0
  0
VERTEX
  5
1B484
  8
ALPHA
 10
1742.018888
 20
763.766136
 30
0.0
  0
VERTEX
  5
1B485
  8
ALPHA
 10
1741.986386
 20
765.047558
 30
0.0
  0
VERTEX
  5
1B486
  8
ALPHA
 10
1741.998104
 20
766.347392
 30
0.0
  0
VERTEX
  5
1B487
  8
ALPHA
 10
1742.052678
 20
767.573605
 30
0.0
  0
VERTEX
  5
1B488
  8
ALPHA
 10
1742.144607
 20
768.639864
 30
0.0
  0
VERTEX
  5
1B489
  8
ALPHA
 10
1742.264828
 20
769.485105
 30
0.0
  0
VERTEX
  5
1B48A
  8
ALPHA
 10
1742.401538
 20
770.079268
 30
0.0
  0
SEQEND
  5
1B48B
  8
ALPHA
  0
POLYLINE
  5
184FA
  8
ALPHA
 66
     1
 10
0.0
 20
0.0
 30
0.0
  0
VERTEX
  5
1B48C
  8
ALPHA
 10
1743.093116
 20
769.777852
 30
0.0
  0
VERTEX
  5
1B48D
  8
ALPHA
 10
1743.138625
 20
769.619933
 30
0.0
  0
VERTEX
  5
1B48E
  8
ALPHA
 10
1743.240814
 20
769.14272
 30
0.0
  0
VERTEX
  5
1B48F
  8
ALPHA
 10
1743.332216
 20
768.534728
 30
0.0
  0
VERTEX
  5
1B490
  8
ALPHA
 10
1743.406211
 20
767.838253
 30
0.0
  0
VERTEX
  5
1B491
  8
ALPHA
 10
1743.460362
 20
767.086764
 30
0.0
  0
VERTEX
  5
1B492
  8
ALPHA
 10
1743.494062
 20
766.309234
 30
0.0
  0
VERTEX
  5
1B493
  8
ALPHA
 10
1743.507865
 20
765.52944
 30
0.0
  0
VERTEX
  5
1B494
  8
ALPHA
 10
1743.502935
 20
764.76732
 30
0.0
  0
VERTEX
  5
1B495
  8
ALPHA
 10
1743.481004
 20
764.039527
 30
0.0
  0
VERTEX
  5
1B496
  8
ALPHA
 10
1743.44403
 20
763.360605
 30
0.0
  0
VERTEX
  5
1B497
  8
ALPHA
 10
1743.394416
 20
762.742661
 30
0.0
  0
VERTEX
  5
1B498
  8
ALPHA
 10
1743.33467
 20
762.195026
 30
0.0
  0
VERTEX
  5
1B499
  8
ALPHA
 10
1743.267732
 20
761.725551
 30
0.0
  0
VERTEX
  5
1B49A
  8
ALPHA
 10
1743.197012
 20
761.340887
 30
0.0
  0
VERTEX
  5
1B49B
  8
ALPHA
 10
1743.127136
 20
761.04741
 30
0.0
  0
VERTEX
  5
1B49C
  8
ALPHA
 10
1743.0677
 20
760.858783
 30
0.0
  0
VERTEX
  5
1B49D
  8
ALPHA
 10
1743.0576
 20
760.832716
 30
0.0
  0
SEQEND
  5
1B49E
  8
ALPHA
  0
POLYLINE
  5
1850E
  8
ALPHA
 66
     1
 10
0.0
 20
0.0
 30
0.0
  0
VERTEX
  5
1B49F
  8
ALPHA
 10
1749.5857
 20
756.909945
 30
0.0
  0
VERTEX
  5
1B4A0
  8
ALPHA
 10
1748.983759
 20
756.788656
 30
0.0
  0
VERTEX
  5
1B4A1
  8
ALPHA
 10
1748.478515
 20
756.446631
 30
0.0
  0
VERTEX
  5
1B4A2
  8
ALPHA
 10
1748.14639
 20
755.942967
 30
0.0
  0
VERTEX
  5
1B4A3
  8
ALPHA
 10
1748.03098
 20
755.35513
 30
0.0
  0
VERTEX
  5
1B4A4
  8
ALPHA
 10
1748.14639
 20
754.767292
 30
0.0
  0
VERTEX
  5
1B4A5
  8
ALPHA
 10
1748.478515
 20
754.263629
 30
0.0
  0
VERTEX
  5
1B4A6
  8
ALPHA
 10
1748.983759
 20
753.921604
 30
0.0
  0
VERTEX
  5
1B4A7
  8
ALPHA
 10
1749.5857
 20
753.800314
 30
0.0
  0
SEQEND
  5
1B4A8
  8
ALPHA
  0
POLYLINE
  5
18519
  8
ALPHA
 66
     1
 10
0.0
 20
0.0
 30
0.0
  0
VERTEX
  5
1B4A9
  8
ALPHA
 10
1749.5857
 20
756.80513
 30
0.0
  0
VERTEX
  5
1B4AA
  8
ALPHA
 10
1749.024043
 20
756.69193
 30
0.0
  0
VERTEX
  5
1B4AB
  8
ALPHA
 10
1748.552245
 20
756.372216
 30
0.0
  0
VERTEX
  5
1B4AC
  8
ALPHA
 10
1748.243216
 20
755.903062
 30
0.0
  0
VERTEX
  5
1B4AD
  8
ALPHA
 10
1748.1357
 20
755.35513
 30
0.0
  0
VERTEX
  5
1B4AE
  8
ALPHA
 10
1748.243216
 20
754.807198
 30
0.0
  0
VERTEX
  5
1B4AF
  8
ALPHA
 10
1748.552245
 20
754.338043
 30
0.0
  0
VERTEX
  5
1B4B0
  8
ALPHA
 10
1749.024043
 20
754.018329
 30
0.0
  0
VERTEX
  5
1B4B1
  8
ALPHA
 10
1749.5857
 20
753.90513
 30
0.0
  0
SEQEND
  5
1B4B2
  8
ALPHA
  0
LINE
  5
18524
  8
ALPHA
 10
1749.5857
 20
756.80513
 30
0.0
 11
1749.5857
 21
756.909945
 31
0.0
  0
LINE
  5
18525
  8
ALPHA
 10
1749.5857
 20
753.90513
 30
0.0
 11
1749.5857
 21
753.800314
 31
0.0
  0
ARC
  5
18526
  8
ALPHA
 10
1738.9357
 20
769.992848
 30
0.0
 40
1.5
 50
91.0
 51
180.0
  0
POLYLINE
  5
18527
  8
ALPHA
 66
     1
 10
0.0
 20
0.0
 30
0.0
  0
VERTEX
  5
1B4B3
  8
ALPHA
 10
1742.945406
 20
771.108081
 30
0.0
  0
VERTEX
  5
1B4B4
  8
ALPHA
 10
1743.189116
 20
771.289596
 30
0.0
  0
VERTEX
  5
1B4B5
  8
ALPHA
 10
1743.422682
 20
771.413028
 30
0.0
  0
VERTEX
  5
1B4B6
  8
ALPHA
 10
1743.634448
 20
771.492044
 30
0.0
  0
VERTEX
  5
1B4B7
  8
ALPHA
 10
1743.809955
 20
771.536818
 30
0.0
  0
VERTEX
  5
1B4B8
  8
ALPHA
 10
1743.905835
 20
771.551368
 30
0.0
  0
SEQEND
  5
1B4B9
  8
ALPHA
  0
POLYLINE
  5
1852F
  8
ALPHA
 66
     1
 10
0.0
 20
0.0
 30
0.0
  0
VERTEX
  5
1B4BA
  8
ALPHA
 10
1743.434479
 20
771.291987
 30
0.0
  0
VERTEX
  5
1B4BB
  8
ALPHA
 10
1743.415364
 20
771.273839
 30
0.0
  0
VERTEX
  5
1B4BC
  8
ALPHA
 10
1743.386392
 20
771.244881
 30
0.0
  0
VERTEX
  5
1B4BD
  8
ALPHA
 10
1743.356159
 20
771.212575
 30
0.0
  0
VERTEX
  5
1B4BE
  8
ALPHA
 10
1743.325867
 20
771.177885
 30
0.0
  0
VERTEX
  5
1B4BF
  8
ALPHA
 10
1743.294008
 20
771.138581
 30
0.0
  0
VERTEX
  5
1B4C0
  8
ALPHA
 10
1743.260859
 20
771.094124
 30
0.0
  0
VERTEX
  5
1B4C1
  8
ALPHA
 10
1743.226789
 20
771.043894
 30
0.0
  0
VERTEX
  5
1B4C2
  8
ALPHA
 10
1743.1925
 20
770.987558
 30
0.0
  0
VERTEX
  5
1B4C3
  8
ALPHA
 10
1743.160023
 20
770.92731
 30
0.0
  0
VERTEX
  5
1B4C4
  8
ALPHA
 10
1743.130181
 20
770.864146
 30
0.0
  0
VERTEX
  5
1B4C5
  8
ALPHA
 10
1743.103253
 20
770.798325
 30
0.0
  0
VERTEX
  5
1B4C6
  8
ALPHA
 10
1743.079421
 20
770.729976
 30
0.0
  0
SEQEND
  5
1B4C7
  8
ALPHA
  0
POLYLINE
  5
1853E
  8
ALPHA
 66
     1
 10
0.0
 20
0.0
 30
0.0
  0
VERTEX
  5
1B4C8
  8
ALPHA
 10
1743.905837
 20
771.551361
 30
0.0
  0
VERTEX
  5
1B4C9
  8
ALPHA
 10
1743.854572
 20
771.52954
 30
0.0
  0
VERTEX
  5
1B4CA
  8
ALPHA
 10
1743.709564
 20
771.464053
 30
0.0
  0
VERTEX
  5
1B4CB
  8
ALPHA
 10
1743.534867
 20
771.348091
 30
0.0
  0
VERTEX
  5
1B4CC
  8
ALPHA
 10
1743.353256
 20
771.168012
 30
0.0
  0
VERTEX
  5
1B4CD
  8
ALPHA
 10
1743.188024
 20
770.907231
 30
0.0
  0
SEQEND
  5
1B4CE
  8
ALPHA
  0
POLYLINE
  5
18546
  8
ALPHA
 66
     1
 10
0.0
 20
0.0
 30
0.0
  0
VERTEX
  5
1B4CF
  8
ALPHA
 10
1743.905837
 20
771.551361
 30
0.0
  0
VERTEX
  5
1B4D0
  8
ALPHA
 10
1743.531888
 20
771.382824
 30
0.0
  0
VERTEX
  5
1B4D1
  8
ALPHA
 10
1743.257327
 20
771.076282
 30
0.0
  0
VERTEX
  5
1B4D2
  8
ALPHA
 10
1743.128992
 20
770.684027
 30
0.0
  0
SEQEND
  5
1B4D3
  8
ALPHA
  0
POLYLINE
  5
1854C
  8
ALPHA
 66
     1
 10
0.0
 20
0.0
 30
0.0
  0
VERTEX
  5
1B4D4
  8
ALPHA
 10
1743.188024
 20
770.907231
 30
0.0
  0
VERTEX
  5
1B4D5
  8
ALPHA
 10
1743.070842
 20
770.54741
 30
0.0
  0
VERTEX
  5
1B4D6
  8
ALPHA
 10
1743.054139
 20
770.090624
 30
0.0
  0
SEQEND
  5
1B4D7
  8
ALPHA
  0
POLYLINE
  5
18551
  8
ALPHA
 66
     1
 10
0.0
 20
0.0
 30
0.0
  0
VERTEX
  5
1B4D8
  8
ALPHA
 10
1743.079421
 20
770.729976
 30
0.0
  0
VERTEX
  5
1B4D9
  8
ALPHA
 10
1743.058848
 20
770.659187
 30
0.0
  0
VERTEX
  5
1B4DA
  8
ALPHA
 10
1743.041646
 20
770.585765
 30
0.0
  0
VERTEX
  5
1B4DB
  8
ALPHA
 10
1743.028062
 20
770.509895
 30
0.0
  0
VERTEX
  5
1B4DC
  8
ALPHA
 10
1743.018335
 20
770.431884
 30
0.0
  0
VERTEX
  5
1B4DD
  8
ALPHA
 10
1743.012661
 20
770.352089
 30
0.0
  0
VERTEX
  5
1B4DE
  8
ALPHA
 10
1743.011186
 20
770.270566
 30
0.0
  0
VERTEX
  5
1B4DF
  8
ALPHA
 10
1743.014118
 20
770.187148
 30
0.0
  0
VERTEX
  5
1B4E0
  8
ALPHA
 10
1743.021661
 20
770.102355
 30
0.0
  0
VERTEX
  5
1B4E1
  8
ALPHA
 10
1743.03393
 20
770.016725
 30
0.0
  0
VERTEX
  5
1B4E2
  8
ALPHA
 10
1743.050946
 20
769.930785
 30
0.0
  0
VERTEX
  5
1B4E3
  8
ALPHA
 10
1743.072833
 20
769.844397
 30
0.0
  0
SEQEND
  5
1B4E4
  8
ALPHA
  0
POLYLINE
  5
1855F
  8
ALPHA
 66
     1
 10
0.0
 20
0.0
 30
0.0
  0
VERTEX
  5
1B4E5
  8
ALPHA
 10
1745.056777
 20
771.59992
 30
0.0
  0
VERTEX
  5
1B4E6
  8
ALPHA
 10
1744.495398
 20
771.477413
 30
0.0
  0
VERTEX
  5
1B4E7
  8
ALPHA
 10
1744.022661
 20
771.148309
 30
0.0
  0
VERTEX
  5
1B4E8
  8
ALPHA
 10
1743.709033
 20
770.662046
 30
0.0
  0
VERTEX
  5
1B4E9
  8
ALPHA
 10
1743.601453
 20
770.100149
 30
0.0
  0
SEQEND
  5
1B4EA
  8
ALPHA
  0
POLYLINE
  5
18566
  8
ALPHA
 66
     1
 10
0.0
 20
0.0
 30
0.0
  0
VERTEX
  5
1B4EB
  8
ALPHA
 10
1742.401555
 20
770.079268
 30
0.0
  0
VERTEX
  5
1B4EC
  8
ALPHA
 10
1742.509898
 20
770.505047
 30
0.0
  0
VERTEX
  5
1B4ED
  8
ALPHA
 10
1742.708876
 20
770.851998
 30
0.0
  0
VERTEX
  5
1B4EE
  8
ALPHA
 10
1742.945406
 20
771.108081
 30
0.0
  0
SEQEND
  5
1B4EF
  8
ALPHA
  0
POLYLINE
  5
1856C
  8
ALPHA
 66
     1
 10
0.0
 20
0.0
 30
0.0
  0
VERTEX
  5
1B4F0
  8
ALPHA
 10
1739.18991
 20
770.023376
 30
0.0
  0
VERTEX
  5
1B4F1
  8
ALPHA
 10
1739.30125
 20
770.586362
 30
0.0
  0
VERTEX
  5
1B4F2
  8
ALPHA
 10
1739.622929
 20
771.071082
 30
0.0
  0
VERTEX
  5
1B4F3
  8
ALPHA
 10
1740.107053
 20
771.3998
 30
0.0
  0
VERTEX
  5
1B4F4
  8
ALPHA
 10
1740.68679
 20
771.523642
 30
0.0
  0
SEQEND
  5
1B4F5
  8
ALPHA
  0
POLYLINE
  5
18573
  8
ALPHA
 66
     1
 10
0.0
 20
0.0
 30
0.0
  0
VERTEX
  5
1B4F6
  8
ALPHA
 10
1745.056777
 20
771.59992
 30
0.0
  0
VERTEX
  5
1B4F7
  8
ALPHA
 10
1745.048743
 20
771.485103
 30
0.0
  0
VERTEX
  5
1B4F8
  8
ALPHA
 10
1745.045939
 20
771.158771
 30
0.0
  0
VERTEX
  5
1B4F9
  8
ALPHA
 10
1745.048792
 20
770.670413
 30
0.0
  0
VERTEX
  5
1B4FA
  8
ALPHA
 10
1745.056777
 20
770.100149
 30
0.0
  0
SEQEND
  5
1B4FB
  8
ALPHA
  0
LINE
  5
1857A
  8
ALPHA
 10
1743.05418
 20
770.090625
 30
0.0
 11
1743.091388
 21
769.783141
 31
0.0
  0
POLYLINE
  5
1857B
  8
ALPHA
 66
     1
 10
0.0
 20
0.0
 30
0.0
  0
VERTEX
  5
1B4FC
  8
ALPHA
 10
1743.271823
 20
769.111681
 30
0.0
  0
VERTEX
  5
1B4FD
  8
ALPHA
 10
1743.373456
 20
768.342138
 30
0.0
  0
VERTEX
  5
1B4FE
  8
ALPHA
 10
1743.457405
 20
767.36255
 30
0.0
  0
VERTEX
  5
1B4FF
  8
ALPHA
 10
1743.509586
 20
766.202395
 30
0.0
  0
VERTEX
  5
1B500
  8
ALPHA
 10
1743.517973
 20
764.947405
 30
0.0
  0
VERTEX
  5
1B501
  8
ALPHA
 10
1743.477854
 20
763.694991
 30
0.0
  0
VERTEX
  5
1B502
  8
ALPHA
 10
1743.390901
 20
762.535598
 30
0.0
  0
VERTEX
  5
1B503
  8
ALPHA
 10
1743.263183
 20
761.545309
 30
0.0
  0
SEQEND
  5
1B504
  8
ALPHA
  0
LINE
  5
18585
  8
ALPHA
 10
1745.056777
 20
770.100149
 30
0.0
 11
1743.601453
 21
770.100149
 31
0.0
  0
LINE
  5
18586
  8
ALPHA
 10
1739.18991
 20
770.023376
 30
0.0
 11
1742.401538
 21
770.079268
 31
0.0
  0
LINE
  5
18587
  8
ALPHA
 10
1743.601453
 20
770.100147
 30
0.0
 11
1743.054178
 21
770.090625
 31
0.0
  0
LINE
  5
18588
  8
ALPHA
 10
1743.162952
 20
769.685972
 30
0.0
 11
1743.271823
 21
769.111681
 31
0.0
  0
POLYLINE
  5
18589
  8
ALPHA
 66
     1
 10
0.0
 20
0.0
 30
0.0
  0
VERTEX
  5
1B505
  8
ALPHA
 10
1743.285689
 20
761.851495
 30
0.0
  0
VERTEX
  5
1B506
  8
ALPHA
 10
1743.181038
 20
762.296759
 30
0.0
  0
VERTEX
  5
1B507
  8
ALPHA
 10
1743.06701
 20
763.115461
 30
0.0
  0
VERTEX
  5
1B508
  8
ALPHA
 10
1742.992175
 20
764.071191
 30
0.0
  0
VERTEX
  5
1B509
  8
ALPHA
 10
1742.959825
 20
765.106911
 30
0.0
  0
VERTEX
  5
1B50A
  8
ALPHA
 10
1742.971526
 20
766.15799
 30
0.0
  0
VERTEX
  5
1B50B
  8
ALPHA
 10
1743.025979
 20
767.149927
 30
0.0
  0
VERTEX
  5
1B50C
  8
ALPHA
 10
1743.117728
 20
768.012554
 30
0.0
  0
VERTEX
  5
1B50D
  8
ALPHA
 10
1743.237725
 20
768.69618
 30
0.0
  0
VERTEX
  5
1B50E
  8
ALPHA
 10
1743.283649
 20
768.85779
 30
0.0
  0
SEQEND
  5
1B50F
  8
ALPHA
  0
LINE
  5
18595
  8
ALPHA
 10
1743.054178
 20
770.090625
 30
0.0
 11
1743.162952
 21
769.685972
 31
0.0
  0
LINE
  5
18596
  8
ALPHA
 10
1742.90285
 20
769.31947
 30
0.0
 11
1743.223836
 21
769.222003
 31
0.0
  0
LINE
  5
18597
  8
ALPHA
 10
1743.072833
 20
769.844397
 30
0.0
 11
1743.091345
 21
769.783127
 31
0.0
  0
LINE
  5
18598
  8
ALPHA
 10
1743.091388
 20
769.783141
 30
0.0
 11
1743.093116
 21
769.777852
 31
0.0
  0
POLYLINE
  5
18599
  8
ALPHA
 66
     1
 10
0.0
 20
0.0
 30
0.0
  0
VERTEX
  5
1B510
  8
ALPHA
 10
1742.401555
 20
770.079268
 30
0.0
  0
VERTEX
  5
1B511
  8
ALPHA
 10
1742.550118
 20
769.646923
 30
0.0
  0
VERTEX
  5
1B512
  8
ALPHA
 10
1742.90285
 20
769.31947
 30
0.0
  0
SEQEND
  5
1B513
  8
ALPHA
  0
LINE
  5
1859E
  8
ALPHA
 10
1767.630312
 20
790.75513
 30
0.0
 11
1767.738878
 21
796.95513
 31
0.0
  0
LINE
  5
1859F
  8
ALPHA
 10
1765.014563
 20
772.85513
 30
0.0
 11
1765.435535
 21
796.972582
 31
0.0
  0
LINE
  5
185A0
  8
ALPHA
 10
1765.349807
 20
790.75513
 30
0.0
 11
1765.458337
 21
796.972582
 31
0.0
  0
LINE
  5
185A1
  8
ALPHA
 10
1765.628743
 20
796.95513
 30
0.0
 11
1765.520493
 21
790.75513
 31
0.0
  0
POLYLINE
  5
185A2
  8
ALPHA
 66
     1
 10
0.0
 20
0.0
 30
0.0
  0
VERTEX
  5
1B514
  8
ALPHA
 10
1768.437166
 20
784.30513
 30
0.0
  0
VERTEX
  5
1B515
  8
ALPHA
 10
1768.47874
 20
785.591533
 30
0.0
  0
VERTEX
  5
1B516
  8
ALPHA
 10
1768.547288
 20
786.795404
 30
0.0
  0
VERTEX
  5
1B517
  8
ALPHA
 10
1768.554682
 20
786.880123
 30
0.0
  0
SEQEND
  5
1B518
  8
ALPHA
  0
POLYLINE
  5
185A8
  8
ALPHA
 66
     1
 10
0.0
 20
0.0
 30
0.0
  0
VERTEX
  5
1B519
  8
ALPHA
 10
1767.457863
 20
784.322582
 30
0.0
  0
VERTEX
  5
1B51A
  8
ALPHA
 10
1767.499219
 20
785.843768
 30
0.0
  0
VERTEX
  5
1B51B
  8
ALPHA
 10
1767.567773
 20
787.275031
 30
0.0
  0
VERTEX
  5
1B51C
  8
ALPHA
 10
1767.659714
 20
788.52663
 30
0.0
  0
VERTEX
  5
1B51D
  8
ALPHA
 10
1767.770765
 20
789.53168
 30
0.0
  0
VERTEX
  5
1B51E
  8
ALPHA
 10
1767.895904
 20
790.235942
 30
0.0
  0
VERTEX
  5
1B51F
  8
ALPHA
 10
1768.029163
 20
790.598708
 30
0.0
  0
VERTEX
  5
1B520
  8
ALPHA
 10
1768.163015
 20
790.596394
 30
0.0
  0
VERTEX
  5
1B521
  8
ALPHA
 10
1768.28952
 20
790.229537
 30
0.0
  0
SEQEND
  5
1B522
  8
ALPHA
  0
POLYLINE
  5
185B3
  8
ALPHA
 66
     1
 10
0.0
 20
0.0
 30
0.0
  0
VERTEX
  5
1B523
  8
ALPHA
 10
1765.231185
 20
784.322582
 30
0.0
  0
VERTEX
  5
1B524
  8
ALPHA
 10
1765.259182
 20
785.852805
 30
0.0
  0
VERTEX
  5
1B525
  8
ALPHA
 10
1765.288362
 20
787.292383
 30
0.0
  0
VERTEX
  5
1B526
  8
ALPHA
 10
1765.317682
 20
788.553174
 30
0.0
  0
VERTEX
  5
1B527
  8
ALPHA
 10
1765.346574
 20
789.566587
 30
0.0
  0
VERTEX
  5
1B528
  8
ALPHA
 10
1765.37459
 20
790.277636
 30
0.0
  0
SEQEND
  5
1B529
  8
ALPHA
  0
LINE
  5
185BB
  8
ALPHA
 10
1765.436077
 20
784.743052
 30
0.0
 11
1765.428149
 21
784.270182
 31
0.0
  0
LINE
  5
185BC
  8
ALPHA
 10
1765.449475
 20
785.711224
 30
0.0
 11
1765.429337
 21
784.322582
 31
0.0
  0
POLYLINE
  5
185BD
  8
ALPHA
 66
     1
 10
0.0
 20
0.0
 30
0.0
  0
VERTEX
  5
1B52A
  8
ALPHA
 10
1768.28952
 20
790.229537
 30
0.0
  0
VERTEX
  5
1B52B
  8
ALPHA
 10
1768.400584
 20
789.522554
 30
0.0
  0
VERTEX
  5
1B52C
  8
ALPHA
 10
1768.489222
 20
788.516986
 30
0.0
  0
VERTEX
  5
1B52D
  8
ALPHA
 10
1768.549447
 20
787.267289
 30
0.0
  0
VERTEX
  5
1B52E
  8
ALPHA
 10
1768.576578
 20
785.839768
 30
0.0
  0
VERTEX
  5
1B52F
  8
ALPHA
 10
1768.567843
 20
784.322582
 30
0.0
  0
SEQEND
  5
1B530
  8
ALPHA
  0
POLYLINE
  5
185C5
  8
ALPHA
 66
     1
 10
0.0
 20
0.0
 30
0.0
  0
VERTEX
  5
1B531
  8
ALPHA
 10
1768.277773
 20
790.115355
 30
0.0
  0
VERTEX
  5
1B532
  8
ALPHA
 10
1768.27788
 20
790.114963
 30
0.0
  0
VERTEX
  5
1B533
  8
ALPHA
 10
1768.297322
 20
790.045719
 30
0.0
  0
VERTEX
  5
1B534
  8
ALPHA
 10
1768.330963
 20
789.886391
 30
0.0
  0
VERTEX
  5
1B535
  8
ALPHA
 10
1768.369429
 20
789.648886
 30
0.0
  0
VERTEX
  5
1B536
  8
ALPHA
 10
1768.408718
 20
789.338481
 30
0.0
  0
VERTEX
  5
1B537
  8
ALPHA
 10
1768.446684
 20
788.957762
 30
0.0
  0
VERTEX
  5
1B538
  8
ALPHA
 10
1768.481729
 20
788.509389
 30
0.0
  0
VERTEX
  5
1B539
  8
ALPHA
 10
1768.512563
 20
787.996656
 30
0.0
  0
VERTEX
  5
1B53A
  8
ALPHA
 10
1768.53806
 20
787.424419
 30
0.0
  0
VERTEX
  5
1B53B
  8
ALPHA
 10
1768.557161
 20
786.79894
 30
0.0
  0
VERTEX
  5
1B53C
  8
ALPHA
 10
1768.569066
 20
786.127699
 30
0.0
  0
VERTEX
  5
1B53D
  8
ALPHA
 10
1768.573031
 20
785.419537
 30
0.0
  0
VERTEX
  5
1B53E
  8
ALPHA
 10
1768.568571
 20
784.684554
 30
0.0
  0
VERTEX
  5
1B53F
  8
ALPHA
 10
1768.563248
 20
784.322633
 30
0.0
  0
SEQEND
  5
1B540
  8
ALPHA
  0
LINE
  5
185D6
  8
ALPHA
 10
1767.756467
 20
773.355129
 30
0.0
 11
1767.78523
 21
773.440235
 31
0.0
  0
LINE
  5
185D7
  8
ALPHA
 10
1767.7778
 20
777.355129
 30
0.0
 11
1767.749416
 21
777.270023
 31
0.0
  0
LINE
  5
185D8
  8
ALPHA
 10
1767.788712
 20
773.950874
 30
0.0
 11
1767.765414
 21
773.865769
 31
0.0
  0
LINE
  5
185D9
  8
ALPHA
 10
1767.745838
 20
776.759385
 30
0.0
 11
1767.768854
 21
776.844491
 31
0.0
  0
LINE
  5
185DA
  8
ALPHA
 10
1767.604994
 20
777.65513
 30
0.0
 11
1768.130192
 21
777.65513
 31
0.0
  0
LINE
  5
185DB
  8
ALPHA
 10
1765.145313
 20
777.65513
 30
0.0
 11
1765.238383
 21
777.65513
 31
0.0
  0
LINE
  5
185DC
  8
ALPHA
 10
1765.175801
 20
777.355129
 30
0.0
 11
1765.154706
 21
777.355129
 31
0.0
  0
LINE
  5
185DD
  8
ALPHA
 10
1765.209874
 20
777.355129
 30
0.0
 11
1765.203242
 21
777.355129
 31
0.0
  0
LINE
  5
185DE
  8
ALPHA
 10
1767.826586
 20
777.355129
 30
0.0
 11
1767.777835
 21
777.355129
 31
0.0
  0
LINE
  5
185DF
  8
ALPHA
 10
1768.01474
 20
777.355129
 30
0.0
 11
1767.981078
 21
777.355129
 31
0.0
  0
LINE
  5
185E0
  8
ALPHA
 10
1767.768891
 20
776.844491
 30
0.0
 11
1767.817641
 21
776.844491
 31
0.0
  0
LINE
  5
185E1
  8
ALPHA
 10
1765.150777
 20
776.844491
 30
0.0
 11
1765.167835
 21
776.844491
 31
0.0
  0
LINE
  5
185E2
  8
ALPHA
 10
1767.8524
 20
776.333853
 30
0.0
 11
1767.885407
 21
776.333853
 31
0.0
  0
LINE
  5
185E3
  8
ALPHA
 10
1765.14702
 20
775.653002
 30
0.0
 11
1765.129962
 21
775.653002
 31
0.0
  0
LINE
  5
185E4
  8
ALPHA
 10
1765.12105
 20
775.142365
 30
0.0
 11
1765.138108
 21
775.142365
 31
0.0
  0
LINE
  5
185E5
  8
ALPHA
 10
1767.851094
 20
774.376406
 30
0.0
 11
1767.818089
 21
774.376406
 31
0.0
  0
LINE
  5
185E6
  8
ALPHA
 10
1765.115827
 20
773.865769
 30
0.0
 11
1765.09877
 21
773.865769
 31
0.0
  0
LINE
  5
185E7
  8
ALPHA
 10
1767.765443
 20
773.865769
 30
0.0
 11
1767.716696
 21
773.865769
 31
0.0
  0
LINE
  5
185E8
  8
ALPHA
 10
1767.707751
 20
773.355129
 30
0.0
 11
1767.756498
 21
773.355129
 31
0.0
  0
LINE
  5
185E9
  8
ALPHA
 10
1767.910975
 20
773.355129
 30
0.0
 11
1767.944633
 21
773.355129
 31
0.0
  0
LINE
  5
185EA
  8
ALPHA
 10
1765.084876
 20
773.355129
 30
0.0
 11
1765.105969
 21
773.355129
 31
0.0
  0
LINE
  5
185EB
  8
ALPHA
 10
1765.133407
 20
773.355129
 30
0.0
 11
1765.140038
 21
773.355129
 31
0.0
  0
LINE
  5
185EC
  8
ALPHA
 10
1765.158046
 20
773.05513
 30
0.0
 11
1765.064986
 21
773.05513
 31
0.0
  0
LINE
  5
185ED
  8
ALPHA
 10
1768.049533
 20
773.05513
 30
0.0
 11
1767.524394
 21
773.05513
 31
0.0
  0
POLYLINE
  5
185EE
  8
ALPHA
 66
     1
 10
0.0
 20
0.0
 30
0.0
  0
VERTEX
  5
1B541
  8
ALPHA
 10
1768.217078
 20
779.111317
 30
0.0
  0
VERTEX
  5
1B542
  8
ALPHA
 10
1768.080887
 20
778.405908
 30
0.0
  0
VERTEX
  5
1B543
  8
ALPHA
 10
1767.941386
 20
778.042655
 30
0.0
  0
VERTEX
  5
1B544
  8
ALPHA
 10
1767.807588
 20
778.044869
 30
0.0
  0
VERTEX
  5
1B545
  8
ALPHA
 10
1767.68739
 20
778.411556
 30
0.0
  0
VERTEX
  5
1B546
  8
ALPHA
 10
1767.587349
 20
779.118182
 30
0.0
  0
VERTEX
  5
1B547
  8
ALPHA
 10
1767.511912
 20
780.123614
 30
0.0
  0
VERTEX
  5
1B548
  8
ALPHA
 10
1767.464121
 20
781.373876
 30
0.0
  0
VERTEX
  5
1B549
  8
ALPHA
 10
1767.44587
 20
782.802941
 30
0.0
  0
VERTEX
  5
1B54A
  8
ALPHA
 10
1767.457863
 20
784.322582
 30
0.0
  0
SEQEND
  5
1B54B
  8
ALPHA
  0
LINE
  5
185FA
  8
ALPHA
 10
1767.78523
 20
773.440235
 30
0.0
 11
1767.810129
 21
773.610449
 31
0.0
  0
LINE
  5
185FB
  8
ALPHA
 10
1767.749416
 20
777.270023
 30
0.0
 11
1767.725017
 21
777.099811
 31
0.0
  0
LINE
  5
185FC
  8
ALPHA
 10
1767.808107
 20
774.121086
 30
0.0
 11
1767.788712
 21
773.950874
 31
0.0
  0
LINE
  5
185FD
  8
ALPHA
 10
1767.726769
 20
776.589172
 30
0.0
 11
1767.745838
 21
776.759385
 31
0.0
  0
POLYLINE
  5
185FE
  8
ALPHA
 66
     1
 10
0.0
 20
0.0
 30
0.0
  0
VERTEX
  5
1B54C
  8
ALPHA
 10
1765.236793
 20
778.363888
 30
0.0
  0
VERTEX
  5
1B54D
  8
ALPHA
 10
1765.204084
 20
777.996963
 30
0.0
  0
VERTEX
  5
1B54E
  8
ALPHA
 10
1765.180195
 20
777.997799
 30
0.0
  0
VERTEX
  5
1B54F
  8
ALPHA
 10
1765.166577
 20
778.366152
 30
0.0
  0
SEQEND
  5
1B550
  8
ALPHA
  0
LINE
  5
18604
  8
ALPHA
 10
1767.810129
 20
773.610449
 30
0.0
 11
1767.838097
 21
773.950874
 31
0.0
  0
LINE
  5
18605
  8
ALPHA
 10
1767.725017
 20
777.099811
 30
0.0
 11
1767.697724
 21
776.759385
 31
0.0
  0
LINE
  5
18606
  8
ALPHA
 10
1765.105938
 20
773.355129
 30
0.0
 11
1765.112209
 21
773.440235
 31
0.0
  0
LINE
  5
18607
  8
ALPHA
 10
1767.981044
 20
777.355129
 30
0.0
 11
1767.937139
 21
776.759385
 31
0.0
  0
LINE
  5
18608
  8
ALPHA
 10
1767.925208
 20
776.078533
 30
0.0
 11
1767.969112
 21
776.674278
 31
0.0
  0
LINE
  5
18609
  8
ALPHA
 10
1765.275843
 20
779.075474
 30
0.0
 11
1765.236793
 21
778.363888
 31
0.0
  0
LINE
  5
1860A
  8
ALPHA
 10
1765.151355
 20
775.738108
 30
0.0
 11
1765.146998
 21
775.653002
 31
0.0
  0
LINE
  5
1860B
  8
ALPHA
 10
1765.120155
 20
773.950874
 30
0.0
 11
1765.115798
 21
773.865769
 31
0.0
  0
LINE
  5
1860C
  8
ALPHA
 10
1765.318042
 20
780.089742
 30
0.0
 11
1765.275843
 21
779.075474
 31
0.0
  0
LINE
  5
1860D
  8
ALPHA
 10
1765.148332
 20
775.397682
 30
0.0
 11
1765.151791
 21
775.48279
 31
0.0
  0
LINE
  5
1860E
  8
ALPHA
 10
1767.711599
 20
776.333853
 30
0.0
 11
1767.726769
 21
776.589172
 31
0.0
  0
LINE
  5
1860F
  8
ALPHA
 10
1767.697724
 20
776.759385
 30
0.0
 11
1767.681129
 21
776.418959
 31
0.0
  0
LINE
  5
18610
  8
ALPHA
 10
1767.818063
 20
774.376406
 30
0.0
 11
1767.808107
 21
774.121086
 31
0.0
  0
LINE
  5
18611
  8
ALPHA
 10
1765.359943
 20
781.351528
 30
0.0
 11
1765.318042
 21
780.089742
 31
0.0
  0
LINE
  5
18612
  8
ALPHA
 10
1767.700295
 20
775.993427
 30
0.0
 11
1767.711599
 21
776.333853
 31
0.0
  0
LINE
  5
18613
  8
ALPHA
 10
1765.112209
 20
773.440235
 30
0.0
 11
1765.120591
 21
773.695555
 31
0.0
  0
LINE
  5
18614
  8
ALPHA
 10
1767.838097
 20
773.950874
 30
0.0
 11
1767.851068
 21
774.376406
 31
0.0
  0
LINE
  5
18615
  8
ALPHA
 10
1767.681129
 20
776.418959
 30
0.0
 11
1767.668367
 21
775.993427
 31
0.0
  0
POLYLINE
  5
18616
  8
ALPHA
 66
     1
 10
0.0
 20
0.0
 30
0.0
  0
VERTEX
  5
1B551
  8
ALPHA
 10
1768.567843
 20
784.322582
 30
0.0
  0
VERTEX
  5
1B552
  8
ALPHA
 10
1768.523339
 20
782.802457
 30
0.0
  0
VERTEX
  5
1B553
  8
ALPHA
 10
1768.445896
 20
781.370805
 30
0.0
  0
VERTEX
  5
1B554
  8
ALPHA
 10
1768.341428
 20
780.117897
 30
0.0
  0
VERTEX
  5
1B555
  8
ALPHA
 10
1768.217078
 20
779.111317
 30
0.0
  0
SEQEND
  5
1B556
  8
ALPHA
  0
LINE
  5
1861D
  8
ALPHA
 10
1765.156268
 20
775.908321
 30
0.0
 11
1765.151355
 21
775.738108
 31
0.0
  0
LINE
  5
1861E
  8
ALPHA
 10
1765.125067
 20
774.121086
 30
0.0
 11
1765.120155
 21
773.950874
 31
0.0
  0
LINE
  5
1861F
  8
ALPHA
 10
1765.203207
 20
777.355129
 30
0.0
 11
1765.18637
 21
776.759385
 31
0.0
  0
LINE
  5
18620
  8
ALPHA
 10
1765.174484
 20
776.078533
 30
0.0
 11
1765.191321
 21
776.674278
 31
0.0
  0
LINE
  5
18621
  8
ALPHA
 10
1765.394182
 20
782.64405
 30
0.0
 11
1765.359943
 21
781.351528
 31
0.0
  0
LINE
  5
18622
  8
ALPHA
 10
1765.151791
 20
775.48279
 30
0.0
 11
1765.160734
 21
775.823216
 31
0.0
  0
LINE
  5
18623
  8
ALPHA
 10
1765.120591
 20
773.695555
 30
0.0
 11
1765.129534
 21
774.03598
 31
0.0
  0
LINE
  5
18624
  8
ALPHA
 10
1765.160734
 20
775.823216
 30
0.0
 11
1765.166202
 21
776.078533
 31
0.0
  0
LINE
  5
18625
  8
ALPHA
 10
1765.129534
 20
774.03598
 30
0.0
 11
1765.135002
 21
774.2913
 31
0.0
  0
LINE
  5
18626
  8
ALPHA
 10
1765.161703
 20
776.163641
 30
0.0
 11
1765.156268
 21
775.908321
 31
0.0
  0
LINE
  5
18627
  8
ALPHA
 10
1765.130503
 20
774.376406
 30
0.0
 11
1765.125067
 21
774.121086
 31
0.0
  0
POLYLINE
  5
18628
  8
ALPHA
 66
     1
 10
0.0
 20
0.0
 30
0.0
  0
VERTEX
  5
1B557
  8
ALPHA
 10
1765.41937
 20
783.796613
 30
0.0
  0
VERTEX
  5
1B558
  8
ALPHA
 10
1765.40987
 20
783.331721
 30
0.0
  0
VERTEX
  5
1B559
  8
ALPHA
 10
1765.399795
 20
782.8782
 30
0.0
  0
VERTEX
  5
1B55A
  8
ALPHA
 10
1765.38925
 20
782.438275
 30
0.0
  0
VERTEX
  5
1B55B
  8
ALPHA
 10
1765.378296
 20
782.013764
 30
0.0
  0
VERTEX
  5
1B55C
  8
ALPHA
 10
1765.367033
 20
781.606312
 30
0.0
  0
VERTEX
  5
1B55D
  8
ALPHA
 10
1765.355573
 20
781.217411
 30
0.0
  0
VERTEX
  5
1B55E
  8
ALPHA
 10
1765.343976
 20
780.848347
 30
0.0
  0
VERTEX
  5
1B55F
  8
ALPHA
 10
1765.332323
 20
780.500305
 30
0.0
  0
VERTEX
  5
1B560
  8
ALPHA
 10
1765.320729
 20
780.17434
 30
0.0
  0
VERTEX
  5
1B561
  8
ALPHA
 10
1765.309298
 20
779.87125
 30
0.0
  0
VERTEX
  5
1B562
  8
ALPHA
 10
1765.298071
 20
779.59151
 30
0.0
  0
VERTEX
  5
1B563
  8
ALPHA
 10
1765.287109
 20
779.335418
 30
0.0
  0
VERTEX
  5
1B564
  8
ALPHA
 10
1765.2765
 20
779.103178
 30
0.0
  0
VERTEX
  5
1B565
  8
ALPHA
 10
1765.266323
 20
778.895064
 30
0.0
  0
VERTEX
  5
1B566
  8
ALPHA
 10
1765.25661
 20
778.711057
 30
0.0
  0
VERTEX
  5
1B567
  8
ALPHA
 10
1765.247413
 20
778.551038
 30
0.0
  0
VERTEX
  5
1B568
  8
ALPHA
 10
1765.238814
 20
778.414936
 30
0.0
  0
VERTEX
  5
1B569
  8
ALPHA
 10
1765.230953
 20
778.303197
 30
0.0
  0
VERTEX
  5
1B56A
  8
ALPHA
 10
1765.224049
 20
778.217181
 30
0.0
  0
VERTEX
  5
1B56B
  8
ALPHA
 10
1765.21855
 20
778.158936
 30
0.0
  0
VERTEX
  5
1B56C
  8
ALPHA
 10
1765.217366
 20
778.147935
 30
0.0
  0
SEQEND
  5
1B56D
  8
ALPHA
  0
LINE
  5
18640
  8
ALPHA
 10
1765.426976
 20
784.206902
 30
0.0
 11
1765.3981
 21
782.791955
 31
0.0
  0
POLYLINE
  5
18641
  8
ALPHA
 66
     1
 10
0.0
 20
0.0
 30
0.0
  0
VERTEX
  5
1B56E
  8
ALPHA
 10
1768.563239
 20
784.322633
 30
0.0
  0
VERTEX
  5
1B56F
  8
ALPHA
 10
1768.555401
 20
783.939277
 30
0.0
  0
VERTEX
  5
1B570
  8
ALPHA
 10
1768.532007
 20
783.151588
 30
0.0
  0
VERTEX
  5
1B571
  8
ALPHA
 10
1768.500053
 20
782.395618
 30
0.0
  0
VERTEX
  5
1B572
  8
ALPHA
 10
1768.460629
 20
781.684044
 30
0.0
  0
VERTEX
  5
1B573
  8
ALPHA
 10
1768.415069
 20
781.027662
 30
0.0
  0
VERTEX
  5
1B574
  8
ALPHA
 10
1768.364755
 20
780.435384
 30
0.0
  0
VERTEX
  5
1B575
  8
ALPHA
 10
1768.311329
 20
779.914447
 30
0.0
  0
VERTEX
  5
1B576
  8
ALPHA
 10
1768.256468
 20
779.470081
 30
0.0
  0
VERTEX
  5
1B577
  8
ALPHA
 10
1768.202055
 20
779.105479
 30
0.0
  0
VERTEX
  5
1B578
  8
ALPHA
 10
1768.150486
 20
778.82341
 30
0.0
  0
VERTEX
  5
1B579
  8
ALPHA
 10
1768.105571
 20
778.627587
 30
0.0
  0
VERTEX
  5
1B57A
  8
ALPHA
 10
1768.093295
 20
778.582856
 30
0.0
  0
SEQEND
  5
1B57B
  8
ALPHA
  0
LINE
  5
18650
  8
ALPHA
 10
1765.428149
 20
784.270182
 30
0.0
 11
1765.41937
 21
783.796613
 31
0.0
  0
LINE
  5
18651
  8
ALPHA
 10
1767.524375
 20
773.05513
 30
0.0
 11
1767.604947
 21
777.65513
 31
0.0
  0
LINE
  5
18652
  8
ALPHA
 10
1767.668367
 20
775.993427
 30
0.0
 11
1767.646003
 21
774.716831
 31
0.0
  0
LINE
  5
18653
  8
ALPHA
 10
1767.67793
 20
774.716831
 30
0.0
 11
1767.700295
 21
775.993427
 31
0.0
  0
LINE
  5
18654
  8
ALPHA
 10
1767.937139
 20
776.759385
 30
0.0
 11
1767.925208
 21
776.078533
 31
0.0
  0
LINE
  5
18655
  8
ALPHA
 10
1767.969112
 20
776.674278
 30
0.0
 11
1767.910944
 21
773.355129
 31
0.0
  0
LINE
  5
18656
  8
ALPHA
 10
1767.944602
 20
773.355129
 30
0.0
 11
1768.014705
 21
777.355129
 31
0.0
  0
LINE
  5
18657
  8
ALPHA
 10
1768.130145
 20
777.65513
 30
0.0
 11
1768.049514
 21
773.05513
 31
0.0
  0
LINE
  5
18658
  8
ALPHA
 10
1765.064967
 20
773.05513
 30
0.0
 11
1765.145266
 21
777.65513
 31
0.0
  0
LINE
  5
18659
  8
ALPHA
 10
1765.154671
 20
777.355129
 30
0.0
 11
1765.084845
 21
773.355129
 31
0.0
  0
LINE
  5
1865A
  8
ALPHA
 10
1765.129941
 20
775.653002
 30
0.0
 11
1765.15074
 21
776.844491
 31
0.0
  0
LINE
  5
1865B
  8
ALPHA
 10
1765.098741
 20
773.865769
 30
0.0
 11
1765.121026
 21
775.142365
 31
0.0
  0
LINE
  5
1865C
  8
ALPHA
 10
1765.13496
 20
774.631725
 30
0.0
 11
1765.130503
 21
774.376406
 31
0.0
  0
LINE
  5
1865D
  8
ALPHA
 10
1765.164675
 20
776.333853
 30
0.0
 11
1765.161703
 21
776.163641
 31
0.0
  0
LINE
  5
1865E
  8
ALPHA
 10
1765.166202
 20
776.078533
 30
0.0
 11
1765.172145
 21
776.418959
 31
0.0
  0
LINE
  5
1865F
  8
ALPHA
 10
1765.135002
 20
774.2913
 30
0.0
 11
1765.142431
 21
774.716831
 31
0.0
  0
LINE
  5
18660
  8
ALPHA
 10
1765.18637
 20
776.759385
 30
0.0
 11
1765.174484
 21
776.078533
 31
0.0
  0
LINE
  5
18661
  8
ALPHA
 10
1765.191321
 20
776.674278
 30
0.0
 11
1765.133376
 21
773.355129
 31
0.0
  0
LINE
  5
18662
  8
ALPHA
 10
1765.140007
 20
773.355129
 30
0.0
 11
1765.209839
 21
777.355129
 31
0.0
  0
LINE
  5
18663
  8
ALPHA
 10
1765.238336
 20
777.65513
 30
0.0
 11
1765.158027
 21
773.05513
 31
0.0
  0
LINE
  5
18664
  8
ALPHA
 10
1765.138439
 20
774.887045
 30
0.0
 11
1765.13496
 21
774.631725
 31
0.0
  0
LINE
  5
18665
  8
ALPHA
 10
1765.168153
 20
776.589172
 30
0.0
 11
1765.164675
 21
776.333853
 31
0.0
  0
LINE
  5
18666
  8
ALPHA
 10
1765.142431
 20
774.716831
 30
0.0
 11
1765.145877
 21
774.972151
 31
0.0
  0
LINE
  5
18667
  8
ALPHA
 10
1765.172145
 20
776.418959
 30
0.0
 11
1765.175591
 21
776.674278
 31
0.0
  0
LINE
  5
18668
  8
ALPHA
 10
1765.145877
 20
774.972151
 30
0.0
 11
1765.148819
 21
775.312576
 31
0.0
  0
LINE
  5
18669
  8
ALPHA
 10
1765.175591
 20
776.674278
 30
0.0
 11
1765.178534
 21
777.014704
 31
0.0
  0
LINE
  5
1866A
  8
ALPHA
 10
1765.139469
 20
775.057257
 30
0.0
 11
1765.138439
 21
774.887045
 31
0.0
  0
LINE
  5
1866B
  8
ALPHA
 10
1765.169184
 20
776.759385
 30
0.0
 11
1765.168153
 21
776.589172
 31
0.0
  0
LINE
  5
1866C
  8
ALPHA
 10
1767.646003
 20
774.716831
 30
0.0
 11
1767.643857
 21
774.2913
 31
0.0
  0
LINE
  5
1866D
  8
ALPHA
 10
1767.885368
 20
776.333853
 30
0.0
 11
1767.88731
 21
776.759385
 31
0.0
  0
LINE
  5
1866E
  8
ALPHA
 10
1765.178534
 20
777.014704
 30
0.0
 11
1765.179066
 21
777.270023
 31
0.0
  0
LINE
  5
1866F
  8
ALPHA
 10
1767.677307
 20
774.376406
 30
0.0
 11
1767.67793
 21
774.716831
 31
0.0
  0
LINE
  5
18670
  8
ALPHA
 10
1767.851353
 20
776.589172
 30
0.0
 11
1767.852361
 21
776.333853
 31
0.0
  0
POLYLINE
  5
18671
  8
ALPHA
 66
     1
 10
0.0
 20
0.0
 30
0.0
  0
VERTEX
  5
1B57C
  8
ALPHA
 10
1765.166577
 20
778.366152
 30
0.0
  0
VERTEX
  5
1B57D
  8
ALPHA
 10
1765.163436
 20
779.0786
 30
0.0
  0
VERTEX
  5
1B57E
  8
ALPHA
 10
1765.169964
 20
780.093005
 30
0.0
  0
VERTEX
  5
1B57F
  8
ALPHA
 10
1765.184684
 20
781.354075
 30
0.0
  0
VERTEX
  5
1B580
  8
ALPHA
 10
1765.205768
 20
782.793316
 30
0.0
  0
VERTEX
  5
1B581
  8
ALPHA
 10
1765.231185
 20
784.322582
 30
0.0
  0
SEQEND
  5
1B582
  8
ALPHA
  0
LINE
  5
18679
  8
ALPHA
 10
1765.148819
 20
775.312576
 30
0.0
 11
1765.148332
 21
775.397682
 31
0.0
  0
LINE
  5
1867A
  8
ALPHA
 10
1767.643857
 20
774.2913
 30
0.0
 11
1767.648524
 21
773.950874
 31
0.0
  0
LINE
  5
1867B
  8
ALPHA
 10
1765.138084
 20
775.142365
 30
0.0
 11
1765.139469
 21
775.057257
 31
0.0
  0
LINE
  5
1867C
  8
ALPHA
 10
1765.167798
 20
776.844491
 30
0.0
 11
1765.169184
 21
776.759385
 31
0.0
  0
LINE
  5
1867D
  8
ALPHA
 10
1767.683531
 20
774.121086
 30
0.0
 11
1767.677307
 21
774.376406
 31
0.0
  0
LINE
  5
1867E
  8
ALPHA
 10
1765.179066
 20
777.270023
 30
0.0
 11
1765.175766
 21
777.355129
 31
0.0
  0
LINE
  5
1867F
  8
ALPHA
 10
1767.648524
 20
773.950874
 30
0.0
 11
1767.663888
 21
773.610449
 31
0.0
  0
POLYLINE
  5
18680
  8
ALPHA
 66
     1
 10
0.0
 20
0.0
 30
0.0
  0
VERTEX
  5
1B583
  8
ALPHA
 10
1768.453926
 20
781.587469
 30
0.0
  0
VERTEX
  5
1B584
  8
ALPHA
 10
1768.443481
 20
781.817325
 30
0.0
  0
VERTEX
  5
1B585
  8
ALPHA
 10
1768.425166
 20
783.019635
 30
0.0
  0
VERTEX
  5
1B586
  8
ALPHA
 10
1768.437166
 20
784.30513
 30
0.0
  0
SEQEND
  5
1B587
  8
ALPHA
  0
LINE
  5
18686
  8
ALPHA
 10
1767.88731
 20
776.759385
 30
0.0
 11
1767.87127
 21
777.099811
 31
0.0
  0
LINE
  5
18687
  8
ALPHA
 10
1767.696634
 20
773.950874
 30
0.0
 11
1767.683531
 21
774.121086
 31
0.0
  0
LINE
  5
18688
  8
ALPHA
 10
1767.837922
 20
776.759385
 30
0.0
 11
1767.851353
 21
776.589172
 31
0.0
  0
LINE
  5
18689
  8
ALPHA
 10
1767.663888
 20
773.610449
 30
0.0
 11
1767.682321
 21
773.440235
 31
0.0
  0
LINE
  5
1868A
  8
ALPHA
 10
1767.87127
 20
777.099811
 30
0.0
 11
1767.852335
 21
777.270023
 31
0.0
  0
LINE
  5
1868B
  8
ALPHA
 10
1767.716667
 20
773.865769
 30
0.0
 11
1767.696634
 21
773.950874
 31
0.0
  0
LINE
  5
1868C
  8
ALPHA
 10
1767.817605
 20
776.844491
 30
0.0
 11
1767.837922
 21
776.759385
 31
0.0
  0
LINE
  5
1868D
  8
ALPHA
 10
1767.682321
 20
773.440235
 30
0.0
 11
1767.707721
 21
773.355129
 31
0.0
  0
LINE
  5
1868E
  8
ALPHA
 10
1767.852335
 20
777.270023
 30
0.0
 11
1767.826552
 21
777.355129
 31
0.0
  0
LINE
  5
1868F
  8
ALPHA
 10
1768.489996
 20
795.75513
 30
0.0
 11
1768.448211
 21
795.670023
 31
0.0
  0
LINE
  5
18690
  8
ALPHA
 10
1768.481023
 20
792.265768
 30
0.0
 11
1768.45048
 21
792.180662
 31
0.0
  0
LINE
  5
18691
  8
ALPHA
 10
1768.446491
 20
795.244491
 30
0.0
 11
1768.476764
 21
795.329598
 31
0.0
  0
LINE
  5
18692
  8
ALPHA
 10
1765.501987
 20
795.75513
 30
0.0
 11
1765.496251
 21
795.75513
 31
0.0
  0
LINE
  5
18693
  8
ALPHA
 10
1765.568719
 20
795.75513
 30
0.0
 11
1765.563602
 21
795.75513
 31
0.0
  0
LINE
  5
18694
  8
ALPHA
 10
1765.456675
 20
795.75513
 30
0.0
 11
1765.455335
 21
795.75513
 31
0.0
  0
LINE
  5
18695
  8
ALPHA
 10
1767.965979
 20
795.75513
 30
0.0
 11
1767.790372
 21
795.75513
 31
0.0
  0
LINE
  5
18696
  8
ALPHA
 10
1768.180634
 20
795.75513
 30
0.0
 11
1768.14788
 21
795.75513
 31
0.0
  0
LINE
  5
18697
  8
ALPHA
 10
1768.501586
 20
795.75513
 30
0.0
 11
1768.490024
 21
795.75513
 31
0.0
  0
LINE
  5
18698
  8
ALPHA
 10
1767.808331
 20
795.329598
 30
0.0
 11
1767.958506
 21
795.329598
 31
0.0
  0
LINE
  5
18699
  8
ALPHA
 10
1768.476774
 20
795.329598
 30
0.0
 11
1768.499897
 21
795.329598
 31
0.0
  0
LINE
  5
1869A
  8
ALPHA
 10
1765.554888
 20
795.329598
 30
0.0
 11
1765.559984
 21
795.329598
 31
0.0
  0
LINE
  5
1869B
  8
ALPHA
 10
1765.447226
 20
795.329598
 30
0.0
 11
1765.449907
 21
795.329598
 31
0.0
  0
LINE
  5
1869C
  8
ALPHA
 10
1768.381894
 20
794.81896
 30
0.0
 11
1768.410401
 21
794.81896
 31
0.0
  0
LINE
  5
1869D
  8
ALPHA
 10
1765.527635
 20
794.81896
 30
0.0
 11
1765.533614
 21
794.81896
 31
0.0
  0
LINE
  5
1869E
  8
ALPHA
 10
1765.429028
 20
794.81896
 30
0.0
 11
1765.431989
 21
794.81896
 31
0.0
  0
LINE
  5
1869F
  8
ALPHA
 10
1767.872737
 20
794.308321
 30
0.0
 11
1767.841716
 21
794.308321
 31
0.0
  0
LINE
  5
186A0
  8
ALPHA
 10
1765.426163
 20
793.967896
 30
0.0
 11
1765.423482
 21
793.967896
 31
0.0
  0
LINE
  5
186A1
  8
ALPHA
 10
1768.476052
 20
793.967896
 30
0.0
 11
1768.45293
 21
793.967896
 31
0.0
  0
LINE
  5
186A2
  8
ALPHA
 10
1767.834244
 20
793.882789
 30
0.0
 11
1767.865265
 21
793.882789
 31
0.0
  0
LINE
  5
186A3
  8
ALPHA
 10
1768.446923
 20
793.62747
 30
0.0
 11
1768.470045
 21
793.62747
 31
0.0
  0
LINE
  5
186A4
  8
ALPHA
 10
1765.4175
 20
793.62747
 30
0.0
 11
1765.420181
 21
793.62747
 31
0.0
  0
LINE
  5
186A5
  8
ALPHA
 10
1767.75161
 20
793.542364
 30
0.0
 11
1767.787248
 21
793.542364
 31
0.0
  0
LINE
  5
186A6
  8
ALPHA
 10
1767.768729
 20
792.776406
 30
0.0
 11
1767.738199
 21
792.776406
 31
0.0
  0
LINE
  5
186A7
  8
ALPHA
 10
1765.394275
 20
792.6913
 30
0.0
 11
1765.391341
 21
792.6913
 31
0.0
  0
LINE
  5
186A8
  8
ALPHA
 10
1768.367424
 20
792.6913
 30
0.0
 11
1768.338946
 21
792.6913
 31
0.0
  0
LINE
  5
186A9
  8
ALPHA
 10
1765.47265
 20
792.265768
 30
0.0
 11
1765.441066
 21
792.265768
 31
0.0
  0
LINE
  5
186AA
  8
ALPHA
 10
1768.286187
 20
792.265768
 30
0.0
 11
1768.119488
 21
792.265768
 31
0.0
  0
LINE
  5
186AB
  8
ALPHA
 10
1765.526284
 20
792.180662
 30
0.0
 11
1765.490014
 21
792.180662
 31
0.0
  0
LINE
  5
186AC
  8
ALPHA
 10
1765.395656
 20
792.180662
 30
0.0
 11
1765.391634
 21
792.180662
 31
0.0
  0
LINE
  5
186AD
  8
ALPHA
 10
1767.8355
 20
792.180662
 30
0.0
 11
1767.80448
 21
792.180662
 31
0.0
  0
LINE
  5
186AE
  8
ALPHA
 10
1768.450524
 20
792.180662
 30
0.0
 11
1768.415842
 21
792.180662
 31
0.0
  0
LINE
  5
186AF
  8
ALPHA
 10
1767.797009
 20
791.75513
 30
0.0
 11
1767.828028
 21
791.75513
 31
0.0
  0
LINE
  5
186B0
  8
ALPHA
 10
1768.077792
 20
791.75513
 30
0.0
 11
1768.27724
 21
791.75513
 31
0.0
  0
LINE
  5
186B1
  8
ALPHA
 10
1768.402603
 20
791.75513
 30
0.0
 11
1768.448845
 21
791.75513
 31
0.0
  0
LINE
  5
186B2
  8
ALPHA
 10
1765.472979
 20
791.75513
 30
0.0
 11
1765.518836
 21
791.75513
 31
0.0
  0
LINE
  5
186B3
  8
ALPHA
 10
1765.383536
 20
791.75513
 30
0.0
 11
1765.388898
 21
791.75513
 31
0.0
  0
LINE
  5
186B4
  8
ALPHA
 10
1765.426419
 20
791.75513
 30
0.0
 11
1765.463738
 21
791.75513
 31
0.0
  0
LINE
  5
186B5
  8
ALPHA
 10
1765.520517
 20
790.75513
 30
0.0
 11
1765.349831
 21
790.75513
 31
0.0
  0
LINE
  5
186B6
  8
ALPHA
 10
1768.593523
 20
790.75513
 30
0.0
 11
1767.630335
 21
790.75513
 31
0.0
  0
LINE
  5
186B7
  8
ALPHA
 10
1767.828003
 20
791.75513
 30
0.0
 11
1767.855493
 21
791.840236
 31
0.0
  0
LINE
  5
186B8
  8
ALPHA
 10
1767.841702
 20
794.308321
 30
0.0
 11
1767.81451
 21
794.223215
 31
0.0
  0
LINE
  5
186B9
  8
ALPHA
 10
1768.44882
 20
791.75513
 30
0.0
 11
1768.473563
 21
791.840236
 31
0.0
  0
LINE
  5
186BA
  8
ALPHA
 10
1767.857736
 20
792.265768
 30
0.0
 11
1767.835456
 21
792.180662
 31
0.0
  0
LINE
  5
186BB
  8
ALPHA
 10
1767.812187
 20
793.797683
 30
0.0
 11
1767.834249
 21
793.882789
 31
0.0
  0
LINE
  5
186BC
  8
ALPHA
 10
1768.513847
 20
794.138108
 30
0.0
 11
1768.476016
 21
793.967896
 31
0.0
  0
LINE
  5
186BD
  8
ALPHA
 10
1768.494174
 20
792.350874
 30
0.0
 11
1768.481023
 21
792.265768
 31
0.0
  0
LINE
  5
186BE
  8
ALPHA
 10
1768.473563
 20
791.840236
 30
0.0
 11
1768.499886
 21
792.010449
 31
0.0
  0
LINE
  5
186BF
  8
ALPHA
 10
1768.448211
 20
795.670023
 30
0.0
 11
1768.422323
 21
795.499811
 31
0.0
  0
LINE
  5
186C0
  8
ALPHA
 10
1768.499886
 20
792.010449
 30
0.0
 11
1768.520432
 21
792.180662
 31
0.0
  0
LINE
  5
186C1
  8
ALPHA
 10
1765.563573
 20
795.75513
 30
0.0
 11
1765.55334
 21
795.670023
 31
0.0
  0
LINE
  5
186C2
  8
ALPHA
 10
1767.855493
 20
791.840236
 30
0.0
 11
1767.8861
 21
792.095555
 31
0.0
  0
LINE
  5
186C3
  8
ALPHA
 10
1768.426305
 20
795.074279
 30
0.0
 11
1768.446491
 21
795.244491
 31
0.0
  0
LINE
  5
186C4
  8
ALPHA
 10
1767.81451
 20
794.223215
 30
0.0
 11
1767.784473
 21
793.967896
 31
0.0
  0
LINE
  5
186C5
  8
ALPHA
 10
1767.876366
 20
792.435981
 30
0.0
 11
1767.857736
 21
792.265768
 31
0.0
  0
LINE
  5
186C6
  8
ALPHA
 10
1768.519538
 20
793.797683
 30
0.0
 11
1768.547398
 21
794.053002
 31
0.0
  0
LINE
  5
186C7
  8
ALPHA
 10
1767.787231
 20
793.542364
 30
0.0
 11
1767.812187
 21
793.797683
 31
0.0
  0
LINE
  5
186C8
  8
ALPHA
 10
1765.547144
 20
795.244491
 30
0.0
 11
1765.554878
 21
795.329598
 31
0.0
  0
LINE
  5
186C9
  8
ALPHA
 10
1768.508839
 20
792.521087
 30
0.0
 11
1768.494174
 21
792.350874
 31
0.0
  0
LINE
  5
186CA
  8
ALPHA
 10
1768.52849
 20
794.308321
 30
0.0
 11
1768.513847
 21
794.138108
 31
0.0
  0
LINE
  5
186CB
  8
ALPHA
 10
1768.422323
 20
795.499811
 30
0.0
 11
1768.393539
 21
795.159385
 31
0.0
  0
POLYLINE
  5
186CC
  8
ALPHA
 66
     1
 10
0.0
 20
0.0
 30
0.0
  0
VERTEX
  5
1B588
  8
ALPHA
 10
1765.37459
 20
790.277636
 30
0.0
  0
VERTEX
  5
1B589
  8
ALPHA
 10
1765.401066
 20
790.644345
 30
0.0
  0
VERTEX
  5
1B58A
  8
ALPHA
 10
1765.424973
 20
790.64349
 30
0.0
  0
SEQEND
  5
1B58B
  8
ALPHA
  0
LINE
  5
186D1
  8
ALPHA
 10
1765.455306
 20
795.75513
 30
0.0
 11
1765.449298
 21
795.670023
 31
0.0
  0
LINE
  5
186D2
  8
ALPHA
 10
1767.8861
 20
792.095555
 30
0.0
 11
1767.90781
 21
792.435981
 31
0.0
  0
LINE
  5
186D3
  8
ALPHA
 10
1768.520432
 20
792.180662
 30
0.0
 11
1768.536643
 21
792.435981
 31
0.0
  0
LINE
  5
186D4
  8
ALPHA
 10
1768.547398
 20
794.053002
 30
0.0
 11
1768.563599
 21
794.308321
 31
0.0
  0
LINE
  5
186D5
  8
ALPHA
 10
1768.410389
 20
794.81896
 30
0.0
 11
1768.426305
 21
795.074279
 31
0.0
  0
LINE
  5
186D6
  8
ALPHA
 10
1765.400597
 20
792.265768
 30
0.0
 11
1765.395612
 21
792.180662
 31
0.0
  0
LINE
  5
186D7
  8
ALPHA
 10
1767.891297
 20
792.6913
 30
0.0
 11
1767.876366
 21
792.435981
 31
0.0
  0
LINE
  5
186D8
  8
ALPHA
 10
1765.4425
 20
795.244491
 30
0.0
 11
1765.447216
 21
795.329598
 31
0.0
  0
LINE
  5
186D9
  8
ALPHA
 10
1765.388873
 20
791.75513
 30
0.0
 11
1765.393169
 21
791.840236
 31
0.0
  0
LINE
  5
186DA
  8
ALPHA
 10
1765.55334
 20
795.670023
 30
0.0
 11
1765.545488
 21
795.499811
 31
0.0
  0
LINE
  5
186DB
  8
ALPHA
 10
1765.433281
 20
794.138108
 30
0.0
 11
1765.426127
 21
793.967896
 31
0.0
  0
LINE
  5
186DC
  8
ALPHA
 10
1765.540488
 20
795.074279
 30
0.0
 11
1765.547144
 21
795.244491
 31
0.0
  0
LINE
  5
186DD
  8
ALPHA
 10
1765.393169
 20
791.840236
 30
0.0
 11
1765.399036
 21
792.010449
 31
0.0
  0
LINE
  5
186DE
  8
ALPHA
 10
1765.40352
 20
792.350874
 30
0.0
 11
1765.400597
 21
792.265768
 31
0.0
  0
POLYLINE
  5
186DF
  8
ALPHA
 66
     1
 10
0.0
 20
0.0
 30
0.0
  0
VERTEX
  5
1B58C
  8
ALPHA
 10
1765.552593
 20
794.308321
 30
0.0
  0
VERTEX
  5
1B58D
  8
ALPHA
 10
1765.515961
 20
793.244526
 30
0.0
  0
VERTEX
  5
1B58E
  8
ALPHA
 10
1765.480384
 20
792.180662
 30
0.0
  0
SEQEND
  5
1B58F
  8
ALPHA
  0
LINE
  5
186E4
  8
ALPHA
 10
1768.546139
 20
794.648747
 30
0.0
 11
1768.52849
 21
794.308321
 31
0.0
  0
LINE
  5
186E5
  8
ALPHA
 10
1768.517671
 20
792.6913
 30
0.0
 11
1768.508839
 21
792.521087
 31
0.0
  0
LINE
  5
186E6
  8
ALPHA
 10
1768.073402
 20
794.904066
 30
0.0
 11
1767.966616
 21
792.776406
 31
0.0
  0
LINE
  5
186E7
  8
ALPHA
 10
1767.979593
 20
792.606194
 30
0.0
 11
1768.086592
 21
794.733853
 31
0.0
  0
LINE
  5
186E8
  8
ALPHA
 10
1767.90781
 20
792.435981
 30
0.0
 11
1767.925789
 21
792.861513
 31
0.0
  0
LINE
  5
186E9
  8
ALPHA
 10
1768.536643
 20
792.435981
 30
0.0
 11
1768.546996
 21
792.6913
 31
0.0
  0
LINE
  5
186EA
  8
ALPHA
 10
1767.901008
 20
792.946619
 30
0.0
 11
1767.891297
 21
792.6913
 31
0.0
  0
LINE
  5
186EB
  8
ALPHA
 10
1768.563599
 20
794.308321
 30
0.0
 11
1768.575438
 21
794.648747
 31
0.0
  0
POLYLINE
  5
186EC
  8
ALPHA
 66
     1
 10
0.0
 20
0.0
 30
0.0
  0
VERTEX
  5
1B590
  8
ALPHA
 10
1765.48997
 20
792.180662
 30
0.0
  0
VERTEX
  5
1B591
  8
ALPHA
 10
1765.521985
 20
793.116859
 30
0.0
  0
VERTEX
  5
1B592
  8
ALPHA
 10
1765.554842
 20
794.053002
 30
0.0
  0
SEQEND
  5
1B593
  8
ALPHA
  0
LINE
  5
186F1
  8
ALPHA
 10
1768.393539
 20
795.159385
 30
0.0
 11
1768.381881
 21
794.81896
 31
0.0
  0
LINE
  5
186F2
  8
ALPHA
 10
1765.449298
 20
795.670023
 30
0.0
 11
1765.443861
 21
795.499811
 31
0.0
  0
LINE
  5
186F3
  8
ALPHA
 10
1765.545488
 20
795.499811
 30
0.0
 11
1765.534751
 21
795.159385
 31
0.0
  0
LINE
  5
186F4
  8
ALPHA
 10
1765.399036
 20
792.010449
 30
0.0
 11
1765.404237
 21
792.180662
 31
0.0
  0
LINE
  5
186F5
  8
ALPHA
 10
1765.428776
 20
793.797683
 30
0.0
 11
1765.436172
 21
794.053002
 31
0.0
  0
LINE
  5
186F6
  8
ALPHA
 10
1765.437655
 20
795.074279
 30
0.0
 11
1765.4425
 21
795.244491
 31
0.0
  0
LINE
  5
186F7
  8
ALPHA
 10
1765.554842
 20
794.053002
 30
0.0
 11
1765.562019
 21
794.308321
 31
0.0
  0
LINE
  5
186F8
  8
ALPHA
 10
1765.533602
 20
794.81896
 30
0.0
 11
1765.540488
 21
795.074279
 31
0.0
  0
LINE
  5
186F9
  8
ALPHA
 10
1765.43769
 20
794.308321
 30
0.0
 11
1765.433281
 21
794.138108
 31
0.0
  0
LINE
  5
186FA
  8
ALPHA
 10
1765.40795
 20
792.521087
 30
0.0
 11
1765.40352
 21
792.350874
 31
0.0
  0
LINE
  5
186FB
  8
ALPHA
 10
1765.561203
 20
794.648747
 30
0.0
 11
1765.552593
 21
794.308321
 31
0.0
  0
LINE
  5
186FC
  8
ALPHA
 10
1765.443861
 20
795.499811
 30
0.0
 11
1765.43554
 21
795.159385
 31
0.0
  0
LINE
  5
186FD
  8
ALPHA
 10
1765.436172
 20
794.053002
 30
0.0
 11
1765.442131
 21
794.308321
 31
0.0
  0
LINE
  5
186FE
  8
ALPHA
 10
1765.404237
 20
792.180662
 30
0.0
 11
1765.410206
 21
792.435981
 31
0.0
  0
LINE
  5
186FF
  8
ALPHA
 10
1765.422707
 20
792.606194
 30
0.0
 11
1765.471049
 21
794.733853
 31
0.0
  0
LINE
  5
18700
  8
ALPHA
 10
1765.471355
 20
794.904066
 30
0.0
 11
1765.423223
 21
792.776406
 31
0.0
  0
LINE
  5
18701
  8
ALPHA
 10
1765.431977
 20
794.81896
 30
0.0
 11
1765.437655
 21
795.074279
 31
0.0
  0
LINE
  5
18702
  8
ALPHA
 10
1765.445091
 20
794.648747
 30
0.0
 11
1765.43769
 21
794.308321
 31
0.0
  0
LINE
  5
18703
  8
ALPHA
 10
1765.411659
 20
792.6913
 30
0.0
 11
1765.40795
 21
792.521087
 31
0.0
  0
LINE
  5
18704
  8
ALPHA
 10
1765.562019
 20
794.308321
 30
0.0
 11
1765.569331
 21
794.648747
 31
0.0
  0
LINE
  5
18705
  8
ALPHA
 10
1765.534751
 20
795.159385
 30
0.0
 11
1765.527623
 21
794.81896
 31
0.0
  0
LINE
  5
18706
  8
ALPHA
 10
1765.410206
 20
792.435981
 30
0.0
 11
1765.415428
 21
792.6913
 31
0.0
  0
LINE
  5
18707
  8
ALPHA
 10
1765.442131
 20
794.308321
 30
0.0
 11
1765.448833
 21
794.648747
 31
0.0
  0
LINE
  5
18708
  8
ALPHA
 10
1765.43554
 20
795.159385
 30
0.0
 11
1765.429016
 21
794.81896
 31
0.0
  0
LINE
  5
18709
  8
ALPHA
 10
1767.790343
 20
795.75513
 30
0.0
 11
1767.751592
 21
793.542364
 31
0.0
  0
LINE
  5
1870A
  8
ALPHA
 10
1767.784473
 20
793.967896
 30
0.0
 11
1767.808321
 21
795.329598
 31
0.0
  0
LINE
  5
1870B
  8
ALPHA
 10
1767.903989
 20
793.116832
 30
0.0
 11
1767.901008
 21
792.946619
 31
0.0
  0
LINE
  5
1870C
  8
ALPHA
 10
1767.958496
 20
795.329598
 30
0.0
 11
1767.96595
 21
795.75513
 31
0.0
  0
LINE
  5
1870D
  8
ALPHA
 10
1767.925789
 20
792.861513
 30
0.0
 11
1767.931752
 21
793.201938
 31
0.0
  0
LINE
  5
1870E
  8
ALPHA
 10
1768.147852
 20
795.75513
 30
0.0
 11
1768.077767
 21
791.75513
 31
0.0
  0
LINE
  5
1870F
  8
ALPHA
 10
1768.119465
 20
792.265768
 30
0.0
 11
1768.180605
 21
795.75513
 31
0.0
  0
LINE
  5
18710
  8
ALPHA
 10
1768.277215
 20
791.75513
 30
0.0
 11
1768.286164
 21
792.265768
 31
0.0
  0
LINE
  5
18711
  8
ALPHA
 10
1768.452894
 20
793.967896
 30
0.0
 11
1768.446927
 21
793.62747
 31
0.0
  0
LINE
  5
18712
  8
ALPHA
 10
1768.549123
 20
794.81896
 30
0.0
 11
1768.546139
 21
794.648747
 31
0.0
  0
LINE
  5
18713
  8
ALPHA
 10
1768.523639
 20
793.031725
 30
0.0
 11
1768.517671
 21
792.6913
 31
0.0
  0
LINE
  5
18714
  8
ALPHA
 10
1768.575438
 20
794.648747
 30
0.0
 11
1768.578422
 21
794.81896
 31
0.0
  0
LINE
  5
18715
  8
ALPHA
 10
1768.546996
 20
792.6913
 30
0.0
 11
1768.552964
 21
793.031725
 31
0.0
  0
LINE
  5
18716
  8
ALPHA
 10
1765.423446
 20
793.967896
 30
0.0
 11
1765.417503
 21
793.62747
 31
0.0
  0
LINE
  5
18717
  8
ALPHA
 10
1765.448063
 20
794.81896
 30
0.0
 11
1765.445091
 21
794.648747
 31
0.0
  0
LINE
  5
18718
  8
ALPHA
 10
1765.417602
 20
793.031725
 30
0.0
 11
1765.411659
 21
792.6913
 31
0.0
  0
LINE
  5
18719
  8
ALPHA
 10
1765.448833
 20
794.648747
 30
0.0
 11
1765.456988
 21
795.159385
 31
0.0
  0
LINE
  5
1871A
  8
ALPHA
 10
1765.415428
 20
792.6913
 30
0.0
 11
1765.42137
 21
793.031725
 31
0.0
  0
LINE
  5
1871B
  8
ALPHA
 10
1765.496223
 20
795.75513
 30
0.0
 11
1765.426394
 21
791.75513
 31
0.0
  0
LINE
  5
1871C
  8
ALPHA
 10
1765.441043
 20
792.265768
 30
0.0
 11
1765.501958
 21
795.75513
 31
0.0
  0
LINE
  5
1871D
  8
ALPHA
 10
1765.463713
 20
791.75513
 30
0.0
 11
1765.472628
 21
792.265768
 31
0.0
  0
LINE
  5
1871E
  8
ALPHA
 10
1765.480384
 20
792.180662
 30
0.0
 11
1765.472955
 21
791.75513
 31
0.0
  0
LINE
  5
1871F
  8
ALPHA
 10
1765.564175
 20
794.81896
 30
0.0
 11
1765.561203
 21
794.648747
 31
0.0
  0
LINE
  5
18720
  8
ALPHA
 10
1765.569331
 20
794.648747
 30
0.0
 11
1765.572303
 21
794.81896
 31
0.0
  0
LINE
  5
18721
  8
ALPHA
 10
1765.518811
 20
791.75513
 30
0.0
 11
1765.52624
 21
792.180662
 31
0.0
  0
LINE
  5
18722
  8
ALPHA
 10
1765.3913
 20
792.6913
 30
0.0
 11
1765.387419
 21
792.435981
 31
0.0
  0
LINE
  5
18723
  8
ALPHA
 10
1765.42137
 20
793.031725
 30
0.0
 11
1765.426548
 21
793.372151
 31
0.0
  0
LINE
  5
18724
  8
ALPHA
 10
1765.391865
 20
792.521087
 30
0.0
 11
1765.394234
 21
792.6913
 31
0.0
  0
LINE
  5
18725
  8
ALPHA
 10
1765.572303
 20
794.81896
 30
0.0
 11
1765.576878
 21
795.159385
 31
0.0
  0
LINE
  5
18726
  8
ALPHA
 10
1765.422074
 20
793.372151
 30
0.0
 11
1765.417602
 21
793.031725
 31
0.0
  0
LINE
  5
18727
  8
ALPHA
 10
1765.387419
 20
792.435981
 30
0.0
 11
1765.38413
 21
792.180662
 31
0.0
  0
LINE
  5
18728
  8
ALPHA
 10
1765.45106
 20
795.074279
 30
0.0
 11
1765.448063
 21
794.81896
 31
0.0
  0
LINE
  5
18729
  8
ALPHA
 10
1765.426548
 20
793.372151
 30
0.0
 11
1765.429492
 21
793.62747
 31
0.0
  0
LINE
  5
1872A
  8
ALPHA
 10
1765.390116
 20
792.350874
 30
0.0
 11
1765.391865
 21
792.521087
 31
0.0
  0
LINE
  5
1872B
  8
ALPHA
 10
1765.456988
 20
795.159385
 30
0.0
 11
1765.459948
 21
795.499811
 31
0.0
  0
LINE
  5
1872C
  8
ALPHA
 10
1765.462485
 20
787.154454
 30
0.0
 11
1765.4515
 21
785.850851
 31
0.0
  0
LINE
  5
1872D
  8
ALPHA
 10
1765.38413
 20
792.180662
 30
0.0
 11
1765.382952
 21
792.010449
 31
0.0
  0
LINE
  5
1872E
  8
ALPHA
 10
1765.565966
 20
795.074279
 30
0.0
 11
1765.564175
 21
794.81896
 31
0.0
  0
LINE
  5
1872F
  8
ALPHA
 10
1765.451883
 20
795.244491
 30
0.0
 11
1765.45106
 21
795.074279
 31
0.0
  0
LINE
  5
18730
  8
ALPHA
 10
1765.422881
 20
793.542364
 30
0.0
 11
1765.422074
 21
793.372151
 31
0.0
  0
LINE
  5
18731
  8
ALPHA
 10
1765.423223
 20
792.776406
 30
0.0
 11
1765.422707
 21
792.606194
 31
0.0
  0
LINE
  5
18732
  8
ALPHA
 10
1765.382952
 20
792.010449
 30
0.0
 11
1765.382446
 21
791.840236
 31
0.0
  0
LINE
  5
18733
  8
ALPHA
 10
1765.389874
 20
792.265768
 30
0.0
 11
1765.390116
 21
792.350874
 31
0.0
  0
LINE
  5
18734
  8
ALPHA
 10
1765.471049
 20
794.733853
 30
0.0
 11
1765.471355
 21
794.904066
 31
0.0
  0
LINE
  5
18735
  8
ALPHA
 10
1765.465784
 20
788.549184
 30
0.0
 11
1765.463619
 21
787.289003
 31
0.0
  0
LINE
  5
18736
  8
ALPHA
 10
1765.576878
 20
795.159385
 30
0.0
 11
1765.577403
 21
795.499811
 31
0.0
  0
LINE
  5
18737
  8
ALPHA
 10
1765.459948
 20
795.499811
 30
0.0
 11
1765.460022
 21
795.670023
 31
0.0
  0
LINE
  5
18738
  8
ALPHA
 10
1768.552964
 20
793.031725
 30
0.0
 11
1768.553056
 21
793.372151
 31
0.0
  0
LINE
  5
18739
  8
ALPHA
 10
1768.578422
 20
794.81896
 30
0.0
 11
1768.578519
 21
795.159385
 31
0.0
  0
LINE
  5
1873A
  8
ALPHA
 10
1767.903223
 20
793.372151
 30
0.0
 11
1767.903989
 21
793.116832
 31
0.0
  0
LINE
  5
1873B
  8
ALPHA
 10
1765.429492
 20
793.62747
 30
0.0
 11
1765.428776
 21
793.797683
 31
0.0
  0
LINE
  5
1873C
  8
ALPHA
 10
1768.338904
 20
792.6913
 30
0.0
 11
1768.340114
 21
792.435981
 31
0.0
  0
LINE
  5
1873D
  8
ALPHA
 10
1765.564978
 20
795.244491
 30
0.0
 11
1765.565966
 21
795.074279
 31
0.0
  0
LINE
  5
1873E
  8
ALPHA
 10
1765.459025
 20
789.563038
 30
0.0
 11
1765.465784
 21
788.549184
 31
0.0
  0
LINE
  5
1873F
  8
ALPHA
 10
1767.931752
 20
793.201938
 30
0.0
 11
1767.928681
 21
793.62747
 31
0.0
  0
LINE
  5
18740
  8
ALPHA
 10
1767.738179
 20
792.776406
 30
0.0
 11
1767.742372
 21
792.435981
 31
0.0
  0
LINE
  5
18741
  8
ALPHA
 10
1767.772967
 20
792.435981
 30
0.0
 11
1767.768709
 21
792.776406
 31
0.0
  0
LINE
  5
18742
  8
ALPHA
 10
1765.382446
 20
791.840236
 30
0.0
 11
1765.383511
 21
791.75513
 31
0.0
  0
LINE
  5
18743
  8
ALPHA
 10
1765.577403
 20
795.499811
 30
0.0
 11
1765.575042
 21
795.670023
 31
0.0
  0
LINE
  5
18744
  8
ALPHA
 10
1768.370112
 20
792.521087
 30
0.0
 11
1768.367383
 21
792.6913
 31
0.0
  0
LINE
  5
18745
  8
ALPHA
 10
1768.517916
 20
793.372151
 30
0.0
 11
1768.523639
 21
793.031725
 31
0.0
  0
LINE
  5
18746
  8
ALPHA
 10
1765.444849
 20
790.275228
 30
0.0
 11
1765.459025
 21
789.563038
 31
0.0
  0
LINE
  5
18747
  8
ALPHA
 10
1765.391591
 20
792.180662
 30
0.0
 11
1765.389874
 21
792.265768
 31
0.0
  0
LINE
  5
18748
  8
ALPHA
 10
1765.449897
 20
795.329598
 30
0.0
 11
1765.451883
 21
795.244491
 31
0.0
  0
LINE
  5
18749
  8
ALPHA
 10
1767.897236
 20
793.62747
 30
0.0
 11
1767.903223
 21
793.372151
 31
0.0
  0
LINE
  5
1874A
  8
ALPHA
 10
1768.340114
 20
792.435981
 30
0.0
 11
1768.347025
 21
792.180662
 31
0.0
  0
LINE
  5
1874B
  8
ALPHA
 10
1767.742372
 20
792.435981
 30
0.0
 11
1767.751683
 21
792.095555
 31
0.0
  0
LINE
  5
1874C
  8
ALPHA
 10
1768.541918
 20
795.074279
 30
0.0
 11
1768.549123
 21
794.81896
 31
0.0
  0
LINE
  5
1874D
  8
ALPHA
 10
1768.553056
 20
793.372151
 30
0.0
 11
1768.545797
 21
793.62747
 31
0.0
  0
LINE
  5
1874E
  8
ALPHA
 10
1767.928681
 20
793.62747
 30
0.0
 11
1767.918897
 21
793.967896
 31
0.0
  0
LINE
  5
1874F
  8
ALPHA
 10
1765.420184
 20
793.62747
 30
0.0
 11
1765.422881
 21
793.542364
 31
0.0
  0
LINE
  5
18750
  8
ALPHA
 10
1765.460022
 20
795.670023
 30
0.0
 11
1765.456646
 21
795.75513
 31
0.0
  0
LINE
  5
18751
  8
ALPHA
 10
1768.378569
 20
792.350874
 30
0.0
 11
1768.370112
 21
792.521087
 31
0.0
  0
LINE
  5
18752
  8
ALPHA
 10
1768.578519
 20
795.159385
 30
0.0
 11
1768.561059
 21
795.499811
 31
0.0
  0
LINE
  5
18753
  8
ALPHA
 10
1765.438359
 20
790.399859
 30
0.0
 11
1765.444849
 21
790.275228
 31
0.0
  0
LINE
  5
18754
  8
ALPHA
 10
1765.424973
 20
790.64349
 30
0.0
 11
1765.435196
 21
790.458875
 31
0.0
  0
LINE
  5
18755
  8
ALPHA
 10
1765.559974
 20
795.329598
 30
0.0
 11
1765.564978
 21
795.244491
 31
0.0
  0
LINE
  5
18756
  8
ALPHA
 10
1765.575042
 20
795.670023
 30
0.0
 11
1765.56869
 21
795.75513
 31
0.0
  0
LINE
  5
18757
  8
ALPHA
 10
1767.785357
 20
792.265768
 30
0.0
 11
1767.772967
 21
792.435981
 31
0.0
  0
LINE
  5
18758
  8
ALPHA
 10
1767.884568
 20
793.797683
 30
0.0
 11
1767.897236
 21
793.62747
 31
0.0
  0
LINE
  5
18759
  8
ALPHA
 10
1767.966616
 20
792.776406
 30
0.0
 11
1767.979593
 21
792.606194
 31
0.0
  0
LINE
  5
1875A
  8
ALPHA
 10
1768.086592
 20
794.733853
 30
0.0
 11
1768.073402
 21
794.904066
 31
0.0
  0
LINE
  5
1875B
  8
ALPHA
 10
1767.751683
 20
792.095555
 30
0.0
 11
1767.772775
 21
791.840236
 31
0.0
  0
LINE
  5
1875C
  8
ALPHA
 10
1768.347025
 20
792.180662
 30
0.0
 11
1768.361161
 21
792.010449
 31
0.0
  0
LINE
  5
1875D
  8
ALPHA
 10
1767.918897
 20
793.967896
 30
0.0
 11
1767.897232
 21
794.223215
 31
0.0
  0
LINE
  5
1875E
  8
ALPHA
 10
1768.503403
 20
793.542364
 30
0.0
 11
1768.517916
 21
793.372151
 31
0.0
  0
LINE
  5
1875F
  8
ALPHA
 10
1768.527421
 20
795.244491
 30
0.0
 11
1768.541918
 21
795.074279
 31
0.0
  0
POLYLINE
  5
18760
  8
ALPHA
 66
     1
 10
0.0
 20
0.0
 30
0.0
  0
VERTEX
  5
1B594
  8
ALPHA
 10
1765.431626
 20
790.508421
 30
0.0
  0
VERTEX
  5
1B595
  8
ALPHA
 10
1765.431445
 20
790.509998
 30
0.0
  0
VERTEX
  5
1B596
  8
ALPHA
 10
1765.432586
 20
790.49696
 30
0.0
  0
VERTEX
  5
1B597
  8
ALPHA
 10
1765.435196
 20
790.458875
 30
0.0
  0
VERTEX
  5
1B598
  8
ALPHA
 10
1765.438359
 20
790.399859
 30
0.0
  0
VERTEX
  5
1B599
  8
ALPHA
 10
1765.441708
 20
790.321602
 30
0.0
  0
VERTEX
  5
1B59A
  8
ALPHA
 10
1765.445065
 20
790.22497
 30
0.0
  0
VERTEX
  5
1B59B
  8
ALPHA
 10
1765.448345
 20
790.11026
 30
0.0
  0
VERTEX
  5
1B59C
  8
ALPHA
 10
1765.451485
 20
789.977719
 30
0.0
  0
VERTEX
  5
1B59D
  8
ALPHA
 10
1765.454416
 20
789.827311
 30
0.0
  0
VERTEX
  5
1B59E
  8
ALPHA
 10
1765.457087
 20
789.658908
 30
0.0
  0
VERTEX
  5
1B59F
  8
ALPHA
 10
1765.459463
 20
789.472402
 30
0.0
  0
VERTEX
  5
1B5A0
  8
ALPHA
 10
1765.461523
 20
789.267743
 30
0.0
  0
VERTEX
  5
1B5A1
  8
ALPHA
 10
1765.46323
 20
789.045128
 30
0.0
  0
VERTEX
  5
1B5A2
  8
ALPHA
 10
1765.464524
 20
788.80474
 30
0.0
  0
VERTEX
  5
1B5A3
  8
ALPHA
 10
1765.465361
 20
788.546807
 30
0.0
  0
VERTEX
  5
1B5A4
  8
ALPHA
 10
1765.465718
 20
788.271637
 30
0.0
  0
VERTEX
  5
1B5A5
  8
ALPHA
 10
1765.465577
 20
787.979689
 30
0.0
  0
VERTEX
  5
1B5A6
  8
ALPHA
 10
1765.464885
 20
787.671644
 30
0.0
  0
VERTEX
  5
1B5A7
  8
ALPHA
 10
1765.46359
 20
787.348347
 30
0.0
  0
VERTEX
  5
1B5A8
  8
ALPHA
 10
1765.461666
 20
787.010649
 30
0.0
  0
VERTEX
  5
1B5A9
  8
ALPHA
 10
1765.45911
 20
786.659496
 30
0.0
  0
VERTEX
  5
1B5AA
  8
ALPHA
 10
1765.455897
 20
786.295969
 30
0.0
  0
VERTEX
  5
1B5AB
  8
ALPHA
 10
1765.451992
 20
785.92124
 30
0.0
  0
VERTEX
  5
1B5AC
  8
ALPHA
 10
1765.447382
 20
785.536568
 30
0.0
  0
VERTEX
  5
1B5AD
  8
ALPHA
 10
1765.442081
 20
785.143308
 30
0.0
  0
VERTEX
  5
1B5AE
  8
ALPHA
 10
1765.436077
 20
784.743052
 30
0.0
  0
SEQEND
  5
1B5AF
  8
ALPHA
  0
LINE
  5
1877D
  8
ALPHA
 10
1768.361161
 20
792.010449
 30
0.0
 11
1768.38108
 21
791.840236
 31
0.0
  0
LINE
  5
1877E
  8
ALPHA
 10
1768.388539
 20
792.265768
 30
0.0
 11
1768.378569
 21
792.350874
 31
0.0
  0
LINE
  5
1877F
  8
ALPHA
 10
1768.561059
 20
795.499811
 30
0.0
 11
1768.540702
 21
795.670023
 31
0.0
  0
LINE
  5
18780
  8
ALPHA
 10
1768.545797
 20
793.62747
 30
0.0
 11
1768.519538
 21
793.797683
 31
0.0
  0
LINE
  5
18781
  8
ALPHA
 10
1767.804437
 20
792.180662
 30
0.0
 11
1767.785357
 21
792.265768
 31
0.0
  0
LINE
  5
18782
  8
ALPHA
 10
1767.865269
 20
793.882789
 30
0.0
 11
1767.884568
 21
793.797683
 31
0.0
  0
LINE
  5
18783
  8
ALPHA
 10
1768.38108
 20
791.840236
 30
0.0
 11
1768.402578
 21
791.75513
 31
0.0
  0
LINE
  5
18784
  8
ALPHA
 10
1767.772775
 20
791.840236
 30
0.0
 11
1767.796984
 21
791.75513
 31
0.0
  0
LINE
  5
18785
  8
ALPHA
 10
1768.540702
 20
795.670023
 30
0.0
 11
1768.501557
 21
795.75513
 31
0.0
  0
LINE
  5
18786
  8
ALPHA
 10
1768.415799
 20
792.180662
 30
0.0
 11
1768.388539
 21
792.265768
 31
0.0
  0
LINE
  5
18787
  8
ALPHA
 10
1768.499887
 20
795.329598
 30
0.0
 11
1768.527421
 21
795.244491
 31
0.0
  0
LINE
  5
18788
  8
ALPHA
 10
1768.470048
 20
793.62747
 30
0.0
 11
1768.503403
 21
793.542364
 31
0.0
  0
LINE
  5
18789
  8
ALPHA
 10
1767.897232
 20
794.223215
 30
0.0
 11
1767.872723
 21
794.308321
 31
0.0
  0
ARC
  5
1878A
  8
ALPHA
 10
1766.435383
 20
796.95513
 30
0.0
 40
1.0
 50
90.0
 51
179.0
  0
LINE
  5
1878B
  8
ALPHA
 10
1765.45805
 20
796.95513
 30
0.0
 11
1765.628761
 21
796.95513
 31
0.0
  0
ENDSEC
  0
EOF
