  0
SECTION
  2
HEADER
  9
$ACADVER
  1
AC1009
  9
$INSBASE
 10
0.0
 20
0.0
 30
0.0
  9
$EXTMIN
 10
2274.679913
 20
461.693232
 30
0.0
  9
$EXTMAX
 10
2539.679913
 20
841.693232
 30
0.0
  9
$LIMMIN
 10
0.0
 20
0.0
  9
$LIMMAX
 10
210.0
 20
297.0
  9
$ORTHOMODE
 70
     1
  9
$REGENMODE
 70
     1
  9
$FILLMODE
 70
     1
  9
$QTEXTMODE
 70
     0
  9
$MIRRTEXT
 70
     1
  9
$DRAGMODE
 70
     2
  9
$LTSCALE
 40
5.0
  9
$OSMODE
 70
     0
  9
$ATTMODE
 70
     1
  9
$TEXTSIZE
 40
0.2
  9
$TRACEWID
 40
0.05
  9
$TEXTSTYLE
  7
STANDARD
  9
$CLAYER
  8
0
  9
$CELTYPE
  6
BYLAYER
  9
$CECOLOR
 62
   256
  9
$DIMSCALE
 40
1.0
  9
$DIMASZ
 40
5.0
  9
$DIMEXO
 40
0.0625
  9
$DIMDLI
 40
0.38
  9
$DIMRND
 40
0.01
  9
$DIMDLE
 40
0.0
  9
$DIMEXE
 40
0.18
  9
$DIMTP
 40
0.0
  9
$DIMTM
 40
0.0
  9
$DIMTXT
 40
4.0
  9
$DIMCEN
 40
0.09
  9
$DIMTSZ
 40
0.0
  9
$DIMTOL
 70
     0
  9
$DIMLIM
 70
     0
  9
$DIMTIH
 70
     0
  9
$DIMTOH
 70
     0
  9
$DIMSE1
 70
     0
  9
$DIMSE2
 70
     0
  9
$DIMTAD
 70
     1
  9
$DIMZIN
 70
    12
  9
$DIMBLK
  1

  9
$DIMASO
 70
     1
  9
$DIMSHO
 70
     1
  9
$DIMPOST
  1

  9
$DIMAPOST
  1

  9
$DIMALT
 70
     0
  9
$DIMALTD
 70
     2
  9
$DIMALTF
 40
25.4
  9
$DIMLFAC
 40
1.0
  9
$DIMTOFL
 70
     1
  9
$DIMTVP
 40
0.0
  9
$DIMTIX
 70
     0
  9
$DIMSOXD
 70
     0
  9
$DIMSAH
 70
     0
  9
$DIMBLK1
  1

  9
$DIMBLK2
  1

  9
$DIMSTYLE
  2
SC_STAND
  9
$DIMCLRD
 70
     0
  9
$DIMCLRE
 70
     0
  9
$DIMCLRT
 70
     0
  9
$DIMTFAC
 40
1.0
  9
$DIMGAP
 40
1.0
  9
$LUNITS
 70
     2
  9
$LUPREC
 70
     4
  9
$SKETCHINC
 40
0.1
  9
$FILLETRAD
 40
0.0
  9
$AUNITS
 70
     0
  9
$AUPREC
 70
     0
  9
$MENU
  1
.
  9
$ELEVATION
 40
0.0
  9
$PELEVATION
 40
0.0
  9
$THICKNESS
 40
0.0
  9
$LIMCHECK
 70
     0
  9
$BLIPMODE
 70
     0
  9
$CHAMFERA
 40
0.0
  9
$CHAMFERB
 40
0.0
  9
$SKPOLY
 70
     0
  9
$TDCREATE
 40
2452082.615375
  9
$TDUPDATE
 40
2452312.659096
  9
$TDINDWG
 40
0.32995
  9
$TDUSRTIMER
 40
0.32995
  9
$USRTIMER
 70
     1
  9
$ANGBASE
 50
0.0
  9
$ANGDIR
 70
     0
  9
$PDMODE
 70
     0
  9
$PDSIZE
 40
0.0
  9
$PLINEWID
 40
0.0
  9
$COORDS
 70
     1
  9
$SPLFRAME
 70
     0
  9
$SPLINETYPE
 70
     6
  9
$SPLINESEGS
 70
     8
  9
$ATTDIA
 70
     0
  9
$ATTREQ
 70
     1
  9
$HANDLING
 70
     1
  9
$HANDSEED
  5
2A63B
  9
$SURFTAB1
 70
     6
  9
$SURFTAB2
 70
     6
  9
$SURFTYPE
 70
     6
  9
$SURFU
 70
     6
  9
$SURFV
 70
     6
  9
$UCSNAME
  2

  9
$UCSORG
 10
0.0
 20
0.0
 30
0.0
  9
$UCSXDIR
 10
1.0
 20
0.0
 30
0.0
  9
$UCSYDIR
 10
0.0
 20
1.0
 30
0.0
  9
$PUCSNAME
  2

  9
$PUCSORG
 10
0.0
 20
0.0
 30
0.0
  9
$PUCSXDIR
 10
1.0
 20
0.0
 30
0.0
  9
$PUCSYDIR
 10
0.0
 20
1.0
 30
0.0
  9
$USERI1
 70
     0
  9
$USERI2
 70
     0
  9
$USERI3
 70
     0
  9
$USERI4
 70
     0
  9
$USERI5
 70
     0
  9
$USERR1
 40
0.0
  9
$USERR2
 40
0.0
  9
$USERR3
 40
0.0
  9
$USERR4
 40
0.0
  9
$USERR5
 40
0.0
  9
$WORLDVIEW
 70
     1
  9
$SHADEDGE
 70
     3
  9
$SHADEDIF
 70
    70
  9
$TILEMODE
 70
     1
  9
$MAXACTVP
 70
    48
  9
$PLIMCHECK
 70
     0
  9
$PEXTMIN
 10
1.000000E+020
 20
1.000000E+020
 30
1.000000E+020
  9
$PEXTMAX
 10
-1.000000E+020
 20
-1.000000E+020
 30
-1.000000E+020
  9
$PLIMMIN
 10
0.0
 20
0.0
  9
$PLIMMAX
 10
12.0
 20
9.0
  9
$UNITMODE
 70
     0
  9
$VISRETAIN
 70
     1
  9
$PLINEGEN
 70
     0
  9
$PSLTSCALE
 70
     1
  0
ENDSEC
  0
SECTION
  2
TABLES
  0
TABLE
  2
VPORT
 70
     2
  0
VPORT
  2
*ACTIVE
 70
     0
 10
0.0
 20
0.0
 11
1.0
 21
1.0
 12
2407.410982
 22
651.664041
 13
0.0
 23
0.0
 14
1.0
 24
1.0
 15
0.0
 25
0.0
 16
0.0
 26
0.0
 36
1.0
 17
0.0
 27
0.0
 37
0.0
 40
386.340571
 41
1.838384
 42
50.0
 43
0.0
 44
0.0
 50
0.0
 51
0.0
 71
     0
 72
  1000
 73
     1
 74
     1
 75
     0
 76
     0
 77
     0
 78
     0
  0
ENDTAB
  0
TABLE
  2
LTYPE
 70
     1
  0
LTYPE
  2
CONTINUOUS
 70
     0
  3
Solid line
 72
    65
 73
     0
 40
0.0
  0
ENDTAB
  0
TABLE
  2
LAYER
 70
     2
  0
LAYER
  2
0
 70
     0
 62
     7
  6
CONTINUOUS
  0
LAYER
  2
ALPHA
 70
     0
 62
   254
  6
CONTINUOUS
  0
ENDTAB
  0
TABLE
  2
STYLE
 70
     1
  0
STYLE
  2
STANDARD
 70
     0
 40
0.0
 41
1.0
 50
0.0
 71
     0
 42
0.2
  3
txt
  4

  0
ENDTAB
  0
TABLE
  2
VIEW
 70
     0
  0
ENDTAB
  0
TABLE
  2
UCS
 70
     0
  0
ENDTAB
  0
TABLE
  2
APPID
 70
     3
  0
APPID
  2
ACAD
 70
     0
  0
APPID
  2
AVE_RENDER
 70
     0
  0
APPID
  2
AVE_MATERIAL
 70
     0
  0
ENDTAB
  0
TABLE
  2
DIMSTYLE
 70
     2
  0
DIMSTYLE
  2
STANDARD
 70
     0
  3

  4

  5

  6

  7

 40
1.0
 41
0.18
 42
0.0625
 43
0.38
 44
0.18
 45
0.0
 46
0.0
 47
0.0
 48
0.0
140
0.18
141
0.09
142
0.0
143
25.4
144
1.0
145
0.0
146
1.0
147
0.09
 71
     0
 72
     0
 73
     1
 74
     1
 75
     0
 76
     0
 77
     0
 78
     0
170
     0
171
     2
172
     0
173
     0
174
     0
175
     0
176
     0
177
     0
178
     0
  0
DIMSTYLE
  2
SC_STAND
 70
     0
  3

  4

  5

  6

  7

 40
1.0
 41
4.0
 42
0.0625
 43
0.38
 44
0.18
 45
0.01
 46
0.0
 47
0.0
 48
0.0
140
4.0
141
0.09
142
0.0
143
25.4
144
1.0
145
0.0
146
1.0
147
1.0
 71
     0
 72
     0
 73
     0
 74
     0
 75
     0
 76
     0
 77
     1
 78
    12
170
     0
171
     2
172
     1
173
     0
174
     0
175
     0
176
     0
177
     0
178
     0
  0
ENDTAB
  0
ENDSEC
  0
SECTION
  2
BLOCKS
  0
BLOCK
  8
0
  2
$MODEL_SPACE
 70
     0
 10
0.0
 20
0.0
 30
0.0
  3
$MODEL_SPACE
  1

  0
ENDBLK
  5
29ED4
  8
0
  0
BLOCK
 67
     1
  8
0
  2
$PAPER_SPACE
 70
     0
 10
0.0
 20
0.0
 30
0.0
  3
$PAPER_SPACE
  1

  0
ENDBLK
  5
29ED2
 67
     1
  8
0
  0
BLOCK
  8
0
  2
SCH_ISO
 70
     0
 10
0.0
 20
0.0
 30
0.0
  3
SCH_ISO
  1

  0
ENDBLK
  5
13A
  8
0
  0
ENDSEC
  0
SECTION
  2
ENTITIES
  0
INSERT
  5
13C
  8
ALPHA
 62
   255
  2
SCH_ISO
 10
0.0
 20
0.0
 30
0.0
  0
LINE
  5
26161
  8
ALPHA
 10
2539.679913
 20
767.580951
 30
0.0
 11
2539.679913
 21
629.71613
 31
0.0
  0
LINE
  5
26162
  8
ALPHA
 10
2537.715686
 20
644.550677
 30
0.0
 11
2537.715686
 21
767.615133
 31
0.0
  0
LINE
  5
26163
  8
ALPHA
 10
2533.51416
 20
767.688251
 30
0.0
 11
2533.51416
 21
583.093256
 31
0.0
  0
LINE
  5
26164
  8
ALPHA
 10
2532.058836
 20
767.688251
 30
0.0
 11
2532.058836
 21
583.093256
 31
0.0
  0
LINE
  5
26165
  8
ALPHA
 10
2505.979913
 20
776.743232
 30
0.0
 11
2505.979913
 21
544.343232
 31
0.0
  0
LINE
  5
26166
  8
ALPHA
 10
2504.479913
 20
793.043232
 30
0.0
 11
2504.479913
 21
528.043232
 31
0.0
  0
LINE
  5
26167
  8
ALPHA
 10
2501.479913
 20
528.043232
 30
0.0
 11
2501.479913
 21
793.043232
 31
0.0
  0
LINE
  5
26168
  8
ALPHA
 10
2277.679913
 20
841.693232
 30
0.0
 11
2277.679913
 21
461.693232
 31
0.0
  0
LINE
  5
26169
  8
ALPHA
 10
2274.679913
 20
461.693232
 30
0.0
 11
2274.679913
 21
841.693232
 31
0.0
  0
LINE
  5
27999
  8
ALPHA
 10
2346.479913
 20
793.043232
 30
0.0
 11
2501.479913
 21
793.043232
 31
0.0
  0
LINE
  5
2799A
  8
ALPHA
 10
2346.179913
 20
796.043232
 30
0.0
 11
2504.179913
 21
796.043232
 31
0.0
  0
LINE
  5
2799B
  8
ALPHA
 10
2346.179913
 20
797.543232
 30
0.0
 11
2504.179913
 21
797.543232
 31
0.0
  0
LINE
  5
279D1
  8
ALPHA
 10
2316.679913
 20
796.043232
 30
0.0
 11
2286.773823
 21
840.804313
 31
0.0
  0
LINE
  5
279D2
  8
ALPHA
 10
2416.179913
 20
841.043232
 30
0.0
 11
2416.179913
 21
809.543232
 31
0.0
  0
LINE
  5
279D3
  8
ALPHA
 10
2411.179913
 20
841.043232
 30
0.0
 11
2411.179913
 21
809.543232
 31
0.0
  0
LINE
  5
27B71
  8
ALPHA
 10
2274.679913
 20
841.693232
 30
0.0
 11
2285.110845
 21
841.693232
 31
0.0
  0
ARC
  5
27B72
  8
ALPHA
 10
2285.110845
 20
839.693232
 30
0.0
 40
2.0
 50
33.747957
 51
90.0
  0
LINE
  5
27E4F
  8
ALPHA
 10
2411.179913
 20
841.043232
 30
0.0
 11
2416.179913
 21
841.043232
 31
0.0
  0
LINE
  5
27E50
  8
ALPHA
 10
2344.479913
 20
796.043232
 30
0.0
 11
2316.679913
 21
796.043232
 31
0.0
  0
CIRCLE
  5
27E51
  8
ALPHA
 10
2291.179913
 20
805.693232
 30
0.0
 40
8.0
  0
LINE
  5
27E52
  8
ALPHA
 10
2294.868038
 20
831.693232
 30
0.0
 11
2295.679913
 21
830.881357
 31
0.0
  0
LINE
  5
27E53
  8
ALPHA
 10
2295.679913
 20
827.474482
 30
0.0
 11
2295.679913
 21
830.881357
 31
0.0
  0
LINE
  5
27E54
  8
ALPHA
 10
2294.868038
 20
831.693232
 30
0.0
 11
2294.868038
 21
828.68953
 31
0.0
  0
LINE
  5
27E55
  8
ALPHA
 10
2295.679913
 20
830.881357
 30
0.0
 11
2293.403619
 21
830.881357
 31
0.0
  0
LINE
  5
27E56
  8
ALPHA
 10
2292.861183
 20
831.693232
 30
0.0
 11
2294.868038
 21
831.693232
 31
0.0
  0
LINE
  5
27E57
  8
ALPHA
 10
2357.679854
 20
798.543232
 30
0.0
 11
2347.679971
 21
798.543232
 31
0.0
  0
LINE
  5
27E58
  8
ALPHA
 10
2356.929913
 20
803.343232
 30
0.0
 11
2356.929913
 21
799.843232
 31
0.0
  0
LINE
  5
27E59
  8
ALPHA
 10
2348.429913
 20
803.343232
 30
0.0
 11
2348.429913
 21
799.843232
 31
0.0
  0
LINE
  5
27E5A
  8
ALPHA
 10
2348.429963
 20
803.343232
 30
0.0
 11
2356.929863
 21
803.343232
 31
0.0
  0
LINE
  5
27E5B
  8
ALPHA
 10
2356.829913
 20
799.843232
 30
0.0
 11
2356.829913
 21
798.543232
 31
0.0
  0
LINE
  5
27E5C
  8
ALPHA
 10
2349.179913
 20
796.043232
 30
0.0
 11
2349.179913
 21
797.543232
 31
0.0
  0
LINE
  5
27E5D
  8
ALPHA
 10
2348.53745
 20
799.843232
 30
0.0
 11
2348.53745
 21
798.543232
 31
0.0
  0
LINE
  5
27E5E
  8
ALPHA
 10
2347.679913
 20
798.543232
 30
0.0
 11
2347.679913
 21
797.543232
 31
0.0
  0
LINE
  5
27E5F
  8
ALPHA
 10
2346.479913
 20
793.043232
 30
0.0
 11
2346.479913
 21
796.043232
 31
0.0
  0
LINE
  5
27E60
  8
ALPHA
 10
2346.179913
 20
795.743232
 30
0.0
 11
2346.179913
 21
793.043232
 31
0.0
  0
LINE
  5
27E61
  8
ALPHA
 10
2346.179913
 20
796.043232
 30
0.0
 11
2346.179913
 21
797.543232
 31
0.0
  0
LINE
  5
27E62
  8
ALPHA
 10
2344.479913
 20
793.043232
 30
0.0
 11
2344.479913
 21
796.043232
 31
0.0
  0
LINE
  5
27E63
  8
ALPHA
 10
2346.479913
 20
793.043232
 30
0.0
 11
2344.479913
 21
793.043232
 31
0.0
  0
LINE
  5
27E64
  8
ALPHA
 10
2344.479913
 20
795.743232
 30
0.0
 11
2346.479913
 21
795.743232
 31
0.0
  0
LINE
  5
27E65
  8
ALPHA
 10
2348.429963
 20
799.843232
 30
0.0
 11
2356.929863
 21
799.843232
 31
0.0
  0
LINE
  5
27E66
  8
ALPHA
 10
2357.679913
 20
798.543232
 30
0.0
 11
2357.679913
 21
797.543232
 31
0.0
  0
LINE
  5
27E67
  8
ALPHA
 10
2405.694798
 20
800.565985
 30
0.0
 11
2409.679913
 21
807.889326
 31
0.0
  0
POLYLINE
  5
27E68
  8
ALPHA
 66
     1
 10
0.0
 20
0.0
 30
0.0
  0
VERTEX
  5
29ED9
  8
ALPHA
 10
2409.44854
 20
799.571435
 30
0.0
  0
VERTEX
  5
29EDA
  8
ALPHA
 10
2409.01949
 20
799.800145
 30
0.0
  0
VERTEX
  5
29EDB
  8
ALPHA
 10
2408.618312
 20
799.984925
 30
0.0
  0
VERTEX
  5
29EDC
  8
ALPHA
 10
2408.246562
 20
800.132935
 30
0.0
  0
VERTEX
  5
29EDD
  8
ALPHA
 10
2407.903808
 20
800.250777
 30
0.0
  0
VERTEX
  5
29EDE
  8
ALPHA
 10
2407.58944
 20
800.343875
 30
0.0
  0
VERTEX
  5
29EDF
  8
ALPHA
 10
2407.302209
 20
800.416857
 30
0.0
  0
VERTEX
  5
29EE0
  8
ALPHA
 10
2407.03987
 20
800.47372
 30
0.0
  0
VERTEX
  5
29EE1
  8
ALPHA
 10
2406.799712
 20
800.517756
 30
0.0
  0
VERTEX
  5
29EE2
  8
ALPHA
 10
2406.578993
 20
800.551584
 30
0.0
  0
VERTEX
  5
29EE3
  8
ALPHA
 10
2406.375224
 20
800.577236
 30
0.0
  0
SEQEND
  5
29EE4
  8
ALPHA
  0
LINE
  5
27E75
  8
ALPHA
 10
2401.511286
 20
799.571435
 30
0.0
 11
2409.44854
 21
799.571435
 31
0.0
  0
LINE
  5
27E76
  8
ALPHA
 10
2406.345332
 20
800.559803
 30
0.0
 11
2406.345332
 21
800.532319
 31
0.0
  0
LINE
  5
27E77
  8
ALPHA
 10
2406.32788
 20
800.528195
 30
0.0
 11
2406.32788
 21
800.57059
 31
0.0
  0
LINE
  5
27E78
  8
ALPHA
 10
2405.793444
 20
800.555078
 30
0.0
 11
2405.793444
 21
800.54593
 31
0.0
  0
LINE
  5
27E79
  8
ALPHA
 10
2405.14192
 20
800.550748
 30
0.0
 11
2405.14192
 21
800.542873
 31
0.0
  0
LINE
  5
27E7A
  8
ALPHA
 10
2404.656313
 20
800.525292
 30
0.0
 11
2404.656313
 21
800.564853
 31
0.0
  0
LINE
  5
27E7B
  8
ALPHA
 10
2404.624305
 20
800.529786
 30
0.0
 11
2404.624305
 21
800.568807
 31
0.0
  0
LINE
  5
27E7C
  8
ALPHA
 10
2404.608162
 20
800.557234
 30
0.0
 11
2404.608162
 21
800.533949
 31
0.0
  0
LINE
  5
27E7D
  8
ALPHA
 10
2401.511286
 20
799.571435
 30
0.0
 11
2401.511286
 21
799.043232
 31
0.0
  0
LINE
  5
27E7E
  8
ALPHA
 10
2401.479913
 20
799.043232
 30
0.0
 11
2401.479913
 21
797.543232
 31
0.0
  0
POLYLINE
  5
27E7F
  8
ALPHA
 66
     1
 10
0.0
 20
0.0
 30
0.0
  0
VERTEX
  5
29EE5
  8
ALPHA
 10
2404.592413
 20
800.544166
 30
0.0
  0
VERTEX
  5
29EE6
  8
ALPHA
 10
2404.592754
 20
800.545962
 30
0.0
  0
VERTEX
  5
29EE7
  8
ALPHA
 10
2404.608162
 20
800.557234
 30
0.0
  0
SEQEND
  5
29EE8
  8
ALPHA
  0
POLYLINE
  5
27E84
  8
ALPHA
 66
     1
 10
0.0
 20
0.0
 30
0.0
  0
VERTEX
  5
29EE9
  8
ALPHA
 10
2404.624305
 20
800.569107
 30
0.0
  0
VERTEX
  5
29EEA
  8
ALPHA
 10
2404.622415
 20
800.572008
 30
0.0
  0
VERTEX
  5
29EEB
  8
ALPHA
 10
2404.609001
 20
800.575765
 30
0.0
  0
VERTEX
  5
29EEC
  8
ALPHA
 10
2404.584712
 20
800.577249
 30
0.0
  0
SEQEND
  5
29EED
  8
ALPHA
  0
LINE
  5
27E8A
  8
ALPHA
 10
2404.622638
 20
800.565801
 30
0.0
 11
2404.624305
 21
800.569107
 31
0.0
  0
POLYLINE
  5
27E8B
  8
ALPHA
 66
     1
 10
0.0
 20
0.0
 30
0.0
  0
VERTEX
  5
29EEE
  8
ALPHA
 10
2406.32788
 20
800.570682
 30
0.0
  0
VERTEX
  5
29EEF
  8
ALPHA
 10
2406.331689
 20
800.566182
 30
0.0
  0
VERTEX
  5
29EF0
  8
ALPHA
 10
2406.345332
 20
800.559803
 30
0.0
  0
SEQEND
  5
29EF1
  8
ALPHA
  0
LINE
  5
27E90
  8
ALPHA
 10
2406.367413
 20
800.544164
 30
0.0
 11
2406.362111
 21
800.537424
 31
0.0
  0
POLYLINE
  5
27E91
  8
ALPHA
 66
     1
 10
0.0
 20
0.0
 30
0.0
  0
VERTEX
  5
29EF2
  8
ALPHA
 10
2406.345332
 20
800.559803
 30
0.0
  0
VERTEX
  5
29EF3
  8
ALPHA
 10
2406.365879
 20
800.548047
 30
0.0
  0
VERTEX
  5
29EF4
  8
ALPHA
 10
2406.367413
 20
800.544164
 30
0.0
  0
SEQEND
  5
29EF5
  8
ALPHA
  0
LINE
  5
27E96
  8
ALPHA
 10
2401.939749
 20
799.79983
 30
0.0
 11
2401.511286
 21
799.571435
 31
0.0
  0
LINE
  5
27E97
  8
ALPHA
 10
2404.608162
 20
800.557234
 30
0.0
 11
2404.622638
 21
800.565801
 31
0.0
  0
POLYLINE
  5
27E98
  8
ALPHA
 66
     1
 10
0.0
 20
0.0
 30
0.0
  0
VERTEX
  5
29EF6
  8
ALPHA
 10
2404.64071
 20
800.574074
 30
0.0
  0
VERTEX
  5
29EF7
  8
ALPHA
 10
2404.654215
 20
800.569047
 30
0.0
  0
VERTEX
  5
29EF8
  8
ALPHA
 10
2404.656313
 20
800.565198
 30
0.0
  0
SEQEND
  5
29EF9
  8
ALPHA
  0
POLYLINE
  5
27E9D
  8
ALPHA
 66
     1
 10
0.0
 20
0.0
 30
0.0
  0
VERTEX
  5
29EFA
  8
ALPHA
 10
2404.631486
 20
800.527934
 30
0.0
  0
VERTEX
  5
29EFB
  8
ALPHA
 10
2404.60067
 20
800.535881
 30
0.0
  0
VERTEX
  5
29EFC
  8
ALPHA
 10
2404.592413
 20
800.544166
 30
0.0
  0
SEQEND
  5
29EFD
  8
ALPHA
  0
POLYLINE
  5
27EA2
  8
ALPHA
 66
     1
 10
0.0
 20
0.0
 30
0.0
  0
VERTEX
  5
29EFE
  8
ALPHA
 10
2406.334317
 20
800.528968
 30
0.0
  0
VERTEX
  5
29EFF
  8
ALPHA
 10
2406.286513
 20
800.523223
 30
0.0
  0
VERTEX
  5
29F00
  8
ALPHA
 10
2406.220489
 20
800.520193
 30
0.0
  0
VERTEX
  5
29F01
  8
ALPHA
 10
2406.138235
 20
800.520156
 30
0.0
  0
VERTEX
  5
29F02
  8
ALPHA
 10
2406.047451
 20
800.523193
 30
0.0
  0
VERTEX
  5
29F03
  8
ALPHA
 10
2405.954916
 20
800.528964
 30
0.0
  0
VERTEX
  5
29F04
  8
ALPHA
 10
2405.861496
 20
800.537475
 30
0.0
  0
VERTEX
  5
29F05
  8
ALPHA
 10
2405.775918
 20
800.548108
 30
0.0
  0
VERTEX
  5
29F06
  8
ALPHA
 10
2405.706159
 20
800.559803
 30
0.0
  0
SEQEND
  5
29F07
  8
ALPHA
  0
LINE
  5
27EAD
  8
ALPHA
 10
2404.584712
 20
800.577249
 30
0.0
 11
2404.382894
 21
800.551845
 31
0.0
  0
POLYLINE
  5
27EAE
  8
ALPHA
 66
     1
 10
0.0
 20
0.0
 30
0.0
  0
VERTEX
  5
29F08
  8
ALPHA
 10
2404.382894
 20
800.551845
 30
0.0
  0
VERTEX
  5
29F09
  8
ALPHA
 10
2404.165625
 20
800.518678
 30
0.0
  0
VERTEX
  5
29F0A
  8
ALPHA
 10
2403.925613
 20
800.474845
 30
0.0
  0
VERTEX
  5
29F0B
  8
ALPHA
 10
2403.662325
 20
800.417959
 30
0.0
  0
VERTEX
  5
29F0C
  8
ALPHA
 10
2403.373493
 20
800.344725
 30
0.0
  0
VERTEX
  5
29F0D
  8
ALPHA
 10
2403.057304
 20
800.251186
 30
0.0
  0
VERTEX
  5
29F0E
  8
ALPHA
 10
2402.712942
 20
800.132816
 30
0.0
  0
VERTEX
  5
29F0F
  8
ALPHA
 10
2402.340207
 20
799.984366
 30
0.0
  0
VERTEX
  5
29F10
  8
ALPHA
 10
2401.939749
 20
799.79983
 30
0.0
  0
SEQEND
  5
29F11
  8
ALPHA
  0
LINE
  5
27EB9
  8
ALPHA
 10
2405.217059
 20
800.56237
 30
0.0
 11
2405.14192
 21
800.550748
 31
0.0
  0
POLYLINE
  5
27EBA
  8
ALPHA
 66
     1
 10
0.0
 20
0.0
 30
0.0
  0
VERTEX
  5
29F12
  8
ALPHA
 10
2405.253666
 20
800.559803
 30
0.0
  0
VERTEX
  5
29F13
  8
ALPHA
 10
2405.302745
 20
800.567501
 30
0.0
  0
VERTEX
  5
29F14
  8
ALPHA
 10
2405.357544
 20
800.572892
 30
0.0
  0
VERTEX
  5
29F15
  8
ALPHA
 10
2405.417148
 20
800.576177
 30
0.0
  0
VERTEX
  5
29F16
  8
ALPHA
 10
2405.479916
 20
800.577296
 30
0.0
  0
VERTEX
  5
29F17
  8
ALPHA
 10
2405.542686
 20
800.576177
 30
0.0
  0
VERTEX
  5
29F18
  8
ALPHA
 10
2405.602293
 20
800.572891
 30
0.0
  0
VERTEX
  5
29F19
  8
ALPHA
 10
2405.657088
 20
800.5675
 30
0.0
  0
VERTEX
  5
29F1A
  8
ALPHA
 10
2405.706159
 20
800.559803
 30
0.0
  0
SEQEND
  5
29F1B
  8
ALPHA
  0
POLYLINE
  5
27EC5
  8
ALPHA
 66
     1
 10
0.0
 20
0.0
 30
0.0
  0
VERTEX
  5
29F1C
  8
ALPHA
 10
2405.253666
 20
800.559803
 30
0.0
  0
VERTEX
  5
29F1D
  8
ALPHA
 10
2405.185267
 20
800.548304
 30
0.0
  0
VERTEX
  5
29F1E
  8
ALPHA
 10
2405.101882
 20
800.537857
 30
0.0
  0
VERTEX
  5
29F1F
  8
ALPHA
 10
2405.011183
 20
800.529449
 30
0.0
  0
VERTEX
  5
29F20
  8
ALPHA
 10
2404.92039
 20
800.523591
 30
0.0
  0
VERTEX
  5
29F21
  8
ALPHA
 10
2404.830476
 20
800.520326
 30
0.0
  0
VERTEX
  5
29F22
  8
ALPHA
 10
2404.748162
 20
800.520028
 30
0.0
  0
VERTEX
  5
29F23
  8
ALPHA
 10
2404.681013
 20
800.522663
 30
0.0
  0
VERTEX
  5
29F24
  8
ALPHA
 10
2404.631486
 20
800.527934
 30
0.0
  0
SEQEND
  5
29F25
  8
ALPHA
  0
LINE
  5
27ED0
  8
ALPHA
 10
2406.362111
 20
800.537424
 30
0.0
 11
2406.334317
 21
800.528968
 31
0.0
  0
LINE
  5
27ED1
  8
ALPHA
 10
2404.656313
 20
800.528445
 30
0.0
 11
2404.670688
 21
800.52531
 31
0.0
  0
POLYLINE
  5
27ED2
  8
ALPHA
 66
     1
 10
0.0
 20
0.0
 30
0.0
  0
VERTEX
  5
29F26
  8
ALPHA
 10
2405.793444
 20
800.555078
 30
0.0
  0
VERTEX
  5
29F27
  8
ALPHA
 10
2405.871659
 20
800.543865
 30
0.0
  0
VERTEX
  5
29F28
  8
ALPHA
 10
2405.962002
 20
800.534039
 30
0.0
  0
VERTEX
  5
29F29
  8
ALPHA
 10
2406.055946
 20
800.52654
 30
0.0
  0
VERTEX
  5
29F2A
  8
ALPHA
 10
2406.14594
 20
800.521801
 30
0.0
  0
VERTEX
  5
29F2B
  8
ALPHA
 10
2406.214564
 20
800.52019
 30
0.0
  0
SEQEND
  5
29F2C
  8
ALPHA
  0
LINE
  5
27EDA
  8
ALPHA
 10
2405.793444
 20
800.555078
 30
0.0
 11
2405.717275
 21
800.56534
 31
0.0
  0
POLYLINE
  5
27EDB
  8
ALPHA
 66
     1
 10
0.0
 20
0.0
 30
0.0
  0
VERTEX
  5
29F2D
  8
ALPHA
 10
2405.717275
 20
800.56534
 30
0.0
  0
VERTEX
  5
29F2E
  8
ALPHA
 10
2405.637359
 20
800.572244
 30
0.0
  0
VERTEX
  5
29F2F
  8
ALPHA
 10
2405.552997
 20
800.576232
 30
0.0
  0
VERTEX
  5
29F30
  8
ALPHA
 10
2405.513993
 20
800.576688
 30
0.0
  0
SEQEND
  5
29F31
  8
ALPHA
  0
POLYLINE
  5
27EE1
  8
ALPHA
 66
     1
 10
0.0
 20
0.0
 30
0.0
  0
VERTEX
  5
29F32
  8
ALPHA
 10
2404.584764
 20
800.577254
 30
0.0
  0
VERTEX
  5
29F33
  8
ALPHA
 10
2404.61694
 20
800.576698
 30
0.0
  0
VERTEX
  5
29F34
  8
ALPHA
 10
2404.64071
 20
800.574074
 30
0.0
  0
SEQEND
  5
29F35
  8
ALPHA
  0
LINE
  5
27EE6
  8
ALPHA
 10
2401.511286
 20
799.043232
 30
0.0
 11
2401.479929
 21
799.043232
 31
0.0
  0
POLYLINE
  5
27EE7
  8
ALPHA
 66
     1
 10
0.0
 20
0.0
 30
0.0
  0
VERTEX
  5
29F36
  8
ALPHA
 10
2406.375224
 20
800.577236
 30
0.0
  0
VERTEX
  5
29F37
  8
ALPHA
 10
2406.350699
 20
800.576889
 30
0.0
  0
VERTEX
  5
29F38
  8
ALPHA
 10
2406.334593
 20
800.574938
 30
0.0
  0
VERTEX
  5
29F39
  8
ALPHA
 10
2406.327988
 20
800.571332
 30
0.0
  0
VERTEX
  5
29F3A
  8
ALPHA
 10
2406.32788
 20
800.570682
 30
0.0
  0
SEQEND
  5
29F3B
  8
ALPHA
  0
POLYLINE
  5
27EEE
  8
ALPHA
 66
     1
 10
0.0
 20
0.0
 30
0.0
  0
VERTEX
  5
29F3C
  8
ALPHA
 10
2404.802141
 20
800.520223
 30
0.0
  0
VERTEX
  5
29F3D
  8
ALPHA
 10
2404.852689
 20
800.521223
 30
0.0
  0
VERTEX
  5
29F3E
  8
ALPHA
 10
2404.928503
 20
800.525293
 30
0.0
  0
VERTEX
  5
29F3F
  8
ALPHA
 10
2405.006243
 20
800.531908
 30
0.0
  0
VERTEX
  5
29F40
  8
ALPHA
 10
2405.079862
 20
800.540693
 30
0.0
  0
VERTEX
  5
29F41
  8
ALPHA
 10
2405.14192
 20
800.550748
 30
0.0
  0
SEQEND
  5
29F42
  8
ALPHA
  0
POLYLINE
  5
27EF6
  8
ALPHA
 66
     1
 10
0.0
 20
0.0
 30
0.0
  0
VERTEX
  5
29F43
  8
ALPHA
 10
2405.425027
 20
800.576317
 30
0.0
  0
VERTEX
  5
29F44
  8
ALPHA
 10
2405.378735
 20
800.575245
 30
0.0
  0
VERTEX
  5
29F45
  8
ALPHA
 10
2405.29577
 20
800.570308
 30
0.0
  0
SEQEND
  5
29F46
  8
ALPHA
  0
LINE
  5
27EFB
  8
ALPHA
 10
2405.29577
 20
800.570308
 30
0.0
 11
2405.217059
 21
800.56237
 31
0.0
  0
LINE
  5
27EFC
  8
ALPHA
 10
2417.679913
 20
797.543232
 30
0.0
 11
2417.679913
 21
809.543232
 31
0.0
  0
LINE
  5
27EFD
  8
ALPHA
 10
2409.679913
 20
797.543232
 30
0.0
 11
2409.679913
 21
809.543232
 31
0.0
  0
LINE
  5
27EFE
  8
ALPHA
 10
2418.613139
 20
804.082222
 30
0.0
 11
2421.736103
 21
798.343232
 31
0.0
  0
LINE
  5
27EFF
  8
ALPHA
 10
2422.379913
 20
799.252259
 30
0.0
 11
2417.679913
 21
807.889326
 31
0.0
  0
LINE
  5
27F00
  8
ALPHA
 10
2408.746687
 20
804.082222
 30
0.0
 11
2406.806361
 21
800.516537
 31
0.0
  0
ARC
  5
27F01
  8
ALPHA
 10
2409.185872
 20
803.843232
 30
0.0
 40
0.5
 50
8.85499
 51
151.446461
  0
ARC
  5
27F02
  8
ALPHA
 10
2418.173953
 20
803.843232
 30
0.0
 40
0.5
 50
28.553539
 51
171.14501
  0
LINE
  5
27F03
  8
ALPHA
 10
2409.679913
 20
809.543232
 30
0.0
 11
2417.679913
 21
809.543232
 31
0.0
  0
LINE
  5
27F04
  8
ALPHA
 10
2409.479913
 20
799.043232
 30
0.0
 11
2409.479913
 21
797.543232
 31
0.0
  0
LINE
  5
27F05
  8
ALPHA
 10
2409.44854
 20
799.571435
 30
0.0
 11
2409.44854
 21
799.043232
 31
0.0
  0
LINE
  5
27F06
  8
ALPHA
 10
2421.736103
 20
798.343232
 30
0.0
 11
2422.379913
 21
799.252259
 31
0.0
  0
LINE
  5
27F07
  8
ALPHA
 10
2409.479897
 20
799.043232
 30
0.0
 11
2409.44854
 21
799.043232
 31
0.0
  0
POLYLINE
  5
28167
  8
ALPHA
 66
     1
 10
0.0
 20
0.0
 30
0.0
  0
VERTEX
  5
29F47
  8
ALPHA
 10
2511.429913
 20
743.993232
 30
0.0
  0
VERTEX
  5
29F48
  8
ALPHA
 10
2510.868256
 20
744.106432
 30
0.0
  0
VERTEX
  5
29F49
  8
ALPHA
 10
2510.396458
 20
744.426146
 30
0.0
  0
VERTEX
  5
29F4A
  8
ALPHA
 10
2510.087429
 20
744.8953
 30
0.0
  0
VERTEX
  5
29F4B
  8
ALPHA
 10
2509.979913
 20
745.443232
 30
0.0
  0
VERTEX
  5
29F4C
  8
ALPHA
 10
2510.087429
 20
745.991164
 30
0.0
  0
VERTEX
  5
29F4D
  8
ALPHA
 10
2510.396458
 20
746.460319
 30
0.0
  0
VERTEX
  5
29F4E
  8
ALPHA
 10
2510.868256
 20
746.780033
 30
0.0
  0
VERTEX
  5
29F4F
  8
ALPHA
 10
2511.429913
 20
746.893232
 30
0.0
  0
SEQEND
  5
29F50
  8
ALPHA
  0
POLYLINE
  5
28172
  8
ALPHA
 66
     1
 10
0.0
 20
0.0
 30
0.0
  0
VERTEX
  5
29F51
  8
ALPHA
 10
2511.429913
 20
743.888417
 30
0.0
  0
VERTEX
  5
29F52
  8
ALPHA
 10
2510.827913
 20
744.00965
 30
0.0
  0
VERTEX
  5
29F53
  8
ALPHA
 10
2510.322605
 20
744.351661
 30
0.0
  0
VERTEX
  5
29F54
  8
ALPHA
 10
2509.990429
 20
744.85535
 30
0.0
  0
VERTEX
  5
29F55
  8
ALPHA
 10
2509.875001
 20
745.443232
 30
0.0
  0
VERTEX
  5
29F56
  8
ALPHA
 10
2509.990429
 20
746.031114
 30
0.0
  0
VERTEX
  5
29F57
  8
ALPHA
 10
2510.322605
 20
746.534803
 30
0.0
  0
VERTEX
  5
29F58
  8
ALPHA
 10
2510.827913
 20
746.876814
 30
0.0
  0
VERTEX
  5
29F59
  8
ALPHA
 10
2511.429913
 20
746.998048
 30
0.0
  0
SEQEND
  5
29F5A
  8
ALPHA
  0
POLYLINE
  5
2817D
  8
ALPHA
 66
     1
 10
0.0
 20
0.0
 30
0.0
  0
VERTEX
  5
29F5B
  8
ALPHA
 10
2527.529913
 20
746.893232
 30
0.0
  0
VERTEX
  5
29F5C
  8
ALPHA
 10
2528.09157
 20
746.780033
 30
0.0
  0
VERTEX
  5
29F5D
  8
ALPHA
 10
2528.563368
 20
746.460319
 30
0.0
  0
VERTEX
  5
29F5E
  8
ALPHA
 10
2528.872396
 20
745.991164
 30
0.0
  0
VERTEX
  5
29F5F
  8
ALPHA
 10
2528.979913
 20
745.443232
 30
0.0
  0
VERTEX
  5
29F60
  8
ALPHA
 10
2528.872396
 20
744.8953
 30
0.0
  0
VERTEX
  5
29F61
  8
ALPHA
 10
2528.563368
 20
744.426146
 30
0.0
  0
VERTEX
  5
29F62
  8
ALPHA
 10
2528.09157
 20
744.106432
 30
0.0
  0
VERTEX
  5
29F63
  8
ALPHA
 10
2527.529913
 20
743.993232
 30
0.0
  0
SEQEND
  5
29F64
  8
ALPHA
  0
POLYLINE
  5
28188
  8
ALPHA
 66
     1
 10
0.0
 20
0.0
 30
0.0
  0
VERTEX
  5
29F65
  8
ALPHA
 10
2527.529913
 20
746.998048
 30
0.0
  0
VERTEX
  5
29F66
  8
ALPHA
 10
2528.131854
 20
746.876758
 30
0.0
  0
VERTEX
  5
29F67
  8
ALPHA
 10
2528.637098
 20
746.534733
 30
0.0
  0
VERTEX
  5
29F68
  8
ALPHA
 10
2528.969223
 20
746.03107
 30
0.0
  0
VERTEX
  5
29F69
  8
ALPHA
 10
2529.084633
 20
745.443232
 30
0.0
  0
VERTEX
  5
29F6A
  8
ALPHA
 10
2528.969223
 20
744.855395
 30
0.0
  0
VERTEX
  5
29F6B
  8
ALPHA
 10
2528.637098
 20
744.351731
 30
0.0
  0
VERTEX
  5
29F6C
  8
ALPHA
 10
2528.131854
 20
744.009706
 30
0.0
  0
VERTEX
  5
29F6D
  8
ALPHA
 10
2527.529913
 20
743.888417
 30
0.0
  0
SEQEND
  5
29F6E
  8
ALPHA
  0
LINE
  5
28193
  8
ALPHA
 10
2528.814993
 20
744.808152
 30
0.0
 11
2526.729913
 21
746.893232
 31
0.0
  0
LINE
  5
28194
  8
ALPHA
 10
2511.429913
 20
746.893232
 30
0.0
 11
2527.529913
 21
746.893232
 31
0.0
  0
LINE
  5
28195
  8
ALPHA
 10
2511.429913
 20
746.998048
 30
0.0
 11
2527.529913
 21
746.998048
 31
0.0
  0
LINE
  5
28196
  8
ALPHA
 10
2527.529913
 20
751.388417
 30
0.0
 11
2511.429913
 21
751.388417
 31
0.0
  0
LINE
  5
28197
  8
ALPHA
 10
2527.529913
 20
751.493232
 30
0.0
 11
2511.429913
 21
751.493232
 31
0.0
  0
LINE
  5
28198
  8
ALPHA
 10
2511.429913
 20
754.393232
 30
0.0
 11
2527.529913
 21
754.393232
 31
0.0
  0
LINE
  5
28199
  8
ALPHA
 10
2511.429913
 20
754.498048
 30
0.0
 11
2527.529913
 21
754.498048
 31
0.0
  0
LINE
  5
2819A
  8
ALPHA
 10
2505.979913
 20
768.143461
 30
0.0
 11
2532.058836
 21
767.688251
 31
0.0
  0
LINE
  5
2819B
  8
ALPHA
 10
2505.979913
 20
769.643232
 30
0.0
 11
2538.206091
 21
769.080722
 31
0.0
  0
LINE
  5
2819C
  8
ALPHA
 10
2522.129913
 20
751.493232
 30
0.0
 11
2519.229913
 21
754.393232
 31
0.0
  0
LINE
  5
2819D
  8
ALPHA
 10
2506.679913
 20
795.043232
 30
0.0
 11
2506.679913
 21
777.543232
 31
0.0
  0
LINE
  5
2819E
  8
ALPHA
 10
2505.179913
 20
795.043232
 30
0.0
 11
2505.179913
 21
777.543232
 31
0.0
  0
ARC
  5
2819F
  8
ALPHA
 10
2504.179913
 20
795.043232
 30
0.0
 40
1.0
 50
0.0
 51
90.0
  0
ARC
  5
281A0
  8
ALPHA
 10
2504.179913
 20
795.043232
 30
0.0
 40
2.5
 50
0.0
 51
90.0
  0
LINE
  5
281A1
  8
ALPHA
 10
2504.179913
 20
796.043232
 30
0.0
 11
2504.179913
 21
797.543232
 31
0.0
  0
LINE
  5
281A2
  8
ALPHA
 10
2501.479913
 20
793.043232
 30
0.0
 11
2501.479913
 21
796.043232
 31
0.0
  0
LINE
  5
281A3
  8
ALPHA
 10
2500.479913
 20
799.043232
 30
0.0
 11
2500.479913
 21
797.543232
 31
0.0
  0
LINE
  5
281A4
  8
ALPHA
 10
2500.44854
 20
799.571435
 30
0.0
 11
2500.44854
 21
799.043232
 31
0.0
  0
LINE
  5
281A5
  8
ALPHA
 10
2497.345332
 20
800.559803
 30
0.0
 11
2497.345332
 21
800.532319
 31
0.0
  0
LINE
  5
281A6
  8
ALPHA
 10
2497.32788
 20
800.528195
 30
0.0
 11
2497.32788
 21
800.57059
 31
0.0
  0
LINE
  5
281A7
  8
ALPHA
 10
2496.793444
 20
800.555078
 30
0.0
 11
2496.793444
 21
800.54593
 31
0.0
  0
LINE
  5
281A8
  8
ALPHA
 10
2496.14192
 20
800.550748
 30
0.0
 11
2496.14192
 21
800.542873
 31
0.0
  0
LINE
  5
281A9
  8
ALPHA
 10
2495.656313
 20
800.525292
 30
0.0
 11
2495.656313
 21
800.564853
 31
0.0
  0
LINE
  5
281AA
  8
ALPHA
 10
2495.624305
 20
800.529786
 30
0.0
 11
2495.624305
 21
800.568807
 31
0.0
  0
LINE
  5
281AB
  8
ALPHA
 10
2495.608162
 20
800.557234
 30
0.0
 11
2495.608162
 21
800.533949
 31
0.0
  0
LINE
  5
281AC
  8
ALPHA
 10
2492.511286
 20
799.571435
 30
0.0
 11
2492.511286
 21
799.043232
 31
0.0
  0
LINE
  5
281AD
  8
ALPHA
 10
2492.479913
 20
799.043232
 30
0.0
 11
2492.479913
 21
797.543232
 31
0.0
  0
POLYLINE
  5
281AE
  8
ALPHA
 66
     1
 10
0.0
 20
0.0
 30
0.0
  0
VERTEX
  5
29F6F
  8
ALPHA
 10
2495.592413
 20
800.544166
 30
0.0
  0
VERTEX
  5
29F70
  8
ALPHA
 10
2495.592754
 20
800.545962
 30
0.0
  0
VERTEX
  5
29F71
  8
ALPHA
 10
2495.608162
 20
800.557234
 30
0.0
  0
SEQEND
  5
29F72
  8
ALPHA
  0
LINE
  5
281B3
  8
ALPHA
 10
2495.622638
 20
800.565801
 30
0.0
 11
2495.624305
 21
800.569107
 31
0.0
  0
LINE
  5
281B4
  8
ALPHA
 10
2497.367413
 20
800.544164
 30
0.0
 11
2497.362111
 21
800.537424
 31
0.0
  0
LINE
  5
281B5
  8
ALPHA
 10
2495.608162
 20
800.557234
 30
0.0
 11
2495.622638
 21
800.565801
 31
0.0
  0
LINE
  5
281B6
  8
ALPHA
 10
2492.939749
 20
799.79983
 30
0.0
 11
2492.511286
 21
799.571435
 31
0.0
  0
LINE
  5
281B7
  8
ALPHA
 10
2497.362111
 20
800.537424
 30
0.0
 11
2497.334317
 21
800.528968
 31
0.0
  0
POLYLINE
  5
281B8
  8
ALPHA
 66
     1
 10
0.0
 20
0.0
 30
0.0
  0
VERTEX
  5
29F73
  8
ALPHA
 10
2497.334317
 20
800.528968
 30
0.0
  0
VERTEX
  5
29F74
  8
ALPHA
 10
2497.286513
 20
800.523223
 30
0.0
  0
VERTEX
  5
29F75
  8
ALPHA
 10
2497.220489
 20
800.520193
 30
0.0
  0
VERTEX
  5
29F76
  8
ALPHA
 10
2497.138235
 20
800.520156
 30
0.0
  0
VERTEX
  5
29F77
  8
ALPHA
 10
2497.047451
 20
800.523193
 30
0.0
  0
VERTEX
  5
29F78
  8
ALPHA
 10
2496.954916
 20
800.528964
 30
0.0
  0
VERTEX
  5
29F79
  8
ALPHA
 10
2496.861496
 20
800.537475
 30
0.0
  0
VERTEX
  5
29F7A
  8
ALPHA
 10
2496.775918
 20
800.548108
 30
0.0
  0
VERTEX
  5
29F7B
  8
ALPHA
 10
2496.706159
 20
800.559803
 30
0.0
  0
SEQEND
  5
29F7C
  8
ALPHA
  0
LINE
  5
281C3
  8
ALPHA
 10
2495.584712
 20
800.577249
 30
0.0
 11
2495.382894
 21
800.551845
 31
0.0
  0
POLYLINE
  5
281C4
  8
ALPHA
 66
     1
 10
0.0
 20
0.0
 30
0.0
  0
VERTEX
  5
29F7D
  8
ALPHA
 10
2495.382894
 20
800.551845
 30
0.0
  0
VERTEX
  5
29F7E
  8
ALPHA
 10
2495.165625
 20
800.518678
 30
0.0
  0
VERTEX
  5
29F7F
  8
ALPHA
 10
2494.925613
 20
800.474845
 30
0.0
  0
VERTEX
  5
29F80
  8
ALPHA
 10
2494.662325
 20
800.417959
 30
0.0
  0
VERTEX
  5
29F81
  8
ALPHA
 10
2494.373493
 20
800.344725
 30
0.0
  0
VERTEX
  5
29F82
  8
ALPHA
 10
2494.057304
 20
800.251186
 30
0.0
  0
VERTEX
  5
29F83
  8
ALPHA
 10
2493.712942
 20
800.132816
 30
0.0
  0
VERTEX
  5
29F84
  8
ALPHA
 10
2493.340207
 20
799.984366
 30
0.0
  0
VERTEX
  5
29F85
  8
ALPHA
 10
2492.939749
 20
799.79983
 30
0.0
  0
SEQEND
  5
29F86
  8
ALPHA
  0
LINE
  5
281CF
  8
ALPHA
 10
2496.217059
 20
800.56237
 30
0.0
 11
2496.14192
 21
800.550748
 31
0.0
  0
POLYLINE
  5
281D0
  8
ALPHA
 66
     1
 10
0.0
 20
0.0
 30
0.0
  0
VERTEX
  5
29F87
  8
ALPHA
 10
2496.253666
 20
800.559803
 30
0.0
  0
VERTEX
  5
29F88
  8
ALPHA
 10
2496.302745
 20
800.567501
 30
0.0
  0
VERTEX
  5
29F89
  8
ALPHA
 10
2496.357544
 20
800.572892
 30
0.0
  0
VERTEX
  5
29F8A
  8
ALPHA
 10
2496.417148
 20
800.576177
 30
0.0
  0
VERTEX
  5
29F8B
  8
ALPHA
 10
2496.479916
 20
800.577296
 30
0.0
  0
VERTEX
  5
29F8C
  8
ALPHA
 10
2496.542686
 20
800.576177
 30
0.0
  0
VERTEX
  5
29F8D
  8
ALPHA
 10
2496.602293
 20
800.572891
 30
0.0
  0
VERTEX
  5
29F8E
  8
ALPHA
 10
2496.657088
 20
800.5675
 30
0.0
  0
VERTEX
  5
29F8F
  8
ALPHA
 10
2496.706159
 20
800.559803
 30
0.0
  0
SEQEND
  5
29F90
  8
ALPHA
  0
POLYLINE
  5
281DB
  8
ALPHA
 66
     1
 10
0.0
 20
0.0
 30
0.0
  0
VERTEX
  5
29F91
  8
ALPHA
 10
2496.253666
 20
800.559803
 30
0.0
  0
VERTEX
  5
29F92
  8
ALPHA
 10
2496.185267
 20
800.548304
 30
0.0
  0
VERTEX
  5
29F93
  8
ALPHA
 10
2496.101882
 20
800.537857
 30
0.0
  0
VERTEX
  5
29F94
  8
ALPHA
 10
2496.011183
 20
800.529449
 30
0.0
  0
VERTEX
  5
29F95
  8
ALPHA
 10
2495.92039
 20
800.523591
 30
0.0
  0
VERTEX
  5
29F96
  8
ALPHA
 10
2495.830476
 20
800.520326
 30
0.0
  0
VERTEX
  5
29F97
  8
ALPHA
 10
2495.748162
 20
800.520028
 30
0.0
  0
VERTEX
  5
29F98
  8
ALPHA
 10
2495.681013
 20
800.522663
 30
0.0
  0
VERTEX
  5
29F99
  8
ALPHA
 10
2495.631486
 20
800.527934
 30
0.0
  0
SEQEND
  5
29F9A
  8
ALPHA
  0
LINE
  5
281E6
  8
ALPHA
 10
2501.479913
 20
793.043232
 30
0.0
 11
2504.479913
 21
793.043232
 31
0.0
  0
LINE
  5
281E7
  8
ALPHA
 10
2496.29577
 20
800.570308
 30
0.0
 11
2496.217059
 21
800.56237
 31
0.0
  0
POLYLINE
  5
281E8
  8
ALPHA
 66
     1
 10
0.0
 20
0.0
 30
0.0
  0
VERTEX
  5
29F9B
  8
ALPHA
 10
2495.624305
 20
800.569107
 30
0.0
  0
VERTEX
  5
29F9C
  8
ALPHA
 10
2495.622415
 20
800.572008
 30
0.0
  0
VERTEX
  5
29F9D
  8
ALPHA
 10
2495.609001
 20
800.575765
 30
0.0
  0
VERTEX
  5
29F9E
  8
ALPHA
 10
2495.584712
 20
800.577249
 30
0.0
  0
SEQEND
  5
29F9F
  8
ALPHA
  0
POLYLINE
  5
281EE
  8
ALPHA
 66
     1
 10
0.0
 20
0.0
 30
0.0
  0
VERTEX
  5
29FA0
  8
ALPHA
 10
2497.32788
 20
800.570682
 30
0.0
  0
VERTEX
  5
29FA1
  8
ALPHA
 10
2497.331689
 20
800.566182
 30
0.0
  0
VERTEX
  5
29FA2
  8
ALPHA
 10
2497.345332
 20
800.559803
 30
0.0
  0
SEQEND
  5
29FA3
  8
ALPHA
  0
POLYLINE
  5
281F3
  8
ALPHA
 66
     1
 10
0.0
 20
0.0
 30
0.0
  0
VERTEX
  5
29FA4
  8
ALPHA
 10
2496.717275
 20
800.56534
 30
0.0
  0
VERTEX
  5
29FA5
  8
ALPHA
 10
2496.637359
 20
800.572244
 30
0.0
  0
VERTEX
  5
29FA6
  8
ALPHA
 10
2496.552997
 20
800.576232
 30
0.0
  0
VERTEX
  5
29FA7
  8
ALPHA
 10
2496.513993
 20
800.576688
 30
0.0
  0
SEQEND
  5
29FA8
  8
ALPHA
  0
POLYLINE
  5
281F9
  8
ALPHA
 66
     1
 10
0.0
 20
0.0
 30
0.0
  0
VERTEX
  5
29FA9
  8
ALPHA
 10
2495.584764
 20
800.577254
 30
0.0
  0
VERTEX
  5
29FAA
  8
ALPHA
 10
2495.61694
 20
800.576698
 30
0.0
  0
VERTEX
  5
29FAB
  8
ALPHA
 10
2495.64071
 20
800.574074
 30
0.0
  0
SEQEND
  5
29FAC
  8
ALPHA
  0
LINE
  5
281FE
  8
ALPHA
 10
2492.511286
 20
799.043232
 30
0.0
 11
2492.479929
 21
799.043232
 31
0.0
  0
LINE
  5
281FF
  8
ALPHA
 10
2500.479897
 20
799.043232
 30
0.0
 11
2500.44854
 21
799.043232
 31
0.0
  0
LINE
  5
28200
  8
ALPHA
 10
2492.511286
 20
799.571435
 30
0.0
 11
2500.44854
 21
799.571435
 31
0.0
  0
POLYLINE
  5
28201
  8
ALPHA
 66
     1
 10
0.0
 20
0.0
 30
0.0
  0
VERTEX
  5
29FAD
  8
ALPHA
 10
2497.375224
 20
800.577236
 30
0.0
  0
VERTEX
  5
29FAE
  8
ALPHA
 10
2497.350699
 20
800.576889
 30
0.0
  0
VERTEX
  5
29FAF
  8
ALPHA
 10
2497.334593
 20
800.574938
 30
0.0
  0
VERTEX
  5
29FB0
  8
ALPHA
 10
2497.327988
 20
800.571332
 30
0.0
  0
VERTEX
  5
29FB1
  8
ALPHA
 10
2497.32788
 20
800.570682
 30
0.0
  0
SEQEND
  5
29FB2
  8
ALPHA
  0
POLYLINE
  5
28208
  8
ALPHA
 66
     1
 10
0.0
 20
0.0
 30
0.0
  0
VERTEX
  5
29FB3
  8
ALPHA
 10
2495.802141
 20
800.520223
 30
0.0
  0
VERTEX
  5
29FB4
  8
ALPHA
 10
2495.852689
 20
800.521223
 30
0.0
  0
VERTEX
  5
29FB5
  8
ALPHA
 10
2495.928503
 20
800.525293
 30
0.0
  0
VERTEX
  5
29FB6
  8
ALPHA
 10
2496.006243
 20
800.531908
 30
0.0
  0
VERTEX
  5
29FB7
  8
ALPHA
 10
2496.079862
 20
800.540693
 30
0.0
  0
VERTEX
  5
29FB8
  8
ALPHA
 10
2496.14192
 20
800.550748
 30
0.0
  0
SEQEND
  5
29FB9
  8
ALPHA
  0
POLYLINE
  5
28210
  8
ALPHA
 66
     1
 10
0.0
 20
0.0
 30
0.0
  0
VERTEX
  5
29FBA
  8
ALPHA
 10
2496.425027
 20
800.576317
 30
0.0
  0
VERTEX
  5
29FBB
  8
ALPHA
 10
2496.378735
 20
800.575245
 30
0.0
  0
VERTEX
  5
29FBC
  8
ALPHA
 10
2496.29577
 20
800.570308
 30
0.0
  0
SEQEND
  5
29FBD
  8
ALPHA
  0
POLYLINE
  5
28215
  8
ALPHA
 66
     1
 10
0.0
 20
0.0
 30
0.0
  0
VERTEX
  5
29FBE
  8
ALPHA
 10
2497.345332
 20
800.559803
 30
0.0
  0
VERTEX
  5
29FBF
  8
ALPHA
 10
2497.365879
 20
800.548047
 30
0.0
  0
VERTEX
  5
29FC0
  8
ALPHA
 10
2497.367413
 20
800.544164
 30
0.0
  0
SEQEND
  5
29FC1
  8
ALPHA
  0
POLYLINE
  5
2821A
  8
ALPHA
 66
     1
 10
0.0
 20
0.0
 30
0.0
  0
VERTEX
  5
29FC2
  8
ALPHA
 10
2500.44854
 20
799.571435
 30
0.0
  0
VERTEX
  5
29FC3
  8
ALPHA
 10
2500.01949
 20
799.800145
 30
0.0
  0
VERTEX
  5
29FC4
  8
ALPHA
 10
2499.618312
 20
799.984925
 30
0.0
  0
VERTEX
  5
29FC5
  8
ALPHA
 10
2499.246562
 20
800.132935
 30
0.0
  0
VERTEX
  5
29FC6
  8
ALPHA
 10
2498.903808
 20
800.250777
 30
0.0
  0
VERTEX
  5
29FC7
  8
ALPHA
 10
2498.58944
 20
800.343875
 30
0.0
  0
VERTEX
  5
29FC8
  8
ALPHA
 10
2498.302209
 20
800.416857
 30
0.0
  0
VERTEX
  5
29FC9
  8
ALPHA
 10
2498.03987
 20
800.47372
 30
0.0
  0
VERTEX
  5
29FCA
  8
ALPHA
 10
2497.799712
 20
800.517756
 30
0.0
  0
VERTEX
  5
29FCB
  8
ALPHA
 10
2497.578993
 20
800.551584
 30
0.0
  0
VERTEX
  5
29FCC
  8
ALPHA
 10
2497.375224
 20
800.577236
 30
0.0
  0
SEQEND
  5
29FCD
  8
ALPHA
  0
POLYLINE
  5
28227
  8
ALPHA
 66
     1
 10
0.0
 20
0.0
 30
0.0
  0
VERTEX
  5
29FCE
  8
ALPHA
 10
2495.64071
 20
800.574074
 30
0.0
  0
VERTEX
  5
29FCF
  8
ALPHA
 10
2495.654215
 20
800.569047
 30
0.0
  0
VERTEX
  5
29FD0
  8
ALPHA
 10
2495.656313
 20
800.565198
 30
0.0
  0
SEQEND
  5
29FD1
  8
ALPHA
  0
POLYLINE
  5
2822C
  8
ALPHA
 66
     1
 10
0.0
 20
0.0
 30
0.0
  0
VERTEX
  5
29FD2
  8
ALPHA
 10
2495.631486
 20
800.527934
 30
0.0
  0
VERTEX
  5
29FD3
  8
ALPHA
 10
2495.60067
 20
800.535881
 30
0.0
  0
VERTEX
  5
29FD4
  8
ALPHA
 10
2495.592413
 20
800.544166
 30
0.0
  0
SEQEND
  5
29FD5
  8
ALPHA
  0
LINE
  5
28231
  8
ALPHA
 10
2495.656313
 20
800.528445
 30
0.0
 11
2495.670688
 21
800.52531
 31
0.0
  0
POLYLINE
  5
28232
  8
ALPHA
 66
     1
 10
0.0
 20
0.0
 30
0.0
  0
VERTEX
  5
29FD6
  8
ALPHA
 10
2496.793444
 20
800.555078
 30
0.0
  0
VERTEX
  5
29FD7
  8
ALPHA
 10
2496.871659
 20
800.543865
 30
0.0
  0
VERTEX
  5
29FD8
  8
ALPHA
 10
2496.962002
 20
800.534039
 30
0.0
  0
VERTEX
  5
29FD9
  8
ALPHA
 10
2497.055946
 20
800.52654
 30
0.0
  0
VERTEX
  5
29FDA
  8
ALPHA
 10
2497.14594
 20
800.521801
 30
0.0
  0
VERTEX
  5
29FDB
  8
ALPHA
 10
2497.214564
 20
800.52019
 30
0.0
  0
SEQEND
  5
29FDC
  8
ALPHA
  0
LINE
  5
2823A
  8
ALPHA
 10
2496.793444
 20
800.555078
 30
0.0
 11
2496.717275
 21
800.56534
 31
0.0
  0
LINE
  5
2823B
  8
ALPHA
 10
2505.179913
 20
795.043232
 30
0.0
 11
2506.679913
 21
795.043232
 31
0.0
  0
LINE
  5
2823C
  8
ALPHA
 10
2504.479913
 20
773.743232
 30
0.0
 11
2505.979913
 21
773.743232
 31
0.0
  0
LINE
  5
2823D
  8
ALPHA
 10
2504.479913
 20
776.743232
 30
0.0
 11
2505.979913
 21
776.743232
 31
0.0
  0
LINE
  5
2823E
  8
ALPHA
 10
2505.179913
 20
780.543232
 30
0.0
 11
2506.679913
 21
780.543232
 31
0.0
  0
LINE
  5
2823F
  8
ALPHA
 10
2505.179913
 20
777.543232
 30
0.0
 11
2506.679913
 21
777.543232
 31
0.0
  0
LINE
  5
28240
  8
ALPHA
 10
2509.006988
 20
764.227375
 30
0.0
 11
2508.99905
 21
764.306086
 31
0.0
  0
POLYLINE
  5
28241
  8
ALPHA
 66
     1
 10
0.0
 20
0.0
 30
0.0
  0
VERTEX
  5
29FDD
  8
ALPHA
 10
2508.965649
 20
763.188828
 30
0.0
  0
VERTEX
  5
29FDE
  8
ALPHA
 10
2508.959903
 20
763.236632
 30
0.0
  0
VERTEX
  5
29FDF
  8
ALPHA
 10
2508.956873
 20
763.302656
 30
0.0
  0
VERTEX
  5
29FE0
  8
ALPHA
 10
2508.956836
 20
763.38491
 30
0.0
  0
VERTEX
  5
29FE1
  8
ALPHA
 10
2508.959874
 20
763.475694
 30
0.0
  0
VERTEX
  5
29FE2
  8
ALPHA
 10
2508.965644
 20
763.568229
 30
0.0
  0
VERTEX
  5
29FE3
  8
ALPHA
 10
2508.974156
 20
763.661649
 30
0.0
  0
VERTEX
  5
29FE4
  8
ALPHA
 10
2508.984788
 20
763.747227
 30
0.0
  0
VERTEX
  5
29FE5
  8
ALPHA
 10
2508.996483
 20
763.816986
 30
0.0
  0
SEQEND
  5
29FE6
  8
ALPHA
  0
LINE
  5
2824C
  8
ALPHA
 10
2509.013929
 20
764.938433
 30
0.0
 11
2508.988526
 21
765.140251
 31
0.0
  0
POLYLINE
  5
2824D
  8
ALPHA
 66
     1
 10
0.0
 20
0.0
 30
0.0
  0
VERTEX
  5
29FE7
  8
ALPHA
 10
2508.988526
 20
765.140251
 30
0.0
  0
VERTEX
  5
29FE8
  8
ALPHA
 10
2508.955359
 20
765.35752
 30
0.0
  0
VERTEX
  5
29FE9
  8
ALPHA
 10
2508.911525
 20
765.597532
 30
0.0
  0
VERTEX
  5
29FEA
  8
ALPHA
 10
2508.854639
 20
765.86082
 30
0.0
  0
VERTEX
  5
29FEB
  8
ALPHA
 10
2508.781406
 20
766.149652
 30
0.0
  0
VERTEX
  5
29FEC
  8
ALPHA
 10
2508.687867
 20
766.465841
 30
0.0
  0
VERTEX
  5
29FED
  8
ALPHA
 10
2508.569497
 20
766.810203
 30
0.0
  0
VERTEX
  5
29FEE
  8
ALPHA
 10
2508.421047
 20
767.182938
 30
0.0
  0
VERTEX
  5
29FEF
  8
ALPHA
 10
2508.236511
 20
767.583396
 30
0.0
  0
SEQEND
  5
29FF0
  8
ALPHA
  0
LINE
  5
28258
  8
ALPHA
 10
2508.99905
 20
764.306086
 30
0.0
 11
2508.987428
 21
764.381225
 31
0.0
  0
POLYLINE
  5
28259
  8
ALPHA
 66
     1
 10
0.0
 20
0.0
 30
0.0
  0
VERTEX
  5
29FF1
  8
ALPHA
 10
2508.996483
 20
764.269479
 30
0.0
  0
VERTEX
  5
29FF2
  8
ALPHA
 10
2509.004181
 20
764.2204
 30
0.0
  0
VERTEX
  5
29FF3
  8
ALPHA
 10
2509.009572
 20
764.165601
 30
0.0
  0
VERTEX
  5
29FF4
  8
ALPHA
 10
2509.012857
 20
764.105997
 30
0.0
  0
VERTEX
  5
29FF5
  8
ALPHA
 10
2509.013977
 20
764.043229
 30
0.0
  0
VERTEX
  5
29FF6
  8
ALPHA
 10
2509.012857
 20
763.980459
 30
0.0
  0
VERTEX
  5
29FF7
  8
ALPHA
 10
2509.009571
 20
763.920852
 30
0.0
  0
VERTEX
  5
29FF8
  8
ALPHA
 10
2509.00418
 20
763.866057
 30
0.0
  0
VERTEX
  5
29FF9
  8
ALPHA
 10
2508.996483
 20
763.816986
 30
0.0
  0
SEQEND
  5
29FFA
  8
ALPHA
  0
POLYLINE
  5
28264
  8
ALPHA
 66
     1
 10
0.0
 20
0.0
 30
0.0
  0
VERTEX
  5
29FFB
  8
ALPHA
 10
2508.996483
 20
764.269479
 30
0.0
  0
VERTEX
  5
29FFC
  8
ALPHA
 10
2508.984985
 20
764.337878
 30
0.0
  0
VERTEX
  5
29FFD
  8
ALPHA
 10
2508.974537
 20
764.421263
 30
0.0
  0
VERTEX
  5
29FFE
  8
ALPHA
 10
2508.966129
 20
764.511962
 30
0.0
  0
VERTEX
  5
29FFF
  8
ALPHA
 10
2508.960271
 20
764.602755
 30
0.0
  0
VERTEX
  5
2A000
  8
ALPHA
 10
2508.957007
 20
764.692669
 30
0.0
  0
VERTEX
  5
2A001
  8
ALPHA
 10
2508.956708
 20
764.774983
 30
0.0
  0
VERTEX
  5
2A002
  8
ALPHA
 10
2508.959343
 20
764.842132
 30
0.0
  0
VERTEX
  5
2A003
  8
ALPHA
 10
2508.964615
 20
764.891658
 30
0.0
  0
SEQEND
  5
2A004
  8
ALPHA
  0
POLYLINE
  5
2826F
  8
ALPHA
 66
     1
 10
0.0
 20
0.0
 30
0.0
  0
VERTEX
  5
2A005
  8
ALPHA
 10
2509.013935
 20
764.938381
 30
0.0
  0
VERTEX
  5
2A006
  8
ALPHA
 10
2509.013378
 20
764.906205
 30
0.0
  0
VERTEX
  5
2A007
  8
ALPHA
 10
2509.010754
 20
764.882435
 30
0.0
  0
SEQEND
  5
2A008
  8
ALPHA
  0
LINE
  5
28274
  8
ALPHA
 10
2508.008116
 20
768.011859
 30
0.0
 11
2508.008116
 21
760.074605
 31
0.0
  0
LINE
  5
28275
  8
ALPHA
 10
2507.479913
 20
768.011859
 30
0.0
 11
2507.479913
 21
768.043216
 31
0.0
  0
LINE
  5
28276
  8
ALPHA
 10
2507.479913
 20
760.043248
 30
0.0
 11
2507.479913
 21
760.074605
 31
0.0
  0
POLYLINE
  5
28277
  8
ALPHA
 66
     1
 10
0.0
 20
0.0
 30
0.0
  0
VERTEX
  5
2A009
  8
ALPHA
 10
2509.013917
 20
763.147921
 30
0.0
  0
VERTEX
  5
2A00A
  8
ALPHA
 10
2509.013569
 20
763.172446
 30
0.0
  0
VERTEX
  5
2A00B
  8
ALPHA
 10
2509.011618
 20
763.188552
 30
0.0
  0
VERTEX
  5
2A00C
  8
ALPHA
 10
2509.008013
 20
763.195157
 30
0.0
  0
VERTEX
  5
2A00D
  8
ALPHA
 10
2509.007363
 20
763.195265
 30
0.0
  0
SEQEND
  5
2A00E
  8
ALPHA
  0
POLYLINE
  5
2827E
  8
ALPHA
 66
     1
 10
0.0
 20
0.0
 30
0.0
  0
VERTEX
  5
2A00F
  8
ALPHA
 10
2508.956904
 20
764.721004
 30
0.0
  0
VERTEX
  5
2A010
  8
ALPHA
 10
2508.957904
 20
764.670456
 30
0.0
  0
VERTEX
  5
2A011
  8
ALPHA
 10
2508.961973
 20
764.594642
 30
0.0
  0
VERTEX
  5
2A012
  8
ALPHA
 10
2508.968588
 20
764.516902
 30
0.0
  0
VERTEX
  5
2A013
  8
ALPHA
 10
2508.977374
 20
764.443283
 30
0.0
  0
VERTEX
  5
2A014
  8
ALPHA
 10
2508.987428
 20
764.381225
 30
0.0
  0
SEQEND
  5
2A015
  8
ALPHA
  0
POLYLINE
  5
28286
  8
ALPHA
 66
     1
 10
0.0
 20
0.0
 30
0.0
  0
VERTEX
  5
2A016
  8
ALPHA
 10
2509.012998
 20
764.098118
 30
0.0
  0
VERTEX
  5
2A017
  8
ALPHA
 10
2509.011926
 20
764.144409
 30
0.0
  0
VERTEX
  5
2A018
  8
ALPHA
 10
2509.006988
 20
764.227375
 30
0.0
  0
SEQEND
  5
2A019
  8
ALPHA
  0
POLYLINE
  5
2828B
  8
ALPHA
 66
     1
 10
0.0
 20
0.0
 30
0.0
  0
VERTEX
  5
2A01A
  8
ALPHA
 10
2508.991758
 20
763.729701
 30
0.0
  0
VERTEX
  5
2A01B
  8
ALPHA
 10
2508.980546
 20
763.651486
 30
0.0
  0
VERTEX
  5
2A01C
  8
ALPHA
 10
2508.970719
 20
763.561143
 30
0.0
  0
VERTEX
  5
2A01D
  8
ALPHA
 10
2508.963221
 20
763.467199
 30
0.0
  0
VERTEX
  5
2A01E
  8
ALPHA
 10
2508.958481
 20
763.377205
 30
0.0
  0
VERTEX
  5
2A01F
  8
ALPHA
 10
2508.956871
 20
763.308581
 30
0.0
  0
SEQEND
  5
2A020
  8
ALPHA
  0
LINE
  5
28293
  8
ALPHA
 10
2508.991758
 20
763.729701
 30
0.0
 11
2509.00202
 21
763.80587
 31
0.0
  0
POLYLINE
  5
28294
  8
ALPHA
 66
     1
 10
0.0
 20
0.0
 30
0.0
  0
VERTEX
  5
2A021
  8
ALPHA
 10
2509.00202
 20
763.80587
 30
0.0
  0
VERTEX
  5
2A022
  8
ALPHA
 10
2509.008924
 20
763.885786
 30
0.0
  0
VERTEX
  5
2A023
  8
ALPHA
 10
2509.012913
 20
763.970148
 30
0.0
  0
VERTEX
  5
2A024
  8
ALPHA
 10
2509.013369
 20
764.009152
 30
0.0
  0
SEQEND
  5
2A025
  8
ALPHA
  0
POLYLINE
  5
2829A
  8
ALPHA
 66
     1
 10
0.0
 20
0.0
 30
0.0
  0
VERTEX
  5
2A026
  8
ALPHA
 10
2508.964615
 20
764.891658
 30
0.0
  0
VERTEX
  5
2A027
  8
ALPHA
 10
2508.972561
 20
764.922475
 30
0.0
  0
VERTEX
  5
2A028
  8
ALPHA
 10
2508.980846
 20
764.930732
 30
0.0
  0
SEQEND
  5
2A029
  8
ALPHA
  0
LINE
  5
2829F
  8
ALPHA
 10
2508.965125
 20
764.866832
 30
0.0
 11
2508.96199
 21
764.852457
 31
0.0
  0
POLYLINE
  5
282A0
  8
ALPHA
 66
     1
 10
0.0
 20
0.0
 30
0.0
  0
VERTEX
  5
2A02A
  8
ALPHA
 10
2509.010754
 20
764.882435
 30
0.0
  0
VERTEX
  5
2A02B
  8
ALPHA
 10
2509.005728
 20
764.86893
 30
0.0
  0
VERTEX
  5
2A02C
  8
ALPHA
 10
2509.001878
 20
764.866832
 30
0.0
  0
SEQEND
  5
2A02D
  8
ALPHA
  0
POLYLINE
  5
282A5
  8
ALPHA
 66
     1
 10
0.0
 20
0.0
 30
0.0
  0
VERTEX
  5
2A02E
  8
ALPHA
 10
2508.996483
 20
763.177813
 30
0.0
  0
VERTEX
  5
2A02F
  8
ALPHA
 10
2508.984728
 20
763.157266
 30
0.0
  0
VERTEX
  5
2A030
  8
ALPHA
 10
2508.980844
 20
763.155732
 30
0.0
  0
SEQEND
  5
2A031
  8
ALPHA
  0
POLYLINE
  5
282AA
  8
ALPHA
 66
     1
 10
0.0
 20
0.0
 30
0.0
  0
VERTEX
  5
2A032
  8
ALPHA
 10
2508.008116
 20
760.074605
 30
0.0
  0
VERTEX
  5
2A033
  8
ALPHA
 10
2508.236825
 20
760.503655
 30
0.0
  0
VERTEX
  5
2A034
  8
ALPHA
 10
2508.421605
 20
760.904833
 30
0.0
  0
VERTEX
  5
2A035
  8
ALPHA
 10
2508.569616
 20
761.276583
 30
0.0
  0
VERTEX
  5
2A036
  8
ALPHA
 10
2508.687457
 20
761.619337
 30
0.0
  0
VERTEX
  5
2A037
  8
ALPHA
 10
2508.780555
 20
761.933705
 30
0.0
  0
VERTEX
  5
2A038
  8
ALPHA
 10
2508.853537
 20
762.220936
 30
0.0
  0
VERTEX
  5
2A039
  8
ALPHA
 10
2508.9104
 20
762.483274
 30
0.0
  0
VERTEX
  5
2A03A
  8
ALPHA
 10
2508.954437
 20
762.723433
 30
0.0
  0
VERTEX
  5
2A03B
  8
ALPHA
 10
2508.988264
 20
762.944152
 30
0.0
  0
VERTEX
  5
2A03C
  8
ALPHA
 10
2509.013917
 20
763.147921
 30
0.0
  0
SEQEND
  5
2A03D
  8
ALPHA
  0
POLYLINE
  5
282B7
  8
ALPHA
 66
     1
 10
0.0
 20
0.0
 30
0.0
  0
VERTEX
  5
2A03E
  8
ALPHA
 10
2509.007363
 20
763.195265
 30
0.0
  0
VERTEX
  5
2A03F
  8
ALPHA
 10
2509.002862
 20
763.191456
 30
0.0
  0
VERTEX
  5
2A040
  8
ALPHA
 10
2508.996483
 20
763.177813
 30
0.0
  0
SEQEND
  5
2A041
  8
ALPHA
  0
POLYLINE
  5
282BC
  8
ALPHA
 66
     1
 10
0.0
 20
0.0
 30
0.0
  0
VERTEX
  5
2A042
  8
ALPHA
 10
2509.005788
 20
764.89884
 30
0.0
  0
VERTEX
  5
2A043
  8
ALPHA
 10
2509.008688
 20
764.90073
 30
0.0
  0
VERTEX
  5
2A044
  8
ALPHA
 10
2509.012445
 20
764.914144
 30
0.0
  0
VERTEX
  5
2A045
  8
ALPHA
 10
2509.013929
 20
764.938433
 30
0.0
  0
SEQEND
  5
2A046
  8
ALPHA
  0
LINE
  5
282C2
  8
ALPHA
 10
2507.479913
 20
760.043232
 30
0.0
 11
2505.979913
 21
760.043232
 31
0.0
  0
LINE
  5
282C3
  8
ALPHA
 10
2508.008116
 20
760.074605
 30
0.0
 11
2507.479913
 21
760.074605
 31
0.0
  0
LINE
  5
282C4
  8
ALPHA
 10
2508.974104
 20
763.161034
 30
0.0
 11
2508.965649
 21
763.188828
 31
0.0
  0
LINE
  5
282C5
  8
ALPHA
 10
2508.996483
 20
763.177813
 30
0.0
 11
2508.969
 21
763.177813
 31
0.0
  0
LINE
  5
282C6
  8
ALPHA
 10
2508.964875
 20
763.195265
 30
0.0
 11
2509.00727
 21
763.195265
 31
0.0
  0
LINE
  5
282C7
  8
ALPHA
 10
2508.991758
 20
763.729701
 30
0.0
 11
2508.982611
 21
763.729701
 31
0.0
  0
LINE
  5
282C8
  8
ALPHA
 10
2508.987428
 20
764.381225
 30
0.0
 11
2508.979554
 21
764.381225
 31
0.0
  0
LINE
  5
282C9
  8
ALPHA
 10
2508.961972
 20
764.866832
 30
0.0
 11
2509.001534
 21
764.866832
 31
0.0
  0
LINE
  5
282CA
  8
ALPHA
 10
2508.966467
 20
764.89884
 30
0.0
 11
2509.005487
 21
764.89884
 31
0.0
  0
LINE
  5
282CB
  8
ALPHA
 10
2508.993915
 20
764.914983
 30
0.0
 11
2508.970629
 21
764.914983
 31
0.0
  0
LINE
  5
282CC
  8
ALPHA
 10
2508.008116
 20
768.011859
 30
0.0
 11
2507.479913
 21
768.011859
 31
0.0
  0
LINE
  5
282CD
  8
ALPHA
 10
2507.479913
 20
768.043232
 30
0.0
 11
2505.979913
 21
768.043232
 31
0.0
  0
LINE
  5
282CE
  8
ALPHA
 10
2508.236511
 20
767.583396
 30
0.0
 11
2508.008116
 21
768.011859
 31
0.0
  0
LINE
  5
282CF
  8
ALPHA
 10
2508.993915
 20
764.914983
 30
0.0
 11
2509.002482
 21
764.900507
 31
0.0
  0
LINE
  5
282D0
  8
ALPHA
 10
2509.002482
 20
764.900507
 30
0.0
 11
2509.005788
 21
764.89884
 31
0.0
  0
POLYLINE
  5
282D1
  8
ALPHA
 66
     1
 10
0.0
 20
0.0
 30
0.0
  0
VERTEX
  5
2A047
  8
ALPHA
 10
2508.980846
 20
764.930732
 30
0.0
  0
VERTEX
  5
2A048
  8
ALPHA
 10
2508.982643
 20
764.93039
 30
0.0
  0
VERTEX
  5
2A049
  8
ALPHA
 10
2508.993915
 20
764.914983
 30
0.0
  0
SEQEND
  5
2A04A
  8
ALPHA
  0
LINE
  5
282D6
  8
ALPHA
 10
2508.980844
 20
763.155732
 30
0.0
 11
2508.974104
 21
763.161034
 31
0.0
  0
LINE
  5
282D7
  8
ALPHA
 10
2511.429913
 20
751.493232
 30
0.0
 11
2511.429913
 21
751.388417
 31
0.0
  0
LINE
  5
282D8
  8
ALPHA
 10
2511.429913
 20
754.393232
 30
0.0
 11
2511.429913
 21
754.498048
 31
0.0
  0
LINE
  5
282D9
  8
ALPHA
 10
2511.429913
 20
746.893232
 30
0.0
 11
2511.429913
 21
746.998048
 31
0.0
  0
POLYLINE
  5
282DA
  8
ALPHA
 66
     1
 10
0.0
 20
0.0
 30
0.0
  0
VERTEX
  5
2A04B
  8
ALPHA
 10
2511.429913
 20
751.493232
 30
0.0
  0
VERTEX
  5
2A04C
  8
ALPHA
 10
2510.868256
 20
751.606432
 30
0.0
  0
VERTEX
  5
2A04D
  8
ALPHA
 10
2510.396458
 20
751.926146
 30
0.0
  0
VERTEX
  5
2A04E
  8
ALPHA
 10
2510.087429
 20
752.3953
 30
0.0
  0
VERTEX
  5
2A04F
  8
ALPHA
 10
2509.979913
 20
752.943232
 30
0.0
  0
VERTEX
  5
2A050
  8
ALPHA
 10
2510.087429
 20
753.491164
 30
0.0
  0
VERTEX
  5
2A051
  8
ALPHA
 10
2510.396458
 20
753.960319
 30
0.0
  0
VERTEX
  5
2A052
  8
ALPHA
 10
2510.868256
 20
754.280033
 30
0.0
  0
VERTEX
  5
2A053
  8
ALPHA
 10
2511.429913
 20
754.393232
 30
0.0
  0
SEQEND
  5
2A054
  8
ALPHA
  0
POLYLINE
  5
282E5
  8
ALPHA
 66
     1
 10
0.0
 20
0.0
 30
0.0
  0
VERTEX
  5
2A055
  8
ALPHA
 10
2511.429913
 20
751.388417
 30
0.0
  0
VERTEX
  5
2A056
  8
ALPHA
 10
2510.827913
 20
751.50965
 30
0.0
  0
VERTEX
  5
2A057
  8
ALPHA
 10
2510.322605
 20
751.851661
 30
0.0
  0
VERTEX
  5
2A058
  8
ALPHA
 10
2509.990429
 20
752.35535
 30
0.0
  0
VERTEX
  5
2A059
  8
ALPHA
 10
2509.875001
 20
752.943232
 30
0.0
  0
VERTEX
  5
2A05A
  8
ALPHA
 10
2509.990429
 20
753.531114
 30
0.0
  0
VERTEX
  5
2A05B
  8
ALPHA
 10
2510.322605
 20
754.034803
 30
0.0
  0
VERTEX
  5
2A05C
  8
ALPHA
 10
2510.827913
 20
754.376814
 30
0.0
  0
VERTEX
  5
2A05D
  8
ALPHA
 10
2511.429913
 20
754.498048
 30
0.0
  0
SEQEND
  5
2A05E
  8
ALPHA
  0
ARC
  5
282F0
  8
ALPHA
 10
2538.179913
 20
767.580951
 30
0.0
 40
1.5
 50
0.0
 51
89.0
  0
POLYLINE
  5
282F1
  8
ALPHA
 66
     1
 10
0.0
 20
0.0
 30
0.0
  0
VERTEX
  5
2A05F
  8
ALPHA
 10
2532.058836
 20
769.188023
 30
0.0
  0
VERTEX
  5
2A060
  8
ALPHA
 10
2532.066857
 20
769.073729
 30
0.0
  0
VERTEX
  5
2A061
  8
ALPHA
 10
2532.069674
 20
768.748589
 30
0.0
  0
VERTEX
  5
2A062
  8
ALPHA
 10
2532.066857
 20
768.262084
 30
0.0
  0
VERTEX
  5
2A063
  8
ALPHA
 10
2532.058836
 20
767.688251
 30
0.0
  0
SEQEND
  5
2A064
  8
ALPHA
  0
POLYLINE
  5
282F8
  8
ALPHA
 66
     1
 10
0.0
 20
0.0
 30
0.0
  0
VERTEX
  5
2A065
  8
ALPHA
 10
2532.058836
 20
769.188023
 30
0.0
  0
VERTEX
  5
2A066
  8
ALPHA
 10
2532.6121
 20
769.069032
 30
0.0
  0
VERTEX
  5
2A067
  8
ALPHA
 10
2533.086831
 20
768.742721
 30
0.0
  0
VERTEX
  5
2A068
  8
ALPHA
 10
2533.40338
 20
768.258107
 30
0.0
  0
VERTEX
  5
2A069
  8
ALPHA
 10
2533.51416
 20
767.688251
 30
0.0
  0
SEQEND
  5
2A06A
  8
ALPHA
  0
POLYLINE
  5
282FF
  8
ALPHA
 66
     1
 10
0.0
 20
0.0
 30
0.0
  0
VERTEX
  5
2A06B
  8
ALPHA
 10
2536.21711
 20
769.11544
 30
0.0
  0
VERTEX
  5
2A06C
  8
ALPHA
 10
2536.797722
 20
768.991492
 30
0.0
  0
VERTEX
  5
2A06D
  8
ALPHA
 10
2537.282347
 20
768.662682
 30
0.0
  0
VERTEX
  5
2A06E
  8
ALPHA
 10
2537.604314
 20
768.177897
 30
0.0
  0
VERTEX
  5
2A06F
  8
ALPHA
 10
2537.715686
 20
767.615133
 30
0.0
  0
SEQEND
  5
2A070
  8
ALPHA
  0
POLYLINE
  5
28306
  8
ALPHA
 66
     1
 10
0.0
 20
0.0
 30
0.0
  0
VERTEX
  5
2A071
  8
ALPHA
 10
2534.022357
 20
768.359059
 30
0.0
  0
VERTEX
  5
2A072
  8
ALPHA
 10
2533.993366
 20
768.433703
 30
0.0
  0
VERTEX
  5
2A073
  8
ALPHA
 10
2533.961098
 20
768.504234
 30
0.0
  0
VERTEX
  5
2A074
  8
ALPHA
 10
2533.926118
 20
768.570349
 30
0.0
  0
VERTEX
  5
2A075
  8
ALPHA
 10
2533.888939
 20
768.631954
 30
0.0
  0
VERTEX
  5
2A076
  8
ALPHA
 10
2533.850242
 20
768.688779
 30
0.0
  0
VERTEX
  5
2A077
  8
ALPHA
 10
2533.811468
 20
768.739782
 30
0.0
  0
VERTEX
  5
2A078
  8
ALPHA
 10
2533.77339
 20
768.785128
 30
0.0
  0
VERTEX
  5
2A079
  8
ALPHA
 10
2533.736604
 20
768.825159
 30
0.0
  0
VERTEX
  5
2A07A
  8
ALPHA
 10
2533.705182
 20
768.856801
 30
0.0
  0
VERTEX
  5
2A07B
  8
ALPHA
 10
2533.694147
 20
768.867426
 30
0.0
  0
SEQEND
  5
2A07C
  8
ALPHA
  0
POLYLINE
  5
28313
  8
ALPHA
 66
     1
 10
0.0
 20
0.0
 30
0.0
  0
VERTEX
  5
2A07D
  8
ALPHA
 10
2533.952922
 20
768.439666
 30
0.0
  0
VERTEX
  5
2A07E
  8
ALPHA
 10
2533.814051
 20
768.688132
 30
0.0
  0
VERTEX
  5
2A07F
  8
ALPHA
 10
2533.659821
 20
768.867076
 30
0.0
  0
VERTEX
  5
2A080
  8
ALPHA
 10
2533.506204
 20
768.991342
 30
0.0
  0
VERTEX
  5
2A081
  8
ALPHA
 10
2533.365275
 20
769.072943
 30
0.0
  0
VERTEX
  5
2A082
  8
ALPHA
 10
2533.252736
 20
769.120771
 30
0.0
  0
VERTEX
  5
2A083
  8
ALPHA
 10
2533.20978
 20
769.139478
 30
0.0
  0
SEQEND
  5
2A084
  8
ALPHA
  0
POLYLINE
  5
2831C
  8
ALPHA
 66
     1
 10
0.0
 20
0.0
 30
0.0
  0
VERTEX
  5
2A085
  8
ALPHA
 10
2533.209776
 20
769.139459
 30
0.0
  0
VERTEX
  5
2A086
  8
ALPHA
 10
2533.583668
 20
768.970916
 30
0.0
  0
VERTEX
  5
2A087
  8
ALPHA
 10
2533.858184
 20
768.664354
 30
0.0
  0
VERTEX
  5
2A088
  8
ALPHA
 10
2533.986489
 20
768.272073
 30
0.0
  0
SEQEND
  5
2A089
  8
ALPHA
  0
POLYLINE
  5
28322
  8
ALPHA
 66
     1
 10
0.0
 20
0.0
 30
0.0
  0
VERTEX
  5
2A08A
  8
ALPHA
 10
2534.213472
 20
768.656573
 30
0.0
  0
VERTEX
  5
2A08B
  8
ALPHA
 10
2534.423446
 20
768.417413
 30
0.0
  0
VERTEX
  5
2A08C
  8
ALPHA
 10
2534.605978
 20
768.092461
 30
0.0
  0
VERTEX
  5
2A08D
  8
ALPHA
 10
2534.71412
 20
767.667371
 30
0.0
  0
SEQEND
  5
2A08E
  8
ALPHA
  0
POLYLINE
  5
28328
  8
ALPHA
 66
     1
 10
0.0
 20
0.0
 30
0.0
  0
VERTEX
  5
2A08F
  8
ALPHA
 10
2533.209776
 20
769.139459
 30
0.0
  0
VERTEX
  5
2A090
  8
ALPHA
 10
2533.273705
 20
769.131047
 30
0.0
  0
VERTEX
  5
2A091
  8
ALPHA
 10
2533.412569
 20
769.099821
 30
0.0
  0
VERTEX
  5
2A092
  8
ALPHA
 10
2533.592448
 20
769.042173
 30
0.0
  0
VERTEX
  5
2A093
  8
ALPHA
 10
2533.79036
 20
768.954723
 30
0.0
  0
VERTEX
  5
2A094
  8
ALPHA
 10
2533.999066
 20
768.830112
 30
0.0
  0
VERTEX
  5
2A095
  8
ALPHA
 10
2534.213472
 20
768.656573
 30
0.0
  0
SEQEND
  5
2A096
  8
ALPHA
  0
POLYLINE
  5
28331
  8
ALPHA
 66
     1
 10
0.0
 20
0.0
 30
0.0
  0
VERTEX
  5
2A097
  8
ALPHA
 10
2533.733135
 20
768.828652
 30
0.0
  0
VERTEX
  5
2A098
  8
ALPHA
 10
2533.722716
 20
768.839649
 30
0.0
  0
VERTEX
  5
2A099
  8
ALPHA
 10
2533.693978
 20
768.867972
 30
0.0
  0
VERTEX
  5
2A09A
  8
ALPHA
 10
2533.683528
 20
768.877852
 30
0.0
  0
SEQEND
  5
2A09B
  8
ALPHA
  0
POLYLINE
  5
28337
  8
ALPHA
 66
     1
 10
0.0
 20
0.0
 30
0.0
  0
VERTEX
  5
2A09C
  8
ALPHA
 10
2533.981206
 20
758.492018
 30
0.0
  0
VERTEX
  5
2A09D
  8
ALPHA
 10
2533.813419
 20
759.387118
 30
0.0
  0
VERTEX
  5
2A09E
  8
ALPHA
 10
2533.68779
 20
760.53178
 30
0.0
  0
VERTEX
  5
2A09F
  8
ALPHA
 10
2533.613502
 20
761.845669
 30
0.0
  0
VERTEX
  5
2A0A0
  8
ALPHA
 10
2533.59643
 20
763.237002
 30
0.0
  0
VERTEX
  5
2A0A1
  8
ALPHA
 10
2533.638
 20
764.608008
 30
0.0
  0
VERTEX
  5
2A0A2
  8
ALPHA
 10
2533.734885
 20
765.86213
 30
0.0
  0
VERTEX
  5
2A0A3
  8
ALPHA
 10
2533.879546
 20
766.910943
 30
0.0
  0
SEQEND
  5
2A0A4
  8
ALPHA
  0
POLYLINE
  5
28341
  8
ALPHA
 66
     1
 10
0.0
 20
0.0
 30
0.0
  0
VERTEX
  5
2A0A5
  8
ALPHA
 10
2534.714074
 20
767.66737
 30
0.0
  0
VERTEX
  5
2A0A6
  8
ALPHA
 10
2534.816143
 20
767.253106
 30
0.0
  0
VERTEX
  5
2A0A7
  8
ALPHA
 10
2534.915951
 20
766.665435
 30
0.0
  0
VERTEX
  5
2A0A8
  8
ALPHA
 10
2535.006755
 20
765.879348
 30
0.0
  0
VERTEX
  5
2A0A9
  8
ALPHA
 10
2535.079539
 20
764.882462
 30
0.0
  0
VERTEX
  5
2A0AA
  8
ALPHA
 10
2535.122749
 20
763.710621
 30
0.0
  0
VERTEX
  5
2A0AB
  8
ALPHA
 10
2535.127345
 20
762.454664
 30
0.0
  0
VERTEX
  5
2A0AC
  8
ALPHA
 10
2535.09019
 20
761.211622
 30
0.0
  0
VERTEX
  5
2A0AD
  8
ALPHA
 10
2535.012344
 20
760.06777
 30
0.0
  0
VERTEX
  5
2A0AE
  8
ALPHA
 10
2534.897399
 20
759.094511
 30
0.0
  0
VERTEX
  5
2A0AF
  8
ALPHA
 10
2534.750286
 20
758.348428
 30
0.0
  0
VERTEX
  5
2A0B0
  8
ALPHA
 10
2534.577564
 20
757.87699
 30
0.0
  0
VERTEX
  5
2A0B1
  8
ALPHA
 10
2534.38913
 20
757.717564
 30
0.0
  0
SEQEND
  5
2A0B2
  8
ALPHA
  0
POLYLINE
  5
28350
  8
ALPHA
 66
     1
 10
0.0
 20
0.0
 30
0.0
  0
VERTEX
  5
2A0B3
  8
ALPHA
 10
2534.061449
 20
767.678728
 30
0.0
  0
VERTEX
  5
2A0B4
  8
ALPHA
 10
2534.05
 20
768.105685
 30
0.0
  0
VERTEX
  5
2A0B5
  8
ALPHA
 10
2533.952922
 20
768.439666
 30
0.0
  0
SEQEND
  5
2A0B6
  8
ALPHA
  0
POLYLINE
  5
28355
  8
ALPHA
 66
     1
 10
0.0
 20
0.0
 30
0.0
  0
VERTEX
  5
2A0B7
  8
ALPHA
 10
2534.103168
 20
767.935225
 30
0.0
  0
VERTEX
  5
2A0B8
  8
ALPHA
 10
2534.096719
 20
768.025751
 30
0.0
  0
VERTEX
  5
2A0B9
  8
ALPHA
 10
2534.085092
 20
768.113747
 30
0.0
  0
VERTEX
  5
2A0BA
  8
ALPHA
 10
2534.068606
 20
768.19878
 30
0.0
  0
VERTEX
  5
2A0BB
  8
ALPHA
 10
2534.047571
 20
768.280665
 30
0.0
  0
VERTEX
  5
2A0BC
  8
ALPHA
 10
2534.022357
 20
768.359059
 30
0.0
  0
SEQEND
  5
2A0BD
  8
ALPHA
  0
LINE
  5
2835D
  8
ALPHA
 10
2534.061449
 20
767.678728
 30
0.0
 11
2534.024214
 21
767.371152
 31
0.0
  0
LINE
  5
2835E
  8
ALPHA
 10
2533.879546
 20
766.910943
 30
0.0
 11
2534.061435
 21
767.678728
 31
0.0
  0
POLYLINE
  5
2835F
  8
ALPHA
 66
     1
 10
0.0
 20
0.0
 30
0.0
  0
VERTEX
  5
2A0BE
  8
ALPHA
 10
2534.714071
 20
767.66737
 30
0.0
  0
VERTEX
  5
2A0BF
  8
ALPHA
 10
2534.565505
 20
767.235014
 30
0.0
  0
VERTEX
  5
2A0C0
  8
ALPHA
 10
2534.212767
 20
766.907558
 30
0.0
  0
SEQEND
  5
2A0C1
  8
ALPHA
  0
LINE
  5
28364
  8
ALPHA
 10
2534.024214
 20
767.371152
 30
0.0
 11
2534.022539
 21
767.366025
 31
0.0
  0
POLYLINE
  5
28365
  8
ALPHA
 66
     1
 10
0.0
 20
0.0
 30
0.0
  0
VERTEX
  5
2A0C2
  8
ALPHA
 10
2534.024214
 20
767.371152
 30
0.0
  0
VERTEX
  5
2A0C3
  8
ALPHA
 10
2534.049255
 20
767.456203
 30
0.0
  0
VERTEX
  5
2A0C4
  8
ALPHA
 10
2534.072213
 20
767.55408
 30
0.0
  0
VERTEX
  5
2A0C5
  8
ALPHA
 10
2534.088971
 20
767.651685
 30
0.0
  0
VERTEX
  5
2A0C6
  8
ALPHA
 10
2534.099561
 20
767.748188
 30
0.0
  0
VERTEX
  5
2A0C7
  8
ALPHA
 10
2534.104187
 20
767.842711
 30
0.0
  0
VERTEX
  5
2A0C8
  8
ALPHA
 10
2534.103168
 20
767.935225
 30
0.0
  0
SEQEND
  5
2A0C9
  8
ALPHA
  0
LINE
  5
2836E
  8
ALPHA
 10
2534.212767
 20
766.907558
 30
0.0
 11
2533.892281
 21
766.810252
 31
0.0
  0
LINE
  5
2836F
  8
ALPHA
 10
2534.714074
 20
767.66737
 30
0.0
 11
2537.715686
 21
767.615133
 31
0.0
  0
LINE
  5
28370
  8
ALPHA
 10
2533.51416
 20
767.688251
 30
0.0
 11
2532.058836
 21
767.688251
 31
0.0
  0
LINE
  5
28371
  8
ALPHA
 10
2534.061435
 20
767.68825
 30
0.0
 11
2533.51416
 21
767.678728
 31
0.0
  0
POLYLINE
  5
28372
  8
ALPHA
 66
     1
 10
0.0
 20
0.0
 30
0.0
  0
VERTEX
  5
2A0CA
  8
ALPHA
 10
2533.834016
 20
766.460249
 30
0.0
  0
VERTEX
  5
2A0CB
  8
ALPHA
 10
2533.843304
 20
766.429729
 30
0.0
  0
VERTEX
  5
2A0CC
  8
ALPHA
 10
2533.942894
 20
765.954711
 30
0.0
  0
VERTEX
  5
2A0CD
  8
ALPHA
 10
2534.033492
 20
765.319253
 30
0.0
  0
VERTEX
  5
2A0CE
  8
ALPHA
 10
2534.106103
 20
764.513585
 30
0.0
  0
VERTEX
  5
2A0CF
  8
ALPHA
 10
2534.149253
 20
763.566675
 30
0.0
  0
VERTEX
  5
2A0D0
  8
ALPHA
 10
2534.153956
 20
762.55135
 30
0.0
  0
VERTEX
  5
2A0D1
  8
ALPHA
 10
2534.117044
 20
761.545933
 30
0.0
  0
VERTEX
  5
2A0D2
  8
ALPHA
 10
2534.039531
 20
760.620366
 30
0.0
  0
VERTEX
  5
2A0D3
  8
ALPHA
 10
2533.924978
 20
759.832644
 30
0.0
  0
VERTEX
  5
2A0D4
  8
ALPHA
 10
2533.829824
 20
759.440813
 30
0.0
  0
SEQEND
  5
2A0D5
  8
ALPHA
  0
POLYLINE
  5
2837F
  8
ALPHA
 66
     1
 10
0.0
 20
0.0
 30
0.0
  0
VERTEX
  5
2A0D6
  8
ALPHA
 10
2534.072238
 20
758.387164
 30
0.0
  0
VERTEX
  5
2A0D7
  8
ALPHA
 10
2534.075124
 20
758.382201
 30
0.0
  0
VERTEX
  5
2A0D8
  8
ALPHA
 10
2534.048639
 20
758.444946
 30
0.0
  0
VERTEX
  5
2A0D9
  8
ALPHA
 10
2533.989609
 20
758.631406
 30
0.0
  0
VERTEX
  5
2A0DA
  8
ALPHA
 10
2533.919932
 20
758.922592
 30
0.0
  0
VERTEX
  5
2A0DB
  8
ALPHA
 10
2533.849347
 20
759.304688
 30
0.0
  0
VERTEX
  5
2A0DC
  8
ALPHA
 10
2533.782364
 20
759.77172
 30
0.0
  0
VERTEX
  5
2A0DD
  8
ALPHA
 10
2533.72255
 20
760.316636
 30
0.0
  0
VERTEX
  5
2A0DE
  8
ALPHA
 10
2533.672689
 20
760.932038
 30
0.0
  0
VERTEX
  5
2A0DF
  8
ALPHA
 10
2533.635447
 20
761.608366
 30
0.0
  0
VERTEX
  5
2A0E0
  8
ALPHA
 10
2533.613058
 20
762.333831
 30
0.0
  0
VERTEX
  5
2A0E1
  8
ALPHA
 10
2533.607646
 20
763.093894
 30
0.0
  0
VERTEX
  5
2A0E2
  8
ALPHA
 10
2533.620782
 20
763.872116
 30
0.0
  0
VERTEX
  5
2A0E3
  8
ALPHA
 10
2533.653774
 20
764.648767
 30
0.0
  0
VERTEX
  5
2A0E4
  8
ALPHA
 10
2533.707115
 20
765.400299
 30
0.0
  0
VERTEX
  5
2A0E5
  8
ALPHA
 10
2533.780268
 20
766.098018
 30
0.0
  0
VERTEX
  5
2A0E6
  8
ALPHA
 10
2533.870934
 20
766.709062
 30
0.0
  0
VERTEX
  5
2A0E7
  8
ALPHA
 10
2533.972768
 20
767.191796
 30
0.0
  0
VERTEX
  5
2A0E8
  8
ALPHA
 10
2534.022522
 20
767.366031
 30
0.0
  0
SEQEND
  5
2A0E9
  8
ALPHA
  0
POLYLINE
  5
28394
  8
ALPHA
 66
     1
 10
0.0
 20
0.0
 30
0.0
  0
VERTEX
  5
2A0EA
  8
ALPHA
 10
2534.38913
 20
757.717564
 30
0.0
  0
VERTEX
  5
2A0EB
  8
ALPHA
 10
2534.178671
 20
757.917468
 30
0.0
  0
VERTEX
  5
2A0EC
  8
ALPHA
 10
2533.981206
 20
758.492018
 30
0.0
  0
SEQEND
  5
2A0ED
  8
ALPHA
  0
LINE
  5
28399
  8
ALPHA
 10
2527.529913
 20
751.493232
 30
0.0
 11
2527.529913
 21
751.388417
 31
0.0
  0
LINE
  5
2839A
  8
ALPHA
 10
2527.529913
 20
754.393232
 30
0.0
 11
2527.529913
 21
754.498048
 31
0.0
  0
LINE
  5
2839B
  8
ALPHA
 10
2527.529913
 20
746.893232
 30
0.0
 11
2527.529913
 21
746.998048
 31
0.0
  0
POLYLINE
  5
2839C
  8
ALPHA
 66
     1
 10
0.0
 20
0.0
 30
0.0
  0
VERTEX
  5
2A0EE
  8
ALPHA
 10
2527.529913
 20
754.393232
 30
0.0
  0
VERTEX
  5
2A0EF
  8
ALPHA
 10
2528.09157
 20
754.280033
 30
0.0
  0
VERTEX
  5
2A0F0
  8
ALPHA
 10
2528.563368
 20
753.960319
 30
0.0
  0
VERTEX
  5
2A0F1
  8
ALPHA
 10
2528.872396
 20
753.491164
 30
0.0
  0
VERTEX
  5
2A0F2
  8
ALPHA
 10
2528.979913
 20
752.943232
 30
0.0
  0
VERTEX
  5
2A0F3
  8
ALPHA
 10
2528.872396
 20
752.3953
 30
0.0
  0
VERTEX
  5
2A0F4
  8
ALPHA
 10
2528.563368
 20
751.926146
 30
0.0
  0
VERTEX
  5
2A0F5
  8
ALPHA
 10
2528.09157
 20
751.606432
 30
0.0
  0
VERTEX
  5
2A0F6
  8
ALPHA
 10
2527.529913
 20
751.493232
 30
0.0
  0
SEQEND
  5
2A0F7
  8
ALPHA
  0
POLYLINE
  5
283A7
  8
ALPHA
 66
     1
 10
0.0
 20
0.0
 30
0.0
  0
VERTEX
  5
2A0F8
  8
ALPHA
 10
2527.529913
 20
754.498048
 30
0.0
  0
VERTEX
  5
2A0F9
  8
ALPHA
 10
2528.131854
 20
754.376758
 30
0.0
  0
VERTEX
  5
2A0FA
  8
ALPHA
 10
2528.637098
 20
754.034733
 30
0.0
  0
VERTEX
  5
2A0FB
  8
ALPHA
 10
2528.969223
 20
753.53107
 30
0.0
  0
VERTEX
  5
2A0FC
  8
ALPHA
 10
2529.084633
 20
752.943232
 30
0.0
  0
VERTEX
  5
2A0FD
  8
ALPHA
 10
2528.969223
 20
752.355395
 30
0.0
  0
VERTEX
  5
2A0FE
  8
ALPHA
 10
2528.637098
 20
751.851731
 30
0.0
  0
VERTEX
  5
2A0FF
  8
ALPHA
 10
2528.131854
 20
751.509706
 30
0.0
  0
VERTEX
  5
2A100
  8
ALPHA
 10
2527.529913
 20
751.388417
 30
0.0
  0
SEQEND
  5
2A101
  8
ALPHA
  0
LINE
  5
283B2
  8
ALPHA
 10
2511.429913
 20
653.993232
 30
0.0
 11
2527.529913
 21
653.993232
 31
0.0
  0
LINE
  5
283B3
  8
ALPHA
 10
2511.429913
 20
654.056115
 30
0.0
 11
2527.529913
 21
654.056115
 31
0.0
  0
LINE
  5
283B4
  8
ALPHA
 10
2527.529913
 20
656.830349
 30
0.0
 11
2511.429913
 21
656.830349
 31
0.0
  0
LINE
  5
283B5
  8
ALPHA
 10
2527.529913
 20
656.893232
 30
0.0
 11
2511.429913
 21
656.893232
 31
0.0
  0
LINE
  5
283B6
  8
ALPHA
 10
2511.429914
 20
661.493232
 30
0.0
 11
2527.529913
 21
661.493232
 31
0.0
  0
LINE
  5
283B7
  8
ALPHA
 10
2511.429913
 20
661.556115
 30
0.0
 11
2527.529913
 21
661.556115
 31
0.0
  0
LINE
  5
283B8
  8
ALPHA
 10
2527.529913
 20
664.330349
 30
0.0
 11
2511.429913
 21
664.330349
 31
0.0
  0
LINE
  5
283B9
  8
ALPHA
 10
2527.529913
 20
664.393232
 30
0.0
 11
2511.429913
 21
664.393232
 31
0.0
  0
LINE
  5
283BA
  8
ALPHA
 10
2527.529913
 20
668.888417
 30
0.0
 11
2511.429913
 21
668.888417
 31
0.0
  0
LINE
  5
283BB
  8
ALPHA
 10
2527.529913
 20
668.993232
 30
0.0
 11
2511.429913
 21
668.993232
 31
0.0
  0
LINE
  5
283BC
  8
ALPHA
 10
2522.479913
 20
670.893232
 30
0.0
 11
2518.079913
 21
670.893232
 31
0.0
  0
LINE
  5
283BD
  8
ALPHA
 10
2511.429913
 20
671.893232
 30
0.0
 11
2527.529913
 21
671.893232
 31
0.0
  0
LINE
  5
283BE
  8
ALPHA
 10
2511.429913
 20
671.998048
 30
0.0
 11
2527.529913
 21
671.998048
 31
0.0
  0
LINE
  5
283BF
  8
ALPHA
 10
2527.529913
 20
676.388417
 30
0.0
 11
2511.429913
 21
676.388417
 31
0.0
  0
LINE
  5
283C0
  8
ALPHA
 10
2527.529913
 20
676.493232
 30
0.0
 11
2511.429913
 21
676.493232
 31
0.0
  0
LINE
  5
283C1
  8
ALPHA
 10
2511.429913
 20
679.393232
 30
0.0
 11
2527.529913
 21
679.393232
 31
0.0
  0
LINE
  5
283C2
  8
ALPHA
 10
2511.429913
 20
679.498048
 30
0.0
 11
2527.529913
 21
679.498048
 31
0.0
  0
LINE
  5
283C3
  8
ALPHA
 10
2527.529913
 20
683.888417
 30
0.0
 11
2511.429913
 21
683.888417
 31
0.0
  0
LINE
  5
283C4
  8
ALPHA
 10
2527.529913
 20
683.993232
 30
0.0
 11
2511.429913
 21
683.993232
 31
0.0
  0
LINE
  5
283C5
  8
ALPHA
 10
2519.579913
 20
686.793232
 30
0.0
 11
2523.579913
 21
686.793232
 31
0.0
  0
LINE
  5
283C6
  8
ALPHA
 10
2511.429913
 20
686.893232
 30
0.0
 11
2527.529913
 21
686.893232
 31
0.0
  0
LINE
  5
283C7
  8
ALPHA
 10
2511.429913
 20
686.998048
 30
0.0
 11
2527.529913
 21
686.998048
 31
0.0
  0
LINE
  5
283C8
  8
ALPHA
 10
2511.429913
 20
691.430349
 30
0.0
 11
2527.529913
 21
691.430349
 31
0.0
  0
LINE
  5
283C9
  8
ALPHA
 10
2511.429913
 20
691.493232
 30
0.0
 11
2527.529913
 21
691.493232
 31
0.0
  0
LINE
  5
283CA
  8
ALPHA
 10
2527.529913
 20
694.393232
 30
0.0
 11
2511.429913
 21
694.393232
 31
0.0
  0
LINE
  5
283CB
  8
ALPHA
 10
2527.529913
 20
694.456115
 30
0.0
 11
2511.429913
 21
694.456115
 31
0.0
  0
LINE
  5
283CC
  8
ALPHA
 10
2527.529913
 20
698.888417
 30
0.0
 11
2511.429913
 21
698.888417
 31
0.0
  0
LINE
  5
283CD
  8
ALPHA
 10
2527.529913
 20
698.993232
 30
0.0
 11
2511.429913
 21
698.993232
 31
0.0
  0
LINE
  5
283CE
  8
ALPHA
 10
2511.429913
 20
701.893232
 30
0.0
 11
2527.529913
 21
701.893232
 31
0.0
  0
LINE
  5
283CF
  8
ALPHA
 10
2511.429913
 20
701.998048
 30
0.0
 11
2527.529913
 21
701.998048
 31
0.0
  0
LINE
  5
283D0
  8
ALPHA
 10
2527.529913
 20
706.388417
 30
0.0
 11
2511.429913
 21
706.388417
 31
0.0
  0
LINE
  5
283D1
  8
ALPHA
 10
2527.529913
 20
706.493232
 30
0.0
 11
2511.429913
 21
706.493232
 31
0.0
  0
LINE
  5
283D2
  8
ALPHA
 10
2511.429913
 20
709.393232
 30
0.0
 11
2527.529913
 21
709.393232
 31
0.0
  0
LINE
  5
283D3
  8
ALPHA
 10
2511.429913
 20
709.498048
 30
0.0
 11
2527.529913
 21
709.498048
 31
0.0
  0
LINE
  5
283D4
  8
ALPHA
 10
2527.529913
 20
713.888417
 30
0.0
 11
2511.429913
 21
713.888417
 31
0.0
  0
LINE
  5
283D5
  8
ALPHA
 10
2527.529913
 20
713.993232
 30
0.0
 11
2511.429913
 21
713.993232
 31
0.0
  0
LINE
  5
283D6
  8
ALPHA
 10
2511.429913
 20
716.893232
 30
0.0
 11
2527.529913
 21
716.893232
 31
0.0
  0
LINE
  5
283D7
  8
ALPHA
 10
2511.429913
 20
716.998048
 30
0.0
 11
2527.529913
 21
716.998048
 31
0.0
  0
LINE
  5
283D8
  8
ALPHA
 10
2527.529913
 20
721.388417
 30
0.0
 11
2511.429913
 21
721.388417
 31
0.0
  0
LINE
  5
283D9
  8
ALPHA
 10
2527.529913
 20
721.493232
 30
0.0
 11
2511.429913
 21
721.493232
 31
0.0
  0
LINE
  5
283DA
  8
ALPHA
 10
2511.429913
 20
724.393232
 30
0.0
 11
2527.529913
 21
724.393232
 31
0.0
  0
LINE
  5
283DB
  8
ALPHA
 10
2511.429913
 20
724.498048
 30
0.0
 11
2527.529913
 21
724.498048
 31
0.0
  0
LINE
  5
283DC
  8
ALPHA
 10
2527.529913
 20
728.888417
 30
0.0
 11
2511.429913
 21
728.888417
 31
0.0
  0
LINE
  5
283DD
  8
ALPHA
 10
2527.529913
 20
728.993232
 30
0.0
 11
2511.429913
 21
728.993232
 31
0.0
  0
LINE
  5
283DE
  8
ALPHA
 10
2511.429913
 20
731.893232
 30
0.0
 11
2527.529913
 21
731.893232
 31
0.0
  0
LINE
  5
283DF
  8
ALPHA
 10
2511.429913
 20
731.998048
 30
0.0
 11
2527.529913
 21
731.998048
 31
0.0
  0
LINE
  5
283E0
  8
ALPHA
 10
2527.529913
 20
736.388417
 30
0.0
 11
2511.429913
 21
736.388417
 31
0.0
  0
LINE
  5
283E1
  8
ALPHA
 10
2527.529913
 20
736.493232
 30
0.0
 11
2511.429913
 21
736.493232
 31
0.0
  0
LINE
  5
283E2
  8
ALPHA
 10
2511.429913
 20
739.393232
 30
0.0
 11
2527.529913
 21
739.393232
 31
0.0
  0
LINE
  5
283E3
  8
ALPHA
 10
2511.429913
 20
739.498048
 30
0.0
 11
2527.529913
 21
739.498048
 31
0.0
  0
LINE
  5
283E4
  8
ALPHA
 10
2527.529913
 20
743.888417
 30
0.0
 11
2511.429913
 21
743.888417
 31
0.0
  0
LINE
  5
283E5
  8
ALPHA
 10
2527.529913
 20
743.993232
 30
0.0
 11
2511.429913
 21
743.993232
 31
0.0
  0
POLYLINE
  5
283E6
  8
ALPHA
 66
     1
 10
0.0
 20
0.0
 30
0.0
  0
VERTEX
  5
2A102
  8
ALPHA
 10
2511.429913
 20
721.493232
 30
0.0
  0
VERTEX
  5
2A103
  8
ALPHA
 10
2510.868256
 20
721.606432
 30
0.0
  0
VERTEX
  5
2A104
  8
ALPHA
 10
2510.396458
 20
721.926146
 30
0.0
  0
VERTEX
  5
2A105
  8
ALPHA
 10
2510.087429
 20
722.3953
 30
0.0
  0
VERTEX
  5
2A106
  8
ALPHA
 10
2509.979913
 20
722.943232
 30
0.0
  0
VERTEX
  5
2A107
  8
ALPHA
 10
2510.087429
 20
723.491164
 30
0.0
  0
VERTEX
  5
2A108
  8
ALPHA
 10
2510.396458
 20
723.960319
 30
0.0
  0
VERTEX
  5
2A109
  8
ALPHA
 10
2510.868256
 20
724.280033
 30
0.0
  0
VERTEX
  5
2A10A
  8
ALPHA
 10
2511.429913
 20
724.393232
 30
0.0
  0
SEQEND
  5
2A10B
  8
ALPHA
  0
POLYLINE
  5
283F1
  8
ALPHA
 66
     1
 10
0.0
 20
0.0
 30
0.0
  0
VERTEX
  5
2A10C
  8
ALPHA
 10
2511.429913
 20
721.388417
 30
0.0
  0
VERTEX
  5
2A10D
  8
ALPHA
 10
2510.827913
 20
721.50965
 30
0.0
  0
VERTEX
  5
2A10E
  8
ALPHA
 10
2510.322605
 20
721.851661
 30
0.0
  0
VERTEX
  5
2A10F
  8
ALPHA
 10
2509.990429
 20
722.35535
 30
0.0
  0
VERTEX
  5
2A110
  8
ALPHA
 10
2509.875001
 20
722.943232
 30
0.0
  0
VERTEX
  5
2A111
  8
ALPHA
 10
2509.990429
 20
723.531114
 30
0.0
  0
VERTEX
  5
2A112
  8
ALPHA
 10
2510.322605
 20
724.034803
 30
0.0
  0
VERTEX
  5
2A113
  8
ALPHA
 10
2510.827913
 20
724.376814
 30
0.0
  0
VERTEX
  5
2A114
  8
ALPHA
 10
2511.429913
 20
724.498048
 30
0.0
  0
SEQEND
  5
2A115
  8
ALPHA
  0
LINE
  5
283FC
  8
ALPHA
 10
2511.429913
 20
736.493232
 30
0.0
 11
2511.429913
 21
736.388417
 31
0.0
  0
LINE
  5
283FD
  8
ALPHA
 10
2511.429913
 20
743.993232
 30
0.0
 11
2511.429913
 21
743.888417
 31
0.0
  0
LINE
  5
283FE
  8
ALPHA
 10
2511.429913
 20
739.393232
 30
0.0
 11
2511.429913
 21
739.498048
 31
0.0
  0
POLYLINE
  5
283FF
  8
ALPHA
 66
     1
 10
0.0
 20
0.0
 30
0.0
  0
VERTEX
  5
2A116
  8
ALPHA
 10
2511.429913
 20
736.493232
 30
0.0
  0
VERTEX
  5
2A117
  8
ALPHA
 10
2510.868256
 20
736.606432
 30
0.0
  0
VERTEX
  5
2A118
  8
ALPHA
 10
2510.396458
 20
736.926146
 30
0.0
  0
VERTEX
  5
2A119
  8
ALPHA
 10
2510.087429
 20
737.3953
 30
0.0
  0
VERTEX
  5
2A11A
  8
ALPHA
 10
2509.979913
 20
737.943232
 30
0.0
  0
VERTEX
  5
2A11B
  8
ALPHA
 10
2510.087429
 20
738.491164
 30
0.0
  0
VERTEX
  5
2A11C
  8
ALPHA
 10
2510.396458
 20
738.960319
 30
0.0
  0
VERTEX
  5
2A11D
  8
ALPHA
 10
2510.868256
 20
739.280033
 30
0.0
  0
VERTEX
  5
2A11E
  8
ALPHA
 10
2511.429913
 20
739.393232
 30
0.0
  0
SEQEND
  5
2A11F
  8
ALPHA
  0
POLYLINE
  5
2840A
  8
ALPHA
 66
     1
 10
0.0
 20
0.0
 30
0.0
  0
VERTEX
  5
2A120
  8
ALPHA
 10
2511.429913
 20
736.388417
 30
0.0
  0
VERTEX
  5
2A121
  8
ALPHA
 10
2510.827913
 20
736.50965
 30
0.0
  0
VERTEX
  5
2A122
  8
ALPHA
 10
2510.322605
 20
736.851661
 30
0.0
  0
VERTEX
  5
2A123
  8
ALPHA
 10
2509.990429
 20
737.35535
 30
0.0
  0
VERTEX
  5
2A124
  8
ALPHA
 10
2509.875001
 20
737.943232
 30
0.0
  0
VERTEX
  5
2A125
  8
ALPHA
 10
2509.990429
 20
738.531114
 30
0.0
  0
VERTEX
  5
2A126
  8
ALPHA
 10
2510.322605
 20
739.034803
 30
0.0
  0
VERTEX
  5
2A127
  8
ALPHA
 10
2510.827913
 20
739.376814
 30
0.0
  0
VERTEX
  5
2A128
  8
ALPHA
 10
2511.429913
 20
739.498048
 30
0.0
  0
SEQEND
  5
2A129
  8
ALPHA
  0
LINE
  5
28415
  8
ALPHA
 10
2511.429913
 20
728.993232
 30
0.0
 11
2511.429913
 21
728.888417
 31
0.0
  0
LINE
  5
28416
  8
ALPHA
 10
2511.429913
 20
731.893232
 30
0.0
 11
2511.429913
 21
731.998048
 31
0.0
  0
LINE
  5
28417
  8
ALPHA
 10
2511.429913
 20
724.393232
 30
0.0
 11
2511.429913
 21
724.498048
 31
0.0
  0
POLYLINE
  5
28418
  8
ALPHA
 66
     1
 10
0.0
 20
0.0
 30
0.0
  0
VERTEX
  5
2A12A
  8
ALPHA
 10
2511.429913
 20
728.993232
 30
0.0
  0
VERTEX
  5
2A12B
  8
ALPHA
 10
2510.868256
 20
729.106432
 30
0.0
  0
VERTEX
  5
2A12C
  8
ALPHA
 10
2510.396458
 20
729.426146
 30
0.0
  0
VERTEX
  5
2A12D
  8
ALPHA
 10
2510.087429
 20
729.8953
 30
0.0
  0
VERTEX
  5
2A12E
  8
ALPHA
 10
2509.979913
 20
730.443232
 30
0.0
  0
VERTEX
  5
2A12F
  8
ALPHA
 10
2510.087429
 20
730.991164
 30
0.0
  0
VERTEX
  5
2A130
  8
ALPHA
 10
2510.396458
 20
731.460319
 30
0.0
  0
VERTEX
  5
2A131
  8
ALPHA
 10
2510.868256
 20
731.780033
 30
0.0
  0
VERTEX
  5
2A132
  8
ALPHA
 10
2511.429913
 20
731.893232
 30
0.0
  0
SEQEND
  5
2A133
  8
ALPHA
  0
POLYLINE
  5
28423
  8
ALPHA
 66
     1
 10
0.0
 20
0.0
 30
0.0
  0
VERTEX
  5
2A134
  8
ALPHA
 10
2511.429913
 20
728.888417
 30
0.0
  0
VERTEX
  5
2A135
  8
ALPHA
 10
2510.827913
 20
729.00965
 30
0.0
  0
VERTEX
  5
2A136
  8
ALPHA
 10
2510.322605
 20
729.351661
 30
0.0
  0
VERTEX
  5
2A137
  8
ALPHA
 10
2509.990429
 20
729.85535
 30
0.0
  0
VERTEX
  5
2A138
  8
ALPHA
 10
2509.875001
 20
730.443232
 30
0.0
  0
VERTEX
  5
2A139
  8
ALPHA
 10
2509.990429
 20
731.031114
 30
0.0
  0
VERTEX
  5
2A13A
  8
ALPHA
 10
2510.322605
 20
731.534803
 30
0.0
  0
VERTEX
  5
2A13B
  8
ALPHA
 10
2510.827913
 20
731.876814
 30
0.0
  0
VERTEX
  5
2A13C
  8
ALPHA
 10
2511.429913
 20
731.998048
 30
0.0
  0
SEQEND
  5
2A13D
  8
ALPHA
  0
LINE
  5
2842E
  8
ALPHA
 10
2511.429913
 20
713.993232
 30
0.0
 11
2511.429913
 21
713.888417
 31
0.0
  0
LINE
  5
2842F
  8
ALPHA
 10
2511.429913
 20
721.493232
 30
0.0
 11
2511.429913
 21
721.388417
 31
0.0
  0
LINE
  5
28430
  8
ALPHA
 10
2511.429913
 20
716.893232
 30
0.0
 11
2511.429913
 21
716.998048
 31
0.0
  0
POLYLINE
  5
28431
  8
ALPHA
 66
     1
 10
0.0
 20
0.0
 30
0.0
  0
VERTEX
  5
2A13E
  8
ALPHA
 10
2511.429913
 20
713.993232
 30
0.0
  0
VERTEX
  5
2A13F
  8
ALPHA
 10
2510.868256
 20
714.106432
 30
0.0
  0
VERTEX
  5
2A140
  8
ALPHA
 10
2510.396458
 20
714.426146
 30
0.0
  0
VERTEX
  5
2A141
  8
ALPHA
 10
2510.087429
 20
714.8953
 30
0.0
  0
VERTEX
  5
2A142
  8
ALPHA
 10
2509.979913
 20
715.443232
 30
0.0
  0
VERTEX
  5
2A143
  8
ALPHA
 10
2510.087429
 20
715.991164
 30
0.0
  0
VERTEX
  5
2A144
  8
ALPHA
 10
2510.396458
 20
716.460319
 30
0.0
  0
VERTEX
  5
2A145
  8
ALPHA
 10
2510.868256
 20
716.780033
 30
0.0
  0
VERTEX
  5
2A146
  8
ALPHA
 10
2511.429913
 20
716.893232
 30
0.0
  0
SEQEND
  5
2A147
  8
ALPHA
  0
POLYLINE
  5
2843C
  8
ALPHA
 66
     1
 10
0.0
 20
0.0
 30
0.0
  0
VERTEX
  5
2A148
  8
ALPHA
 10
2511.429913
 20
713.888417
 30
0.0
  0
VERTEX
  5
2A149
  8
ALPHA
 10
2510.827913
 20
714.00965
 30
0.0
  0
VERTEX
  5
2A14A
  8
ALPHA
 10
2510.322605
 20
714.351661
 30
0.0
  0
VERTEX
  5
2A14B
  8
ALPHA
 10
2509.990429
 20
714.85535
 30
0.0
  0
VERTEX
  5
2A14C
  8
ALPHA
 10
2509.875001
 20
715.443232
 30
0.0
  0
VERTEX
  5
2A14D
  8
ALPHA
 10
2509.990429
 20
716.031114
 30
0.0
  0
VERTEX
  5
2A14E
  8
ALPHA
 10
2510.322605
 20
716.534803
 30
0.0
  0
VERTEX
  5
2A14F
  8
ALPHA
 10
2510.827913
 20
716.876814
 30
0.0
  0
VERTEX
  5
2A150
  8
ALPHA
 10
2511.429913
 20
716.998048
 30
0.0
  0
SEQEND
  5
2A151
  8
ALPHA
  0
LINE
  5
28447
  8
ALPHA
 10
2511.429913
 20
698.993232
 30
0.0
 11
2511.429913
 21
698.888417
 31
0.0
  0
LINE
  5
28448
  8
ALPHA
 10
2511.429913
 20
706.493232
 30
0.0
 11
2511.429913
 21
706.388417
 31
0.0
  0
LINE
  5
28449
  8
ALPHA
 10
2511.429913
 20
709.393232
 30
0.0
 11
2511.429913
 21
709.498048
 31
0.0
  0
LINE
  5
2844A
  8
ALPHA
 10
2511.429913
 20
701.893232
 30
0.0
 11
2511.429913
 21
701.998048
 31
0.0
  0
POLYLINE
  5
2844B
  8
ALPHA
 66
     1
 10
0.0
 20
0.0
 30
0.0
  0
VERTEX
  5
2A152
  8
ALPHA
 10
2511.429913
 20
698.993232
 30
0.0
  0
VERTEX
  5
2A153
  8
ALPHA
 10
2510.868256
 20
699.106432
 30
0.0
  0
VERTEX
  5
2A154
  8
ALPHA
 10
2510.396458
 20
699.426146
 30
0.0
  0
VERTEX
  5
2A155
  8
ALPHA
 10
2510.087429
 20
699.8953
 30
0.0
  0
VERTEX
  5
2A156
  8
ALPHA
 10
2509.979913
 20
700.443232
 30
0.0
  0
VERTEX
  5
2A157
  8
ALPHA
 10
2510.087429
 20
700.991164
 30
0.0
  0
VERTEX
  5
2A158
  8
ALPHA
 10
2510.396458
 20
701.460319
 30
0.0
  0
VERTEX
  5
2A159
  8
ALPHA
 10
2510.868256
 20
701.780033
 30
0.0
  0
VERTEX
  5
2A15A
  8
ALPHA
 10
2511.429913
 20
701.893232
 30
0.0
  0
SEQEND
  5
2A15B
  8
ALPHA
  0
POLYLINE
  5
28456
  8
ALPHA
 66
     1
 10
0.0
 20
0.0
 30
0.0
  0
VERTEX
  5
2A15C
  8
ALPHA
 10
2511.429913
 20
706.493232
 30
0.0
  0
VERTEX
  5
2A15D
  8
ALPHA
 10
2510.868256
 20
706.606432
 30
0.0
  0
VERTEX
  5
2A15E
  8
ALPHA
 10
2510.396458
 20
706.926146
 30
0.0
  0
VERTEX
  5
2A15F
  8
ALPHA
 10
2510.087429
 20
707.3953
 30
0.0
  0
VERTEX
  5
2A160
  8
ALPHA
 10
2509.979913
 20
707.943232
 30
0.0
  0
VERTEX
  5
2A161
  8
ALPHA
 10
2510.087429
 20
708.491164
 30
0.0
  0
VERTEX
  5
2A162
  8
ALPHA
 10
2510.396458
 20
708.960319
 30
0.0
  0
VERTEX
  5
2A163
  8
ALPHA
 10
2510.868256
 20
709.280033
 30
0.0
  0
VERTEX
  5
2A164
  8
ALPHA
 10
2511.429913
 20
709.393232
 30
0.0
  0
SEQEND
  5
2A165
  8
ALPHA
  0
POLYLINE
  5
28461
  8
ALPHA
 66
     1
 10
0.0
 20
0.0
 30
0.0
  0
VERTEX
  5
2A166
  8
ALPHA
 10
2511.429913
 20
698.888417
 30
0.0
  0
VERTEX
  5
2A167
  8
ALPHA
 10
2510.827913
 20
699.00965
 30
0.0
  0
VERTEX
  5
2A168
  8
ALPHA
 10
2510.322605
 20
699.351661
 30
0.0
  0
VERTEX
  5
2A169
  8
ALPHA
 10
2509.990429
 20
699.85535
 30
0.0
  0
VERTEX
  5
2A16A
  8
ALPHA
 10
2509.875001
 20
700.443232
 30
0.0
  0
VERTEX
  5
2A16B
  8
ALPHA
 10
2509.990429
 20
701.031114
 30
0.0
  0
VERTEX
  5
2A16C
  8
ALPHA
 10
2510.322605
 20
701.534803
 30
0.0
  0
VERTEX
  5
2A16D
  8
ALPHA
 10
2510.827913
 20
701.876814
 30
0.0
  0
VERTEX
  5
2A16E
  8
ALPHA
 10
2511.429913
 20
701.998048
 30
0.0
  0
SEQEND
  5
2A16F
  8
ALPHA
  0
POLYLINE
  5
2846C
  8
ALPHA
 66
     1
 10
0.0
 20
0.0
 30
0.0
  0
VERTEX
  5
2A170
  8
ALPHA
 10
2511.429913
 20
706.388417
 30
0.0
  0
VERTEX
  5
2A171
  8
ALPHA
 10
2510.827913
 20
706.50965
 30
0.0
  0
VERTEX
  5
2A172
  8
ALPHA
 10
2510.322605
 20
706.851661
 30
0.0
  0
VERTEX
  5
2A173
  8
ALPHA
 10
2509.990429
 20
707.35535
 30
0.0
  0
VERTEX
  5
2A174
  8
ALPHA
 10
2509.875001
 20
707.943232
 30
0.0
  0
VERTEX
  5
2A175
  8
ALPHA
 10
2509.990429
 20
708.531114
 30
0.0
  0
VERTEX
  5
2A176
  8
ALPHA
 10
2510.322605
 20
709.034803
 30
0.0
  0
VERTEX
  5
2A177
  8
ALPHA
 10
2510.827913
 20
709.376814
 30
0.0
  0
VERTEX
  5
2A178
  8
ALPHA
 10
2511.429913
 20
709.498048
 30
0.0
  0
SEQEND
  5
2A179
  8
ALPHA
  0
LINE
  5
28477
  8
ALPHA
 10
2511.429913
 20
694.456115
 30
0.0
 11
2511.429913
 21
694.393232
 31
0.0
  0
LINE
  5
28478
  8
ALPHA
 10
2511.429913
 20
691.430349
 30
0.0
 11
2511.429913
 21
691.493232
 31
0.0
  0
POLYLINE
  5
28479
  8
ALPHA
 66
     1
 10
0.0
 20
0.0
 30
0.0
  0
VERTEX
  5
2A17A
  8
ALPHA
 10
2511.429913
 20
694.393232
 30
0.0
  0
VERTEX
  5
2A17B
  8
ALPHA
 10
2510.868247
 20
694.280029
 30
0.0
  0
VERTEX
  5
2A17C
  8
ALPHA
 10
2510.396445
 20
693.960305
 30
0.0
  0
VERTEX
  5
2A17D
  8
ALPHA
 10
2510.087429
 20
693.491162
 30
0.0
  0
VERTEX
  5
2A17E
  8
ALPHA
 10
2509.979913
 20
692.943232
 30
0.0
  0
VERTEX
  5
2A17F
  8
ALPHA
 10
2510.087429
 20
692.395302
 30
0.0
  0
VERTEX
  5
2A180
  8
ALPHA
 10
2510.396445
 20
691.926159
 30
0.0
  0
VERTEX
  5
2A181
  8
ALPHA
 10
2510.868247
 20
691.606435
 30
0.0
  0
VERTEX
  5
2A182
  8
ALPHA
 10
2511.429913
 20
691.493232
 30
0.0
  0
SEQEND
  5
2A183
  8
ALPHA
  0
POLYLINE
  5
28484
  8
ALPHA
 66
     1
 10
0.0
 20
0.0
 30
0.0
  0
VERTEX
  5
2A184
  8
ALPHA
 10
2511.429913
 20
694.456115
 30
0.0
  0
VERTEX
  5
2A185
  8
ALPHA
 10
2510.844042
 20
694.338091
 30
0.0
  0
VERTEX
  5
2A186
  8
ALPHA
 10
2510.352142
 20
694.004996
 30
0.0
  0
VERTEX
  5
2A187
  8
ALPHA
 10
2510.029236
 20
693.515133
 30
0.0
  0
VERTEX
  5
2A188
  8
ALPHA
 10
2509.916972
 20
692.943232
 30
0.0
  0
VERTEX
  5
2A189
  8
ALPHA
 10
2510.029236
 20
692.371332
 30
0.0
  0
VERTEX
  5
2A18A
  8
ALPHA
 10
2510.352142
 20
691.881468
 30
0.0
  0
VERTEX
  5
2A18B
  8
ALPHA
 10
2510.844042
 20
691.548373
 30
0.0
  0
VERTEX
  5
2A18C
  8
ALPHA
 10
2511.429913
 20
691.430349
 30
0.0
  0
SEQEND
  5
2A18D
  8
ALPHA
  0
LINE
  5
2848F
  8
ALPHA
 10
2520.459913
 20
676.493232
 30
0.0
 11
2520.459913
 21
679.393232
 31
0.0
  0
LINE
  5
28490
  8
ALPHA
 10
2519.579913
 20
683.993232
 30
0.0
 11
2519.579913
 21
686.893232
 31
0.0
  0
LINE
  5
28491
  8
ALPHA
 10
2518.779913
 20
683.993232
 30
0.0
 11
2518.779913
 21
686.793232
 31
0.0
  0
LINE
  5
28492
  8
ALPHA
 10
2518.779913
 20
677.843232
 30
0.0
 11
2518.779913
 21
679.393232
 31
0.0
  0
LINE
  5
28493
  8
ALPHA
 10
2518.079913
 20
683.993232
 30
0.0
 11
2518.079913
 21
686.893232
 31
0.0
  0
LINE
  5
28494
  8
ALPHA
 10
2518.079913
 20
676.493232
 30
0.0
 11
2518.079913
 21
679.393232
 31
0.0
  0
LINE
  5
28495
  8
ALPHA
 10
2516.479913
 20
679.393232
 30
0.0
 11
2516.479913
 21
676.493232
 31
0.0
  0
LINE
  5
28496
  8
ALPHA
 10
2516.479913
 20
686.893232
 30
0.0
 11
2516.479913
 21
683.993232
 31
0.0
  0
LINE
  5
28497
  8
ALPHA
 10
2511.429913
 20
676.493232
 30
0.0
 11
2511.429913
 21
676.388417
 31
0.0
  0
LINE
  5
28498
  8
ALPHA
 10
2511.429913
 20
683.993232
 30
0.0
 11
2511.429913
 21
683.888417
 31
0.0
  0
LINE
  5
28499
  8
ALPHA
 10
2511.429913
 20
686.893232
 30
0.0
 11
2511.429913
 21
686.998048
 31
0.0
  0
LINE
  5
2849A
  8
ALPHA
 10
2511.429913
 20
679.393232
 30
0.0
 11
2511.429913
 21
679.498048
 31
0.0
  0
LINE
  5
2849B
  8
ALPHA
 10
2518.779913
 20
677.843232
 30
0.0
 11
2518.079913
 21
677.843232
 31
0.0
  0
POLYLINE
  5
2849C
  8
ALPHA
 66
     1
 10
0.0
 20
0.0
 30
0.0
  0
VERTEX
  5
2A18E
  8
ALPHA
 10
2511.429913
 20
676.493232
 30
0.0
  0
VERTEX
  5
2A18F
  8
ALPHA
 10
2510.868256
 20
676.606432
 30
0.0
  0
VERTEX
  5
2A190
  8
ALPHA
 10
2510.396458
 20
676.926146
 30
0.0
  0
VERTEX
  5
2A191
  8
ALPHA
 10
2510.087429
 20
677.3953
 30
0.0
  0
VERTEX
  5
2A192
  8
ALPHA
 10
2509.979913
 20
677.943232
 30
0.0
  0
VERTEX
  5
2A193
  8
ALPHA
 10
2510.087429
 20
678.491164
 30
0.0
  0
VERTEX
  5
2A194
  8
ALPHA
 10
2510.396458
 20
678.960319
 30
0.0
  0
VERTEX
  5
2A195
  8
ALPHA
 10
2510.868256
 20
679.280033
 30
0.0
  0
VERTEX
  5
2A196
  8
ALPHA
 10
2511.429913
 20
679.393232
 30
0.0
  0
SEQEND
  5
2A197
  8
ALPHA
  0
POLYLINE
  5
284A7
  8
ALPHA
 66
     1
 10
0.0
 20
0.0
 30
0.0
  0
VERTEX
  5
2A198
  8
ALPHA
 10
2511.429913
 20
676.388417
 30
0.0
  0
VERTEX
  5
2A199
  8
ALPHA
 10
2510.827913
 20
676.50965
 30
0.0
  0
VERTEX
  5
2A19A
  8
ALPHA
 10
2510.322605
 20
676.851661
 30
0.0
  0
VERTEX
  5
2A19B
  8
ALPHA
 10
2509.990429
 20
677.35535
 30
0.0
  0
VERTEX
  5
2A19C
  8
ALPHA
 10
2509.875001
 20
677.943232
 30
0.0
  0
VERTEX
  5
2A19D
  8
ALPHA
 10
2509.990429
 20
678.531114
 30
0.0
  0
VERTEX
  5
2A19E
  8
ALPHA
 10
2510.322605
 20
679.034803
 30
0.0
  0
VERTEX
  5
2A19F
  8
ALPHA
 10
2510.827913
 20
679.376814
 30
0.0
  0
VERTEX
  5
2A1A0
  8
ALPHA
 10
2511.429913
 20
679.498048
 30
0.0
  0
SEQEND
  5
2A1A1
  8
ALPHA
  0
LINE
  5
284B2
  8
ALPHA
 10
2518.779913
 20
686.793232
 30
0.0
 11
2518.079913
 21
686.793232
 31
0.0
  0
POLYLINE
  5
284B3
  8
ALPHA
 66
     1
 10
0.0
 20
0.0
 30
0.0
  0
VERTEX
  5
2A1A2
  8
ALPHA
 10
2511.429913
 20
683.993232
 30
0.0
  0
VERTEX
  5
2A1A3
  8
ALPHA
 10
2510.868256
 20
684.106432
 30
0.0
  0
VERTEX
  5
2A1A4
  8
ALPHA
 10
2510.396458
 20
684.426146
 30
0.0
  0
VERTEX
  5
2A1A5
  8
ALPHA
 10
2510.087429
 20
684.8953
 30
0.0
  0
VERTEX
  5
2A1A6
  8
ALPHA
 10
2509.979913
 20
685.443232
 30
0.0
  0
VERTEX
  5
2A1A7
  8
ALPHA
 10
2510.087429
 20
685.991164
 30
0.0
  0
VERTEX
  5
2A1A8
  8
ALPHA
 10
2510.396458
 20
686.460319
 30
0.0
  0
VERTEX
  5
2A1A9
  8
ALPHA
 10
2510.868256
 20
686.780033
 30
0.0
  0
VERTEX
  5
2A1AA
  8
ALPHA
 10
2511.429913
 20
686.893232
 30
0.0
  0
SEQEND
  5
2A1AB
  8
ALPHA
  0
POLYLINE
  5
284BE
  8
ALPHA
 66
     1
 10
0.0
 20
0.0
 30
0.0
  0
VERTEX
  5
2A1AC
  8
ALPHA
 10
2511.429913
 20
683.888417
 30
0.0
  0
VERTEX
  5
2A1AD
  8
ALPHA
 10
2510.827913
 20
684.00965
 30
0.0
  0
VERTEX
  5
2A1AE
  8
ALPHA
 10
2510.322605
 20
684.351661
 30
0.0
  0
VERTEX
  5
2A1AF
  8
ALPHA
 10
2509.990429
 20
684.85535
 30
0.0
  0
VERTEX
  5
2A1B0
  8
ALPHA
 10
2509.875001
 20
685.443232
 30
0.0
  0
VERTEX
  5
2A1B1
  8
ALPHA
 10
2509.990429
 20
686.031114
 30
0.0
  0
VERTEX
  5
2A1B2
  8
ALPHA
 10
2510.322605
 20
686.534803
 30
0.0
  0
VERTEX
  5
2A1B3
  8
ALPHA
 10
2510.827913
 20
686.876814
 30
0.0
  0
VERTEX
  5
2A1B4
  8
ALPHA
 10
2511.429913
 20
686.998048
 30
0.0
  0
SEQEND
  5
2A1B5
  8
ALPHA
  0
POLYLINE
  5
284C9
  8
ALPHA
 66
     1
 10
0.0
 20
0.0
 30
0.0
  0
VERTEX
  5
2A1B6
  8
ALPHA
 10
2511.429913
 20
664.330349
 30
0.0
  0
VERTEX
  5
2A1B7
  8
ALPHA
 10
2510.892638
 20
664.222045
 30
0.0
  0
VERTEX
  5
2A1B8
  8
ALPHA
 10
2510.441336
 20
663.916213
 30
0.0
  0
VERTEX
  5
2A1B9
  8
ALPHA
 10
2510.145705
 20
663.467397
 30
0.0
  0
VERTEX
  5
2A1BA
  8
ALPHA
 10
2510.042853
 20
662.943232
 30
0.0
  0
VERTEX
  5
2A1BB
  8
ALPHA
 10
2510.145705
 20
662.419068
 30
0.0
  0
VERTEX
  5
2A1BC
  8
ALPHA
 10
2510.441336
 20
661.970252
 30
0.0
  0
VERTEX
  5
2A1BD
  8
ALPHA
 10
2510.892638
 20
661.664419
 30
0.0
  0
VERTEX
  5
2A1BE
  8
ALPHA
 10
2511.429913
 20
661.556115
 30
0.0
  0
SEQEND
  5
2A1BF
  8
ALPHA
  0
POLYLINE
  5
284D4
  8
ALPHA
 66
     1
 10
0.0
 20
0.0
 30
0.0
  0
VERTEX
  5
2A1C0
  8
ALPHA
 10
2511.429913
 20
664.393232
 30
0.0
  0
VERTEX
  5
2A1C1
  8
ALPHA
 10
2510.868256
 20
664.280033
 30
0.0
  0
VERTEX
  5
2A1C2
  8
ALPHA
 10
2510.396458
 20
663.960319
 30
0.0
  0
VERTEX
  5
2A1C3
  8
ALPHA
 10
2510.087429
 20
663.491164
 30
0.0
  0
VERTEX
  5
2A1C4
  8
ALPHA
 10
2509.979913
 20
662.943232
 30
0.0
  0
VERTEX
  5
2A1C5
  8
ALPHA
 10
2510.08743
 20
662.3953
 30
0.0
  0
VERTEX
  5
2A1C6
  8
ALPHA
 10
2510.396458
 20
661.926145
 30
0.0
  0
VERTEX
  5
2A1C7
  8
ALPHA
 10
2510.868256
 20
661.606431
 30
0.0
  0
VERTEX
  5
2A1C8
  8
ALPHA
 10
2511.429914
 20
661.493232
 30
0.0
  0
SEQEND
  5
2A1C9
  8
ALPHA
  0
LINE
  5
284DF
  8
ALPHA
 10
2520.279913
 20
668.993232
 30
0.0
 11
2520.279913
 21
669.593232
 31
0.0
  0
LINE
  5
284E0
  8
ALPHA
 10
2520.079913
 20
670.893232
 30
0.0
 11
2520.079913
 21
671.893232
 31
0.0
  0
LINE
  5
284E1
  8
ALPHA
 10
2519.079913
 20
670.893232
 30
0.0
 11
2519.079913
 21
671.293232
 31
0.0
  0
LINE
  5
284E2
  8
ALPHA
 10
2518.079913
 20
668.993232
 30
0.0
 11
2518.079913
 21
671.893232
 31
0.0
  0
LINE
  5
284E3
  8
ALPHA
 10
2516.479913
 20
671.893232
 30
0.0
 11
2516.479913
 21
668.993232
 31
0.0
  0
LINE
  5
284E4
  8
ALPHA
 10
2511.429913
 20
664.393232
 30
0.0
 11
2511.429913
 21
664.330349
 31
0.0
  0
LINE
  5
284E5
  8
ALPHA
 10
2511.429913
 20
668.993232
 30
0.0
 11
2511.429913
 21
668.888417
 31
0.0
  0
LINE
  5
284E6
  8
ALPHA
 10
2511.429913
 20
671.893232
 30
0.0
 11
2511.429913
 21
671.998048
 31
0.0
  0
LINE
  5
284E7
  8
ALPHA
 10
2518.079913
 20
669.593232
 30
0.0
 11
2520.279913
 21
669.593232
 31
0.0
  0
LINE
  5
284E8
  8
ALPHA
 10
2519.079913
 20
671.293232
 30
0.0
 11
2518.079913
 21
671.293232
 31
0.0
  0
POLYLINE
  5
284E9
  8
ALPHA
 66
     1
 10
0.0
 20
0.0
 30
0.0
  0
VERTEX
  5
2A1CA
  8
ALPHA
 10
2511.429913
 20
668.993232
 30
0.0
  0
VERTEX
  5
2A1CB
  8
ALPHA
 10
2510.868256
 20
669.106432
 30
0.0
  0
VERTEX
  5
2A1CC
  8
ALPHA
 10
2510.396458
 20
669.426146
 30
0.0
  0
VERTEX
  5
2A1CD
  8
ALPHA
 10
2510.087429
 20
669.8953
 30
0.0
  0
VERTEX
  5
2A1CE
  8
ALPHA
 10
2509.979913
 20
670.443232
 30
0.0
  0
VERTEX
  5
2A1CF
  8
ALPHA
 10
2510.087429
 20
670.991164
 30
0.0
  0
VERTEX
  5
2A1D0
  8
ALPHA
 10
2510.396458
 20
671.460319
 30
0.0
  0
VERTEX
  5
2A1D1
  8
ALPHA
 10
2510.868256
 20
671.780033
 30
0.0
  0
VERTEX
  5
2A1D2
  8
ALPHA
 10
2511.429913
 20
671.893232
 30
0.0
  0
SEQEND
  5
2A1D3
  8
ALPHA
  0
POLYLINE
  5
284F4
  8
ALPHA
 66
     1
 10
0.0
 20
0.0
 30
0.0
  0
VERTEX
  5
2A1D4
  8
ALPHA
 10
2511.429913
 20
668.888417
 30
0.0
  0
VERTEX
  5
2A1D5
  8
ALPHA
 10
2510.827913
 20
669.00965
 30
0.0
  0
VERTEX
  5
2A1D6
  8
ALPHA
 10
2510.322605
 20
669.351661
 30
0.0
  0
VERTEX
  5
2A1D7
  8
ALPHA
 10
2509.990429
 20
669.85535
 30
0.0
  0
VERTEX
  5
2A1D8
  8
ALPHA
 10
2509.875001
 20
670.443232
 30
0.0
  0
VERTEX
  5
2A1D9
  8
ALPHA
 10
2509.990429
 20
671.031114
 30
0.0
  0
VERTEX
  5
2A1DA
  8
ALPHA
 10
2510.322605
 20
671.534803
 30
0.0
  0
VERTEX
  5
2A1DB
  8
ALPHA
 10
2510.827913
 20
671.876814
 30
0.0
  0
VERTEX
  5
2A1DC
  8
ALPHA
 10
2511.429913
 20
671.998048
 30
0.0
  0
SEQEND
  5
2A1DD
  8
ALPHA
  0
LINE
  5
284FF
  8
ALPHA
 10
2511.429914
 20
661.493232
 30
0.0
 11
2511.429913
 21
661.556115
 31
0.0
  0
LINE
  5
28500
  8
ALPHA
 10
2511.429913
 20
656.893232
 30
0.0
 11
2511.429913
 21
656.830349
 31
0.0
  0
LINE
  5
28501
  8
ALPHA
 10
2511.429913
 20
653.993232
 30
0.0
 11
2511.429913
 21
654.056115
 31
0.0
  0
POLYLINE
  5
28502
  8
ALPHA
 66
     1
 10
0.0
 20
0.0
 30
0.0
  0
VERTEX
  5
2A1DE
  8
ALPHA
 10
2511.429913
 20
656.830349
 30
0.0
  0
VERTEX
  5
2A1DF
  8
ALPHA
 10
2510.892638
 20
656.722045
 30
0.0
  0
VERTEX
  5
2A1E0
  8
ALPHA
 10
2510.441336
 20
656.416213
 30
0.0
  0
VERTEX
  5
2A1E1
  8
ALPHA
 10
2510.145705
 20
655.967397
 30
0.0
  0
VERTEX
  5
2A1E2
  8
ALPHA
 10
2510.042853
 20
655.443232
 30
0.0
  0
VERTEX
  5
2A1E3
  8
ALPHA
 10
2510.145705
 20
654.919068
 30
0.0
  0
VERTEX
  5
2A1E4
  8
ALPHA
 10
2510.441336
 20
654.470252
 30
0.0
  0
VERTEX
  5
2A1E5
  8
ALPHA
 10
2510.892638
 20
654.164419
 30
0.0
  0
VERTEX
  5
2A1E6
  8
ALPHA
 10
2511.429913
 20
654.056115
 30
0.0
  0
SEQEND
  5
2A1E7
  8
ALPHA
  0
POLYLINE
  5
2850D
  8
ALPHA
 66
     1
 10
0.0
 20
0.0
 30
0.0
  0
VERTEX
  5
2A1E8
  8
ALPHA
 10
2511.429913
 20
656.893232
 30
0.0
  0
VERTEX
  5
2A1E9
  8
ALPHA
 10
2510.868256
 20
656.780033
 30
0.0
  0
VERTEX
  5
2A1EA
  8
ALPHA
 10
2510.396458
 20
656.460319
 30
0.0
  0
VERTEX
  5
2A1EB
  8
ALPHA
 10
2510.087429
 20
655.991164
 30
0.0
  0
VERTEX
  5
2A1EC
  8
ALPHA
 10
2509.979913
 20
655.443232
 30
0.0
  0
VERTEX
  5
2A1ED
  8
ALPHA
 10
2510.087429
 20
654.8953
 30
0.0
  0
VERTEX
  5
2A1EE
  8
ALPHA
 10
2510.396458
 20
654.426146
 30
0.0
  0
VERTEX
  5
2A1EF
  8
ALPHA
 10
2510.868256
 20
654.106432
 30
0.0
  0
VERTEX
  5
2A1F0
  8
ALPHA
 10
2511.429913
 20
653.993232
 30
0.0
  0
SEQEND
  5
2A1F1
  8
ALPHA
  0
POLYLINE
  5
28518
  8
ALPHA
 66
     1
 10
0.0
 20
0.0
 30
0.0
  0
VERTEX
  5
2A1F2
  8
ALPHA
 10
2527.529913
 20
724.393232
 30
0.0
  0
VERTEX
  5
2A1F3
  8
ALPHA
 10
2528.09157
 20
724.280033
 30
0.0
  0
VERTEX
  5
2A1F4
  8
ALPHA
 10
2528.563368
 20
723.960319
 30
0.0
  0
VERTEX
  5
2A1F5
  8
ALPHA
 10
2528.872396
 20
723.491164
 30
0.0
  0
VERTEX
  5
2A1F6
  8
ALPHA
 10
2528.979913
 20
722.943232
 30
0.0
  0
VERTEX
  5
2A1F7
  8
ALPHA
 10
2528.872396
 20
722.3953
 30
0.0
  0
VERTEX
  5
2A1F8
  8
ALPHA
 10
2528.563368
 20
721.926146
 30
0.0
  0
VERTEX
  5
2A1F9
  8
ALPHA
 10
2528.09157
 20
721.606432
 30
0.0
  0
VERTEX
  5
2A1FA
  8
ALPHA
 10
2527.529913
 20
721.493232
 30
0.0
  0
SEQEND
  5
2A1FB
  8
ALPHA
  0
POLYLINE
  5
28523
  8
ALPHA
 66
     1
 10
0.0
 20
0.0
 30
0.0
  0
VERTEX
  5
2A1FC
  8
ALPHA
 10
2527.529913
 20
724.498048
 30
0.0
  0
VERTEX
  5
2A1FD
  8
ALPHA
 10
2528.131854
 20
724.376758
 30
0.0
  0
VERTEX
  5
2A1FE
  8
ALPHA
 10
2528.637098
 20
724.034733
 30
0.0
  0
VERTEX
  5
2A1FF
  8
ALPHA
 10
2528.969223
 20
723.53107
 30
0.0
  0
VERTEX
  5
2A200
  8
ALPHA
 10
2529.084633
 20
722.943232
 30
0.0
  0
VERTEX
  5
2A201
  8
ALPHA
 10
2528.969223
 20
722.355395
 30
0.0
  0
VERTEX
  5
2A202
  8
ALPHA
 10
2528.637098
 20
721.851731
 30
0.0
  0
VERTEX
  5
2A203
  8
ALPHA
 10
2528.131854
 20
721.509706
 30
0.0
  0
VERTEX
  5
2A204
  8
ALPHA
 10
2527.529913
 20
721.388417
 30
0.0
  0
SEQEND
  5
2A205
  8
ALPHA
  0
LINE
  5
2852E
  8
ALPHA
 10
2527.529913
 20
736.493232
 30
0.0
 11
2527.529913
 21
736.388417
 31
0.0
  0
LINE
  5
2852F
  8
ALPHA
 10
2527.529913
 20
743.993232
 30
0.0
 11
2527.529913
 21
743.888417
 31
0.0
  0
LINE
  5
28530
  8
ALPHA
 10
2527.529913
 20
739.393232
 30
0.0
 11
2527.529913
 21
739.498048
 31
0.0
  0
POLYLINE
  5
28531
  8
ALPHA
 66
     1
 10
0.0
 20
0.0
 30
0.0
  0
VERTEX
  5
2A206
  8
ALPHA
 10
2527.529913
 20
739.393232
 30
0.0
  0
VERTEX
  5
2A207
  8
ALPHA
 10
2528.09157
 20
739.280033
 30
0.0
  0
VERTEX
  5
2A208
  8
ALPHA
 10
2528.563368
 20
738.960319
 30
0.0
  0
VERTEX
  5
2A209
  8
ALPHA
 10
2528.872396
 20
738.491164
 30
0.0
  0
VERTEX
  5
2A20A
  8
ALPHA
 10
2528.979913
 20
737.943232
 30
0.0
  0
VERTEX
  5
2A20B
  8
ALPHA
 10
2528.872396
 20
737.3953
 30
0.0
  0
VERTEX
  5
2A20C
  8
ALPHA
 10
2528.563368
 20
736.926146
 30
0.0
  0
VERTEX
  5
2A20D
  8
ALPHA
 10
2528.09157
 20
736.606432
 30
0.0
  0
VERTEX
  5
2A20E
  8
ALPHA
 10
2527.529913
 20
736.493232
 30
0.0
  0
SEQEND
  5
2A20F
  8
ALPHA
  0
POLYLINE
  5
2853C
  8
ALPHA
 66
     1
 10
0.0
 20
0.0
 30
0.0
  0
VERTEX
  5
2A210
  8
ALPHA
 10
2527.529913
 20
739.498048
 30
0.0
  0
VERTEX
  5
2A211
  8
ALPHA
 10
2528.131854
 20
739.376758
 30
0.0
  0
VERTEX
  5
2A212
  8
ALPHA
 10
2528.637098
 20
739.034733
 30
0.0
  0
VERTEX
  5
2A213
  8
ALPHA
 10
2528.969223
 20
738.53107
 30
0.0
  0
VERTEX
  5
2A214
  8
ALPHA
 10
2529.084633
 20
737.943232
 30
0.0
  0
VERTEX
  5
2A215
  8
ALPHA
 10
2528.969223
 20
737.355395
 30
0.0
  0
VERTEX
  5
2A216
  8
ALPHA
 10
2528.637098
 20
736.851731
 30
0.0
  0
VERTEX
  5
2A217
  8
ALPHA
 10
2528.131854
 20
736.509706
 30
0.0
  0
VERTEX
  5
2A218
  8
ALPHA
 10
2527.529913
 20
736.388417
 30
0.0
  0
SEQEND
  5
2A219
  8
ALPHA
  0
LINE
  5
28547
  8
ALPHA
 10
2527.529913
 20
728.993232
 30
0.0
 11
2527.529913
 21
728.888417
 31
0.0
  0
LINE
  5
28548
  8
ALPHA
 10
2527.529913
 20
731.893232
 30
0.0
 11
2527.529913
 21
731.998048
 31
0.0
  0
LINE
  5
28549
  8
ALPHA
 10
2527.529913
 20
724.393232
 30
0.0
 11
2527.529913
 21
724.498048
 31
0.0
  0
POLYLINE
  5
2854A
  8
ALPHA
 66
     1
 10
0.0
 20
0.0
 30
0.0
  0
VERTEX
  5
2A21A
  8
ALPHA
 10
2527.529913
 20
731.893232
 30
0.0
  0
VERTEX
  5
2A21B
  8
ALPHA
 10
2528.09157
 20
731.780033
 30
0.0
  0
VERTEX
  5
2A21C
  8
ALPHA
 10
2528.563368
 20
731.460319
 30
0.0
  0
VERTEX
  5
2A21D
  8
ALPHA
 10
2528.872396
 20
730.991164
 30
0.0
  0
VERTEX
  5
2A21E
  8
ALPHA
 10
2528.979913
 20
730.443232
 30
0.0
  0
VERTEX
  5
2A21F
  8
ALPHA
 10
2528.872396
 20
729.8953
 30
0.0
  0
VERTEX
  5
2A220
  8
ALPHA
 10
2528.563368
 20
729.426146
 30
0.0
  0
VERTEX
  5
2A221
  8
ALPHA
 10
2528.09157
 20
729.106432
 30
0.0
  0
VERTEX
  5
2A222
  8
ALPHA
 10
2527.529913
 20
728.993232
 30
0.0
  0
SEQEND
  5
2A223
  8
ALPHA
  0
POLYLINE
  5
28555
  8
ALPHA
 66
     1
 10
0.0
 20
0.0
 30
0.0
  0
VERTEX
  5
2A224
  8
ALPHA
 10
2527.529913
 20
731.998048
 30
0.0
  0
VERTEX
  5
2A225
  8
ALPHA
 10
2528.131854
 20
731.876758
 30
0.0
  0
VERTEX
  5
2A226
  8
ALPHA
 10
2528.637098
 20
731.534733
 30
0.0
  0
VERTEX
  5
2A227
  8
ALPHA
 10
2528.969223
 20
731.03107
 30
0.0
  0
VERTEX
  5
2A228
  8
ALPHA
 10
2529.084633
 20
730.443232
 30
0.0
  0
VERTEX
  5
2A229
  8
ALPHA
 10
2528.969223
 20
729.855395
 30
0.0
  0
VERTEX
  5
2A22A
  8
ALPHA
 10
2528.637098
 20
729.351731
 30
0.0
  0
VERTEX
  5
2A22B
  8
ALPHA
 10
2528.131854
 20
729.009706
 30
0.0
  0
VERTEX
  5
2A22C
  8
ALPHA
 10
2527.529913
 20
728.888417
 30
0.0
  0
SEQEND
  5
2A22D
  8
ALPHA
  0
LINE
  5
28560
  8
ALPHA
 10
2527.529913
 20
713.993232
 30
0.0
 11
2527.529913
 21
713.888417
 31
0.0
  0
LINE
  5
28561
  8
ALPHA
 10
2527.529913
 20
721.493232
 30
0.0
 11
2527.529913
 21
721.388417
 31
0.0
  0
LINE
  5
28562
  8
ALPHA
 10
2527.529913
 20
716.893232
 30
0.0
 11
2527.529913
 21
716.998048
 31
0.0
  0
POLYLINE
  5
28563
  8
ALPHA
 66
     1
 10
0.0
 20
0.0
 30
0.0
  0
VERTEX
  5
2A22E
  8
ALPHA
 10
2527.529913
 20
716.893232
 30
0.0
  0
VERTEX
  5
2A22F
  8
ALPHA
 10
2528.09157
 20
716.780033
 30
0.0
  0
VERTEX
  5
2A230
  8
ALPHA
 10
2528.563368
 20
716.460319
 30
0.0
  0
VERTEX
  5
2A231
  8
ALPHA
 10
2528.872396
 20
715.991164
 30
0.0
  0
VERTEX
  5
2A232
  8
ALPHA
 10
2528.979913
 20
715.443232
 30
0.0
  0
VERTEX
  5
2A233
  8
ALPHA
 10
2528.872396
 20
714.8953
 30
0.0
  0
VERTEX
  5
2A234
  8
ALPHA
 10
2528.563368
 20
714.426146
 30
0.0
  0
VERTEX
  5
2A235
  8
ALPHA
 10
2528.09157
 20
714.106432
 30
0.0
  0
VERTEX
  5
2A236
  8
ALPHA
 10
2527.529913
 20
713.993232
 30
0.0
  0
SEQEND
  5
2A237
  8
ALPHA
  0
POLYLINE
  5
2856E
  8
ALPHA
 66
     1
 10
0.0
 20
0.0
 30
0.0
  0
VERTEX
  5
2A238
  8
ALPHA
 10
2527.529913
 20
716.998048
 30
0.0
  0
VERTEX
  5
2A239
  8
ALPHA
 10
2528.131854
 20
716.876758
 30
0.0
  0
VERTEX
  5
2A23A
  8
ALPHA
 10
2528.637098
 20
716.534733
 30
0.0
  0
VERTEX
  5
2A23B
  8
ALPHA
 10
2528.969223
 20
716.03107
 30
0.0
  0
VERTEX
  5
2A23C
  8
ALPHA
 10
2529.084633
 20
715.443232
 30
0.0
  0
VERTEX
  5
2A23D
  8
ALPHA
 10
2528.969223
 20
714.855395
 30
0.0
  0
VERTEX
  5
2A23E
  8
ALPHA
 10
2528.637098
 20
714.351731
 30
0.0
  0
VERTEX
  5
2A23F
  8
ALPHA
 10
2528.131854
 20
714.009706
 30
0.0
  0
VERTEX
  5
2A240
  8
ALPHA
 10
2527.529913
 20
713.888417
 30
0.0
  0
SEQEND
  5
2A241
  8
ALPHA
  0
LINE
  5
28579
  8
ALPHA
 10
2527.529913
 20
698.993232
 30
0.0
 11
2527.529913
 21
698.888417
 31
0.0
  0
LINE
  5
2857A
  8
ALPHA
 10
2527.529913
 20
706.493232
 30
0.0
 11
2527.529913
 21
706.388417
 31
0.0
  0
LINE
  5
2857B
  8
ALPHA
 10
2527.529913
 20
709.393232
 30
0.0
 11
2527.529913
 21
709.498048
 31
0.0
  0
LINE
  5
2857C
  8
ALPHA
 10
2527.529913
 20
701.893232
 30
0.0
 11
2527.529913
 21
701.998048
 31
0.0
  0
POLYLINE
  5
2857D
  8
ALPHA
 66
     1
 10
0.0
 20
0.0
 30
0.0
  0
VERTEX
  5
2A242
  8
ALPHA
 10
2527.529913
 20
701.893232
 30
0.0
  0
VERTEX
  5
2A243
  8
ALPHA
 10
2528.09157
 20
701.780033
 30
0.0
  0
VERTEX
  5
2A244
  8
ALPHA
 10
2528.563368
 20
701.460319
 30
0.0
  0
VERTEX
  5
2A245
  8
ALPHA
 10
2528.872396
 20
700.991164
 30
0.0
  0
VERTEX
  5
2A246
  8
ALPHA
 10
2528.979913
 20
700.443232
 30
0.0
  0
VERTEX
  5
2A247
  8
ALPHA
 10
2528.872396
 20
699.8953
 30
0.0
  0
VERTEX
  5
2A248
  8
ALPHA
 10
2528.563368
 20
699.426146
 30
0.0
  0
VERTEX
  5
2A249
  8
ALPHA
 10
2528.09157
 20
699.106432
 30
0.0
  0
VERTEX
  5
2A24A
  8
ALPHA
 10
2527.529913
 20
698.993232
 30
0.0
  0
SEQEND
  5
2A24B
  8
ALPHA
  0
POLYLINE
  5
28588
  8
ALPHA
 66
     1
 10
0.0
 20
0.0
 30
0.0
  0
VERTEX
  5
2A24C
  8
ALPHA
 10
2527.529913
 20
701.998048
 30
0.0
  0
VERTEX
  5
2A24D
  8
ALPHA
 10
2528.131854
 20
701.876758
 30
0.0
  0
VERTEX
  5
2A24E
  8
ALPHA
 10
2528.637098
 20
701.534733
 30
0.0
  0
VERTEX
  5
2A24F
  8
ALPHA
 10
2528.969223
 20
701.03107
 30
0.0
  0
VERTEX
  5
2A250
  8
ALPHA
 10
2529.084633
 20
700.443232
 30
0.0
  0
VERTEX
  5
2A251
  8
ALPHA
 10
2528.969223
 20
699.855395
 30
0.0
  0
VERTEX
  5
2A252
  8
ALPHA
 10
2528.637098
 20
699.351731
 30
0.0
  0
VERTEX
  5
2A253
  8
ALPHA
 10
2528.131854
 20
699.009706
 30
0.0
  0
VERTEX
  5
2A254
  8
ALPHA
 10
2527.529913
 20
698.888417
 30
0.0
  0
SEQEND
  5
2A255
  8
ALPHA
  0
POLYLINE
  5
28593
  8
ALPHA
 66
     1
 10
0.0
 20
0.0
 30
0.0
  0
VERTEX
  5
2A256
  8
ALPHA
 10
2527.529913
 20
709.393232
 30
0.0
  0
VERTEX
  5
2A257
  8
ALPHA
 10
2528.09157
 20
709.280033
 30
0.0
  0
VERTEX
  5
2A258
  8
ALPHA
 10
2528.563368
 20
708.960319
 30
0.0
  0
VERTEX
  5
2A259
  8
ALPHA
 10
2528.872396
 20
708.491164
 30
0.0
  0
VERTEX
  5
2A25A
  8
ALPHA
 10
2528.979913
 20
707.943232
 30
0.0
  0
VERTEX
  5
2A25B
  8
ALPHA
 10
2528.872396
 20
707.3953
 30
0.0
  0
VERTEX
  5
2A25C
  8
ALPHA
 10
2528.563368
 20
706.926146
 30
0.0
  0
VERTEX
  5
2A25D
  8
ALPHA
 10
2528.09157
 20
706.606432
 30
0.0
  0
VERTEX
  5
2A25E
  8
ALPHA
 10
2527.529913
 20
706.493232
 30
0.0
  0
SEQEND
  5
2A25F
  8
ALPHA
  0
POLYLINE
  5
2859E
  8
ALPHA
 66
     1
 10
0.0
 20
0.0
 30
0.0
  0
VERTEX
  5
2A260
  8
ALPHA
 10
2527.529913
 20
709.498048
 30
0.0
  0
VERTEX
  5
2A261
  8
ALPHA
 10
2528.131854
 20
709.376758
 30
0.0
  0
VERTEX
  5
2A262
  8
ALPHA
 10
2528.637098
 20
709.034733
 30
0.0
  0
VERTEX
  5
2A263
  8
ALPHA
 10
2528.969223
 20
708.53107
 30
0.0
  0
VERTEX
  5
2A264
  8
ALPHA
 10
2529.084633
 20
707.943232
 30
0.0
  0
VERTEX
  5
2A265
  8
ALPHA
 10
2528.969223
 20
707.355395
 30
0.0
  0
VERTEX
  5
2A266
  8
ALPHA
 10
2528.637098
 20
706.851731
 30
0.0
  0
VERTEX
  5
2A267
  8
ALPHA
 10
2528.131854
 20
706.509706
 30
0.0
  0
VERTEX
  5
2A268
  8
ALPHA
 10
2527.529913
 20
706.388417
 30
0.0
  0
SEQEND
  5
2A269
  8
ALPHA
  0
LINE
  5
285A9
  8
ALPHA
 10
2527.529913
 20
694.456115
 30
0.0
 11
2527.529913
 21
694.393232
 31
0.0
  0
LINE
  5
285AA
  8
ALPHA
 10
2527.529913
 20
691.430349
 30
0.0
 11
2527.529913
 21
691.493232
 31
0.0
  0
POLYLINE
  5
285AB
  8
ALPHA
 66
     1
 10
0.0
 20
0.0
 30
0.0
  0
VERTEX
  5
2A26A
  8
ALPHA
 10
2527.529913
 20
691.430349
 30
0.0
  0
VERTEX
  5
2A26B
  8
ALPHA
 10
2528.115748
 20
691.548407
 30
0.0
  0
VERTEX
  5
2A26C
  8
ALPHA
 10
2528.60761
 20
691.88151
 30
0.0
  0
VERTEX
  5
2A26D
  8
ALPHA
 10
2528.930486
 20
692.371358
 30
0.0
  0
VERTEX
  5
2A26E
  8
ALPHA
 10
2529.042738
 20
692.943232
 30
0.0
  0
VERTEX
  5
2A26F
  8
ALPHA
 10
2528.930486
 20
693.515106
 30
0.0
  0
VERTEX
  5
2A270
  8
ALPHA
 10
2528.60761
 20
694.004955
 30
0.0
  0
VERTEX
  5
2A271
  8
ALPHA
 10
2528.115748
 20
694.338058
 30
0.0
  0
VERTEX
  5
2A272
  8
ALPHA
 10
2527.529913
 20
694.456115
 30
0.0
  0
SEQEND
  5
2A273
  8
ALPHA
  0
POLYLINE
  5
285B6
  8
ALPHA
 66
     1
 10
0.0
 20
0.0
 30
0.0
  0
VERTEX
  5
2A274
  8
ALPHA
 10
2527.529913
 20
691.493232
 30
0.0
  0
VERTEX
  5
2A275
  8
ALPHA
 10
2528.091579
 20
691.606435
 30
0.0
  0
VERTEX
  5
2A276
  8
ALPHA
 10
2528.563381
 20
691.926159
 30
0.0
  0
VERTEX
  5
2A277
  8
ALPHA
 10
2528.872397
 20
692.395302
 30
0.0
  0
VERTEX
  5
2A278
  8
ALPHA
 10
2528.979913
 20
692.943232
 30
0.0
  0
VERTEX
  5
2A279
  8
ALPHA
 10
2528.872397
 20
693.491162
 30
0.0
  0
VERTEX
  5
2A27A
  8
ALPHA
 10
2528.563381
 20
693.960305
 30
0.0
  0
VERTEX
  5
2A27B
  8
ALPHA
 10
2528.091579
 20
694.280029
 30
0.0
  0
VERTEX
  5
2A27C
  8
ALPHA
 10
2527.529913
 20
694.393232
 30
0.0
  0
SEQEND
  5
2A27D
  8
ALPHA
  0
LINE
  5
285C1
  8
ALPHA
 10
2527.529913
 20
676.493232
 30
0.0
 11
2527.529913
 21
676.388417
 31
0.0
  0
LINE
  5
285C2
  8
ALPHA
 10
2527.529913
 20
683.993232
 30
0.0
 11
2527.529913
 21
683.888417
 31
0.0
  0
LINE
  5
285C3
  8
ALPHA
 10
2527.529913
 20
686.893232
 30
0.0
 11
2527.529913
 21
686.998048
 31
0.0
  0
LINE
  5
285C4
  8
ALPHA
 10
2527.529913
 20
679.393232
 30
0.0
 11
2527.529913
 21
679.498048
 31
0.0
  0
LINE
  5
285C5
  8
ALPHA
 10
2525.579913
 20
679.193232
 30
0.0
 11
2525.579913
 21
676.493232
 31
0.0
  0
LINE
  5
285C6
  8
ALPHA
 10
2523.579913
 20
686.893232
 30
0.0
 11
2523.579913
 21
686.793232
 31
0.0
  0
LINE
  5
285C7
  8
ALPHA
 10
2528.861213
 20
678.508143
 30
0.0
 11
2525.579913
 21
677.313847
 31
0.0
  0
LINE
  5
285C8
  8
ALPHA
 10
2526.129408
 20
679.393232
 30
0.0
 11
2525.579913
 21
679.193232
 31
0.0
  0
POLYLINE
  5
285C9
  8
ALPHA
 66
     1
 10
0.0
 20
0.0
 30
0.0
  0
VERTEX
  5
2A27E
  8
ALPHA
 10
2527.529913
 20
679.393232
 30
0.0
  0
VERTEX
  5
2A27F
  8
ALPHA
 10
2528.09157
 20
679.280033
 30
0.0
  0
VERTEX
  5
2A280
  8
ALPHA
 10
2528.563368
 20
678.960319
 30
0.0
  0
VERTEX
  5
2A281
  8
ALPHA
 10
2528.872396
 20
678.491164
 30
0.0
  0
VERTEX
  5
2A282
  8
ALPHA
 10
2528.979913
 20
677.943232
 30
0.0
  0
VERTEX
  5
2A283
  8
ALPHA
 10
2528.872396
 20
677.3953
 30
0.0
  0
VERTEX
  5
2A284
  8
ALPHA
 10
2528.563368
 20
676.926146
 30
0.0
  0
VERTEX
  5
2A285
  8
ALPHA
 10
2528.09157
 20
676.606432
 30
0.0
  0
VERTEX
  5
2A286
  8
ALPHA
 10
2527.529913
 20
676.493232
 30
0.0
  0
SEQEND
  5
2A287
  8
ALPHA
  0
POLYLINE
  5
285D4
  8
ALPHA
 66
     1
 10
0.0
 20
0.0
 30
0.0
  0
VERTEX
  5
2A288
  8
ALPHA
 10
2527.529913
 20
686.893232
 30
0.0
  0
VERTEX
  5
2A289
  8
ALPHA
 10
2528.09157
 20
686.780033
 30
0.0
  0
VERTEX
  5
2A28A
  8
ALPHA
 10
2528.563368
 20
686.460319
 30
0.0
  0
VERTEX
  5
2A28B
  8
ALPHA
 10
2528.872396
 20
685.991164
 30
0.0
  0
VERTEX
  5
2A28C
  8
ALPHA
 10
2528.979913
 20
685.443232
 30
0.0
  0
VERTEX
  5
2A28D
  8
ALPHA
 10
2528.872396
 20
684.8953
 30
0.0
  0
VERTEX
  5
2A28E
  8
ALPHA
 10
2528.563368
 20
684.426146
 30
0.0
  0
VERTEX
  5
2A28F
  8
ALPHA
 10
2528.09157
 20
684.106432
 30
0.0
  0
VERTEX
  5
2A290
  8
ALPHA
 10
2527.529913
 20
683.993232
 30
0.0
  0
SEQEND
  5
2A291
  8
ALPHA
  0
POLYLINE
  5
285DF
  8
ALPHA
 66
     1
 10
0.0
 20
0.0
 30
0.0
  0
VERTEX
  5
2A292
  8
ALPHA
 10
2527.529913
 20
679.498048
 30
0.0
  0
VERTEX
  5
2A293
  8
ALPHA
 10
2528.131854
 20
679.376758
 30
0.0
  0
VERTEX
  5
2A294
  8
ALPHA
 10
2528.637098
 20
679.034733
 30
0.0
  0
VERTEX
  5
2A295
  8
ALPHA
 10
2528.969223
 20
678.53107
 30
0.0
  0
VERTEX
  5
2A296
  8
ALPHA
 10
2529.084633
 20
677.943232
 30
0.0
  0
VERTEX
  5
2A297
  8
ALPHA
 10
2528.969223
 20
677.355395
 30
0.0
  0
VERTEX
  5
2A298
  8
ALPHA
 10
2528.637098
 20
676.851731
 30
0.0
  0
VERTEX
  5
2A299
  8
ALPHA
 10
2528.131854
 20
676.509706
 30
0.0
  0
VERTEX
  5
2A29A
  8
ALPHA
 10
2527.529913
 20
676.388417
 30
0.0
  0
SEQEND
  5
2A29B
  8
ALPHA
  0
POLYLINE
  5
285EA
  8
ALPHA
 66
     1
 10
0.0
 20
0.0
 30
0.0
  0
VERTEX
  5
2A29C
  8
ALPHA
 10
2527.529913
 20
686.998048
 30
0.0
  0
VERTEX
  5
2A29D
  8
ALPHA
 10
2528.131854
 20
686.876758
 30
0.0
  0
VERTEX
  5
2A29E
  8
ALPHA
 10
2528.637098
 20
686.534733
 30
0.0
  0
VERTEX
  5
2A29F
  8
ALPHA
 10
2528.969223
 20
686.03107
 30
0.0
  0
VERTEX
  5
2A2A0
  8
ALPHA
 10
2529.084633
 20
685.443232
 30
0.0
  0
VERTEX
  5
2A2A1
  8
ALPHA
 10
2528.969223
 20
684.855395
 30
0.0
  0
VERTEX
  5
2A2A2
  8
ALPHA
 10
2528.637098
 20
684.351731
 30
0.0
  0
VERTEX
  5
2A2A3
  8
ALPHA
 10
2528.131854
 20
684.009706
 30
0.0
  0
VERTEX
  5
2A2A4
  8
ALPHA
 10
2527.529913
 20
683.888417
 30
0.0
  0
SEQEND
  5
2A2A5
  8
ALPHA
  0
POLYLINE
  5
285F5
  8
ALPHA
 66
     1
 10
0.0
 20
0.0
 30
0.0
  0
VERTEX
  5
2A2A6
  8
ALPHA
 10
2527.529913
 20
661.493232
 30
0.0
  0
VERTEX
  5
2A2A7
  8
ALPHA
 10
2528.09157
 20
661.606432
 30
0.0
  0
VERTEX
  5
2A2A8
  8
ALPHA
 10
2528.563368
 20
661.926146
 30
0.0
  0
VERTEX
  5
2A2A9
  8
ALPHA
 10
2528.872396
 20
662.3953
 30
0.0
  0
VERTEX
  5
2A2AA
  8
ALPHA
 10
2528.979913
 20
662.943232
 30
0.0
  0
VERTEX
  5
2A2AB
  8
ALPHA
 10
2528.872396
 20
663.491164
 30
0.0
  0
VERTEX
  5
2A2AC
  8
ALPHA
 10
2528.563368
 20
663.960319
 30
0.0
  0
VERTEX
  5
2A2AD
  8
ALPHA
 10
2528.09157
 20
664.280033
 30
0.0
  0
VERTEX
  5
2A2AE
  8
ALPHA
 10
2527.529913
 20
664.393232
 30
0.0
  0
SEQEND
  5
2A2AF
  8
ALPHA
  0
POLYLINE
  5
28600
  8
ALPHA
 66
     1
 10
0.0
 20
0.0
 30
0.0
  0
VERTEX
  5
2A2B0
  8
ALPHA
 10
2527.529913
 20
661.556115
 30
0.0
  0
VERTEX
  5
2A2B1
  8
ALPHA
 10
2528.067223
 20
661.664386
 30
0.0
  0
VERTEX
  5
2A2B2
  8
ALPHA
 10
2528.518563
 20
661.97021
 30
0.0
  0
VERTEX
  5
2A2B3
  8
ALPHA
 10
2528.814225
 20
662.419041
 30
0.0
  0
VERTEX
  5
2A2B4
  8
ALPHA
 10
2528.917087
 20
662.943232
 30
0.0
  0
VERTEX
  5
2A2B5
  8
ALPHA
 10
2528.814225
 20
663.467423
 30
0.0
  0
VERTEX
  5
2A2B6
  8
ALPHA
 10
2528.518563
 20
663.916254
 30
0.0
  0
VERTEX
  5
2A2B7
  8
ALPHA
 10
2528.067223
 20
664.222079
 30
0.0
  0
VERTEX
  5
2A2B8
  8
ALPHA
 10
2527.529913
 20
664.330349
 30
0.0
  0
SEQEND
  5
2A2B9
  8
ALPHA
  0
LINE
  5
2860B
  8
ALPHA
 10
2527.529913
 20
664.393232
 30
0.0
 11
2527.529913
 21
664.330349
 31
0.0
  0
LINE
  5
2860C
  8
ALPHA
 10
2527.529913
 20
668.993232
 30
0.0
 11
2527.529913
 21
668.888417
 31
0.0
  0
LINE
  5
2860D
  8
ALPHA
 10
2527.529913
 20
671.893232
 30
0.0
 11
2527.529913
 21
671.998048
 31
0.0
  0
LINE
  5
2860E
  8
ALPHA
 10
2525.579913
 20
671.893232
 30
0.0
 11
2525.579913
 21
668.993232
 31
0.0
  0
LINE
  5
2860F
  8
ALPHA
 10
2525.079913
 20
671.893232
 30
0.0
 11
2525.079913
 21
668.993232
 31
0.0
  0
LINE
  5
28610
  8
ALPHA
 10
2522.479913
 20
668.993232
 30
0.0
 11
2522.479913
 21
670.893232
 31
0.0
  0
POLYLINE
  5
28611
  8
ALPHA
 66
     1
 10
0.0
 20
0.0
 30
0.0
  0
VERTEX
  5
2A2BA
  8
ALPHA
 10
2527.529913
 20
671.893232
 30
0.0
  0
VERTEX
  5
2A2BB
  8
ALPHA
 10
2528.09157
 20
671.780033
 30
0.0
  0
VERTEX
  5
2A2BC
  8
ALPHA
 10
2528.563368
 20
671.460319
 30
0.0
  0
VERTEX
  5
2A2BD
  8
ALPHA
 10
2528.872396
 20
670.991164
 30
0.0
  0
VERTEX
  5
2A2BE
  8
ALPHA
 10
2528.979913
 20
670.443232
 30
0.0
  0
VERTEX
  5
2A2BF
  8
ALPHA
 10
2528.872396
 20
669.8953
 30
0.0
  0
VERTEX
  5
2A2C0
  8
ALPHA
 10
2528.563368
 20
669.426146
 30
0.0
  0
VERTEX
  5
2A2C1
  8
ALPHA
 10
2528.09157
 20
669.106432
 30
0.0
  0
VERTEX
  5
2A2C2
  8
ALPHA
 10
2527.529913
 20
668.993232
 30
0.0
  0
SEQEND
  5
2A2C3
  8
ALPHA
  0
POLYLINE
  5
2861C
  8
ALPHA
 66
     1
 10
0.0
 20
0.0
 30
0.0
  0
VERTEX
  5
2A2C4
  8
ALPHA
 10
2527.529913
 20
671.998048
 30
0.0
  0
VERTEX
  5
2A2C5
  8
ALPHA
 10
2528.131854
 20
671.876758
 30
0.0
  0
VERTEX
  5
2A2C6
  8
ALPHA
 10
2528.637098
 20
671.534733
 30
0.0
  0
VERTEX
  5
2A2C7
  8
ALPHA
 10
2528.969223
 20
671.03107
 30
0.0
  0
VERTEX
  5
2A2C8
  8
ALPHA
 10
2529.084633
 20
670.443232
 30
0.0
  0
VERTEX
  5
2A2C9
  8
ALPHA
 10
2528.969223
 20
669.855395
 30
0.0
  0
VERTEX
  5
2A2CA
  8
ALPHA
 10
2528.637098
 20
669.351731
 30
0.0
  0
VERTEX
  5
2A2CB
  8
ALPHA
 10
2528.131854
 20
669.009706
 30
0.0
  0
VERTEX
  5
2A2CC
  8
ALPHA
 10
2527.529913
 20
668.888417
 30
0.0
  0
SEQEND
  5
2A2CD
  8
ALPHA
  0
LINE
  5
28627
  8
ALPHA
 10
2527.529913
 20
656.893232
 30
0.0
 11
2527.529913
 21
656.830349
 31
0.0
  0
LINE
  5
28628
  8
ALPHA
 10
2527.529913
 20
661.493232
 30
0.0
 11
2527.529913
 21
661.556115
 31
0.0
  0
LINE
  5
28629
  8
ALPHA
 10
2527.529913
 20
653.993232
 30
0.0
 11
2527.529913
 21
654.056115
 31
0.0
  0
POLYLINE
  5
2862A
  8
ALPHA
 66
     1
 10
0.0
 20
0.0
 30
0.0
  0
VERTEX
  5
2A2CE
  8
ALPHA
 10
2527.529913
 20
653.993232
 30
0.0
  0
VERTEX
  5
2A2CF
  8
ALPHA
 10
2528.09157
 20
654.106432
 30
0.0
  0
VERTEX
  5
2A2D0
  8
ALPHA
 10
2528.563368
 20
654.426146
 30
0.0
  0
VERTEX
  5
2A2D1
  8
ALPHA
 10
2528.872396
 20
654.8953
 30
0.0
  0
VERTEX
  5
2A2D2
  8
ALPHA
 10
2528.979913
 20
655.443232
 30
0.0
  0
VERTEX
  5
2A2D3
  8
ALPHA
 10
2528.872396
 20
655.991164
 30
0.0
  0
VERTEX
  5
2A2D4
  8
ALPHA
 10
2528.563368
 20
656.460319
 30
0.0
  0
VERTEX
  5
2A2D5
  8
ALPHA
 10
2528.09157
 20
656.780033
 30
0.0
  0
VERTEX
  5
2A2D6
  8
ALPHA
 10
2527.529913
 20
656.893232
 30
0.0
  0
SEQEND
  5
2A2D7
  8
ALPHA
  0
POLYLINE
  5
28635
  8
ALPHA
 66
     1
 10
0.0
 20
0.0
 30
0.0
  0
VERTEX
  5
2A2D8
  8
ALPHA
 10
2527.529913
 20
654.056115
 30
0.0
  0
VERTEX
  5
2A2D9
  8
ALPHA
 10
2528.067223
 20
654.164386
 30
0.0
  0
VERTEX
  5
2A2DA
  8
ALPHA
 10
2528.518563
 20
654.47021
 30
0.0
  0
VERTEX
  5
2A2DB
  8
ALPHA
 10
2528.814225
 20
654.919041
 30
0.0
  0
VERTEX
  5
2A2DC
  8
ALPHA
 10
2528.917087
 20
655.443232
 30
0.0
  0
VERTEX
  5
2A2DD
  8
ALPHA
 10
2528.814225
 20
655.967423
 30
0.0
  0
VERTEX
  5
2A2DE
  8
ALPHA
 10
2528.518563
 20
656.416254
 30
0.0
  0
VERTEX
  5
2A2DF
  8
ALPHA
 10
2528.067223
 20
656.722079
 30
0.0
  0
VERTEX
  5
2A2E0
  8
ALPHA
 10
2527.529913
 20
656.830349
 30
0.0
  0
SEQEND
  5
2A2E1
  8
ALPHA
  0
LINE
  5
28698
  8
ALPHA
 10
2314.493251
 20
523.543232
 30
0.0
 11
2503.679913
 21
523.543232
 31
0.0
  0
LINE
  5
28699
  8
ALPHA
 10
2377.179913
 20
525.043232
 30
0.0
 11
2503.679913
 21
525.043232
 31
0.0
  0
LINE
  5
2869A
  8
ALPHA
 10
2379.179913
 20
528.043232
 30
0.0
 11
2501.479913
 21
528.043232
 31
0.0
  0
LINE
  5
2869B
  8
ALPHA
 10
2416.179913
 20
511.543232
 30
0.0
 11
2416.179913
 21
462.343232
 31
0.0
  0
LINE
  5
2869C
  8
ALPHA
 10
2411.179913
 20
511.543232
 30
0.0
 11
2411.179913
 21
462.343232
 31
0.0
  0
LINE
  5
2869D
  8
ALPHA
 10
2286.714378
 20
462.860763
 30
0.0
 11
2315.179913
 21
525.043232
 31
0.0
  0
LINE
  5
2869E
  8
ALPHA
 10
2327.102666
 20
519.443232
 30
0.0
 11
2321.257159
 21
519.443232
 31
0.0
  0
LINE
  5
2869F
  8
ALPHA
 10
2327.405123
 20
519.736426
 30
0.0
 11
2320.954702
 21
519.736426
 31
0.0
  0
LINE
  5
286A0
  8
ALPHA
 10
2327.479855
 20
521.943232
 30
0.0
 11
2320.87997
 21
521.943232
 31
0.0
  0
LINE
  5
286A1
  8
ALPHA
 10
2327.679913
 20
522.743232
 30
0.0
 11
2320.679913
 21
522.743232
 31
0.0
  0
LINE
  5
286A2
  8
ALPHA
 10
2333.179913
 20
525.043232
 30
0.0
 11
2315.179913
 21
525.043232
 31
0.0
  0
LINE
  5
286A3
  8
ALPHA
 10
2317.179913
 20
528.043232
 30
0.0
 11
2331.179913
 21
528.043232
 31
0.0
  0
CIRCLE
  5
286A4
  8
ALPHA
 10
2291.179913
 20
509.693232
 30
0.0
 40
8.0
  0
LINE
  5
286A5
  8
ALPHA
 10
2315.179913
 20
528.043232
 30
0.0
 11
2317.179913
 21
528.043232
 31
0.0
  0
LINE
  5
286A6
  8
ALPHA
 10
2317.179913
 20
528.043232
 30
0.0
 11
2317.179913
 21
525.043232
 31
0.0
  0
LINE
  5
286A7
  8
ALPHA
 10
2315.179913
 20
525.043232
 30
0.0
 11
2315.179913
 21
528.043232
 31
0.0
  0
POLYLINE
  5
286A8
  8
ALPHA
 66
     1
 10
0.0
 20
0.0
 30
0.0
  0
VERTEX
  5
2A2E2
  8
ALPHA
 10
2321.257159
 20
519.443232
 30
0.0
  0
VERTEX
  5
2A2E3
  8
ALPHA
 10
2321.190412
 20
519.450615
 30
0.0
  0
VERTEX
  5
2A2E4
  8
ALPHA
 10
2321.127176
 20
519.472304
 30
0.0
  0
VERTEX
  5
2A2E5
  8
ALPHA
 10
2321.070221
 20
519.507312
 30
0.0
  0
VERTEX
  5
2A2E6
  8
ALPHA
 10
2321.022691
 20
519.553597
 30
0.0
  0
VERTEX
  5
2A2E7
  8
ALPHA
 10
2320.986474
 20
519.609202
 30
0.0
  0
VERTEX
  5
2A2E8
  8
ALPHA
 10
2320.963506
 20
519.671045
 30
0.0
  0
VERTEX
  5
2A2E9
  8
ALPHA
 10
2320.954702
 20
519.736426
 30
0.0
  0
SEQEND
  5
2A2EA
  8
ALPHA
  0
LINE
  5
286B2
  8
ALPHA
 10
2320.943113
 20
520.243232
 30
0.0
 11
2320.918495
 21
520.243232
 31
0.0
  0
LINE
  5
286B3
  8
ALPHA
 10
2323.929913
 20
522.743232
 30
0.0
 11
2323.929913
 21
521.943232
 31
0.0
  0
LINE
  5
286B4
  8
ALPHA
 10
2321.079913
 20
522.743232
 30
0.0
 11
2321.079913
 21
521.943232
 31
0.0
  0
LINE
  5
286B5
  8
ALPHA
 10
2320.679913
 20
523.543232
 30
0.0
 11
2320.679913
 21
522.743232
 31
0.0
  0
LINE
  5
286B6
  8
ALPHA
 10
2320.879913
 20
521.943232
 30
0.0
 11
2320.918491
 21
520.243232
 31
0.0
  0
LINE
  5
286B7
  8
ALPHA
 10
2320.943113
 20
520.243232
 30
0.0
 11
2320.954702
 21
519.736426
 31
0.0
  0
LINE
  5
286B8
  8
ALPHA
 10
2290.757655
 20
471.693232
 30
0.0
 11
2294.868038
 21
471.693232
 31
0.0
  0
LINE
  5
286B9
  8
ALPHA
 10
2295.679913
 20
472.505107
 30
0.0
 11
2291.129311
 21
472.505107
 31
0.0
  0
LINE
  5
286BA
  8
ALPHA
 10
2288.817789
 20
467.455628
 30
0.0
 11
2289.638469
 21
467.455628
 31
0.0
  0
LINE
  5
286BB
  8
ALPHA
 10
2289.638469
 20
467.455628
 30
0.0
 11
2290.179913
 21
468.943232
 31
0.0
  0
LINE
  5
286BC
  8
ALPHA
 10
2290.179913
 20
470.431163
 30
0.0
 11
2290.179913
 21
468.943232
 31
0.0
  0
POLYLINE
  5
286BD
  8
ALPHA
 66
     1
 10
0.0
 20
0.0
 30
0.0
  0
VERTEX
  5
2A2EB
  8
ALPHA
 10
2290.067756
 20
470.186159
 30
0.0
  0
VERTEX
  5
2A2EC
  8
ALPHA
 10
2290.083021
 20
470.019786
 30
0.0
  0
VERTEX
  5
2A2ED
  8
ALPHA
 10
2290.083005
 20
469.50993
 30
0.0
  0
VERTEX
  5
2A2EE
  8
ALPHA
 10
2290.036285
 20
469.001033
 30
0.0
  0
VERTEX
  5
2A2EF
  8
ALPHA
 10
2289.945247
 20
468.493059
 30
0.0
  0
VERTEX
  5
2A2F0
  8
ALPHA
 10
2289.812534
 20
467.98132
 30
0.0
  0
VERTEX
  5
2A2F1
  8
ALPHA
 10
2289.638469
 20
467.455628
 30
0.0
  0
SEQEND
  5
2A2F2
  8
ALPHA
  0
LINE
  5
286C6
  8
ALPHA
 10
2295.679913
 20
472.505107
 30
0.0
 11
2295.679913
 21
480.881357
 31
0.0
  0
LINE
  5
286C7
  8
ALPHA
 10
2294.868038
 20
480.672291
 30
0.0
 11
2294.868038
 21
471.693232
 31
0.0
  0
LINE
  5
286C8
  8
ALPHA
 10
2295.188636
 20
481.372634
 30
0.0
 11
2295.679913
 21
480.881357
 31
0.0
  0
LINE
  5
286C9
  8
ALPHA
 10
2294.868038
 20
471.693232
 30
0.0
 11
2295.679913
 21
472.505107
 31
0.0
  0
LINE
  5
286CA
  8
ALPHA
 10
2333.179913
 20
525.043232
 30
0.0
 11
2377.179913
 21
525.043232
 31
0.0
  0
LINE
  5
286CB
  8
ALPHA
 10
2331.179913
 20
528.043232
 30
0.0
 11
2333.179913
 21
528.043232
 31
0.0
  0
LINE
  5
286CC
  8
ALPHA
 10
2333.179913
 20
528.043232
 30
0.0
 11
2333.179913
 21
525.043232
 31
0.0
  0
LINE
  5
286CD
  8
ALPHA
 10
2331.179913
 20
528.043232
 30
0.0
 11
2331.179913
 21
525.043232
 31
0.0
  0
LINE
  5
286CE
  8
ALPHA
 10
2327.441331
 20
520.243232
 30
0.0
 11
2327.416712
 21
520.243232
 31
0.0
  0
POLYLINE
  5
286CF
  8
ALPHA
 66
     1
 10
0.0
 20
0.0
 30
0.0
  0
VERTEX
  5
2A2F3
  8
ALPHA
 10
2327.102666
 20
519.443232
 30
0.0
  0
VERTEX
  5
2A2F4
  8
ALPHA
 10
2327.169413
 20
519.450615
 30
0.0
  0
VERTEX
  5
2A2F5
  8
ALPHA
 10
2327.232649
 20
519.472304
 30
0.0
  0
VERTEX
  5
2A2F6
  8
ALPHA
 10
2327.289605
 20
519.507312
 30
0.0
  0
VERTEX
  5
2A2F7
  8
ALPHA
 10
2327.337134
 20
519.553597
 30
0.0
  0
VERTEX
  5
2A2F8
  8
ALPHA
 10
2327.373352
 20
519.609202
 30
0.0
  0
VERTEX
  5
2A2F9
  8
ALPHA
 10
2327.396319
 20
519.671045
 30
0.0
  0
VERTEX
  5
2A2FA
  8
ALPHA
 10
2327.405123
 20
519.736426
 30
0.0
  0
SEQEND
  5
2A2FB
  8
ALPHA
  0
LINE
  5
286D9
  8
ALPHA
 10
2327.416712
 20
520.243232
 30
0.0
 11
2327.405123
 21
519.736426
 31
0.0
  0
LINE
  5
286DA
  8
ALPHA
 10
2327.479913
 20
521.943232
 30
0.0
 11
2327.441334
 21
520.243232
 31
0.0
  0
LINE
  5
286DB
  8
ALPHA
 10
2327.679913
 20
523.543232
 30
0.0
 11
2327.679913
 21
522.743232
 31
0.0
  0
LINE
  5
286DC
  8
ALPHA
 10
2327.279913
 20
522.743232
 30
0.0
 11
2327.279913
 21
521.943232
 31
0.0
  0
LINE
  5
286DD
  8
ALPHA
 10
2324.429913
 20
522.743232
 30
0.0
 11
2324.429913
 21
521.943232
 31
0.0
  0
ARC
  5
286DE
  8
ALPHA
 10
2371.916966
 20
526.543232
 30
0.0
 40
3.0
 50
270.0
 51
329.616482
  0
LINE
  5
286DF
  8
ALPHA
 10
2371.916966
 20
525.043232
 30
0.0
 11
2371.916966
 21
523.543232
 31
0.0
  0
LINE
  5
286E0
  8
ALPHA
 10
2380.679913
 20
525.043232
 30
0.0
 11
2380.679913
 21
523.543232
 31
0.0
  0
LINE
  5
286E1
  8
ALPHA
 10
2377.679913
 20
525.043232
 30
0.0
 11
2377.679913
 21
523.543232
 31
0.0
  0
ARC
  5
286E2
  8
ALPHA
 10
2377.979913
 20
528.044194
 30
0.0
 40
1.5
 50
237.062265
 51
270.0
  0
ARC
  5
286E3
  8
ALPHA
 10
2377.979913
 20
528.044194
 30
0.0
 40
3.0
 50
254.804436
 51
264.214774
  0
LINE
  5
286E4
  8
ALPHA
 10
2379.179913
 20
526.544194
 30
0.0
 11
2377.979913
 21
526.544194
 31
0.0
  0
LINE
  5
286E5
  8
ALPHA
 10
2377.179913
 20
528.043232
 30
0.0
 11
2379.179913
 21
528.043232
 31
0.0
  0
LINE
  5
286E6
  8
ALPHA
 10
2379.179913
 20
528.043232
 30
0.0
 11
2379.179913
 21
525.043232
 31
0.0
  0
LINE
  5
286E7
  8
ALPHA
 10
2379.029913
 20
526.544194
 30
0.0
 11
2379.029913
 21
528.044194
 31
0.0
  0
LINE
  5
286E8
  8
ALPHA
 10
2377.979913
 20
525.044194
 30
0.0
 11
2377.979913
 21
526.544194
 31
0.0
  0
LINE
  5
286E9
  8
ALPHA
 10
2377.179913
 20
525.043232
 30
0.0
 11
2377.179913
 21
528.043232
 31
0.0
  0
POLYLINE
  5
286EA
  8
ALPHA
 66
     1
 10
0.0
 20
0.0
 30
0.0
  0
VERTEX
  5
2A2FC
  8
ALPHA
 10
2380.057159
 20
519.443232
 30
0.0
  0
VERTEX
  5
2A2FD
  8
ALPHA
 10
2379.990412
 20
519.450615
 30
0.0
  0
VERTEX
  5
2A2FE
  8
ALPHA
 10
2379.927176
 20
519.472304
 30
0.0
  0
VERTEX
  5
2A2FF
  8
ALPHA
 10
2379.870221
 20
519.507312
 30
0.0
  0
VERTEX
  5
2A300
  8
ALPHA
 10
2379.822691
 20
519.553597
 30
0.0
  0
VERTEX
  5
2A301
  8
ALPHA
 10
2379.786474
 20
519.609202
 30
0.0
  0
VERTEX
  5
2A302
  8
ALPHA
 10
2379.763506
 20
519.671045
 30
0.0
  0
VERTEX
  5
2A303
  8
ALPHA
 10
2379.754702
 20
519.736426
 30
0.0
  0
SEQEND
  5
2A304
  8
ALPHA
  0
LINE
  5
286F4
  8
ALPHA
 10
2385.902666
 20
519.443232
 30
0.0
 11
2380.057159
 21
519.443232
 31
0.0
  0
LINE
  5
286F5
  8
ALPHA
 10
2386.205123
 20
519.736426
 30
0.0
 11
2379.754702
 21
519.736426
 31
0.0
  0
LINE
  5
286F6
  8
ALPHA
 10
2379.743113
 20
520.243232
 30
0.0
 11
2379.718495
 21
520.243232
 31
0.0
  0
LINE
  5
286F7
  8
ALPHA
 10
2386.241331
 20
520.243232
 30
0.0
 11
2386.216712
 21
520.243232
 31
0.0
  0
POLYLINE
  5
286F8
  8
ALPHA
 66
     1
 10
0.0
 20
0.0
 30
0.0
  0
VERTEX
  5
2A305
  8
ALPHA
 10
2385.902666
 20
519.443232
 30
0.0
  0
VERTEX
  5
2A306
  8
ALPHA
 10
2385.969413
 20
519.450615
 30
0.0
  0
VERTEX
  5
2A307
  8
ALPHA
 10
2386.032649
 20
519.472304
 30
0.0
  0
VERTEX
  5
2A308
  8
ALPHA
 10
2386.089605
 20
519.507312
 30
0.0
  0
VERTEX
  5
2A309
  8
ALPHA
 10
2386.137134
 20
519.553597
 30
0.0
  0
VERTEX
  5
2A30A
  8
ALPHA
 10
2386.173352
 20
519.609202
 30
0.0
  0
VERTEX
  5
2A30B
  8
ALPHA
 10
2386.196319
 20
519.671045
 30
0.0
  0
VERTEX
  5
2A30C
  8
ALPHA
 10
2386.205123
 20
519.736426
 30
0.0
  0
SEQEND
  5
2A30D
  8
ALPHA
  0
LINE
  5
28702
  8
ALPHA
 10
2386.279855
 20
521.943232
 30
0.0
 11
2379.67997
 21
521.943232
 31
0.0
  0
LINE
  5
28703
  8
ALPHA
 10
2386.479913
 20
522.743232
 30
0.0
 11
2379.479913
 21
522.743232
 31
0.0
  0
LINE
  5
28704
  8
ALPHA
 10
2386.216712
 20
520.243232
 30
0.0
 11
2386.205123
 21
519.736426
 31
0.0
  0
LINE
  5
28705
  8
ALPHA
 10
2386.279913
 20
521.943232
 30
0.0
 11
2386.241334
 21
520.243232
 31
0.0
  0
LINE
  5
28706
  8
ALPHA
 10
2386.479913
 20
523.543232
 30
0.0
 11
2386.479913
 21
522.743232
 31
0.0
  0
LINE
  5
28707
  8
ALPHA
 10
2386.079913
 20
522.743232
 30
0.0
 11
2386.079913
 21
521.943232
 31
0.0
  0
LINE
  5
28708
  8
ALPHA
 10
2383.229913
 20
522.743232
 30
0.0
 11
2383.229913
 21
521.943232
 31
0.0
  0
LINE
  5
28709
  8
ALPHA
 10
2382.729913
 20
522.743232
 30
0.0
 11
2382.729913
 21
521.943232
 31
0.0
  0
LINE
  5
2870A
  8
ALPHA
 10
2379.879913
 20
522.743232
 30
0.0
 11
2379.879913
 21
521.943232
 31
0.0
  0
LINE
  5
2870B
  8
ALPHA
 10
2379.479913
 20
523.543232
 30
0.0
 11
2379.479913
 21
522.743232
 31
0.0
  0
LINE
  5
2870C
  8
ALPHA
 10
2379.679913
 20
521.943232
 30
0.0
 11
2379.718491
 21
520.243232
 31
0.0
  0
LINE
  5
2870D
  8
ALPHA
 10
2379.743113
 20
520.243232
 30
0.0
 11
2379.754702
 21
519.736426
 31
0.0
  0
LINE
  5
2870E
  8
ALPHA
 10
2417.679913
 20
511.543232
 30
0.0
 11
2417.679913
 21
523.543232
 31
0.0
  0
LINE
  5
2870F
  8
ALPHA
 10
2409.679913
 20
511.543232
 30
0.0
 11
2409.679913
 21
523.543232
 31
0.0
  0
LINE
  5
28710
  8
ALPHA
 10
2401.511286
 20
521.515029
 30
0.0
 11
2409.44854
 21
521.515029
 31
0.0
  0
POLYLINE
  5
28711
  8
ALPHA
 66
     1
 10
0.0
 20
0.0
 30
0.0
  0
VERTEX
  5
2A30E
  8
ALPHA
 10
2406.375203
 20
520.509226
 30
0.0
  0
VERTEX
  5
2A30F
  8
ALPHA
 10
2406.575268
 20
520.534364
 30
0.0
  0
VERTEX
  5
2A310
  8
ALPHA
 10
2406.794282
 20
520.5678
 30
0.0
  0
VERTEX
  5
2A311
  8
ALPHA
 10
2407.034288
 20
520.611635
 30
0.0
  0
VERTEX
  5
2A312
  8
ALPHA
 10
2407.297568
 20
520.668521
 30
0.0
  0
VERTEX
  5
2A313
  8
ALPHA
 10
2407.586391
 20
520.741755
 30
0.0
  0
VERTEX
  5
2A314
  8
ALPHA
 10
2407.902569
 20
520.835293
 30
0.0
  0
VERTEX
  5
2A315
  8
ALPHA
 10
2408.24692
 20
520.953661
 30
0.0
  0
VERTEX
  5
2A316
  8
ALPHA
 10
2408.619642
 20
521.102108
 30
0.0
  0
VERTEX
  5
2A317
  8
ALPHA
 10
2409.020105
 20
521.286648
 30
0.0
  0
SEQEND
  5
2A318
  8
ALPHA
  0
LINE
  5
2871D
  8
ALPHA
 10
2405.694798
 20
520.52048
 30
0.0
 11
2409.679913
 21
513.197139
 31
0.0
  0
LINE
  5
2871E
  8
ALPHA
 10
2404.380998
 20
520.534858
 30
0.0
 11
2404.584764
 21
520.50921
 31
0.0
  0
POLYLINE
  5
2871F
  8
ALPHA
 66
     1
 10
0.0
 20
0.0
 30
0.0
  0
VERTEX
  5
2A319
  8
ALPHA
 10
2406.350699
 20
520.509576
 30
0.0
  0
VERTEX
  5
2A31A
  8
ALPHA
 10
2406.334593
 20
520.511527
 30
0.0
  0
VERTEX
  5
2A31B
  8
ALPHA
 10
2406.327988
 20
520.515132
 30
0.0
  0
VERTEX
  5
2A31C
  8
ALPHA
 10
2406.32788
 20
520.515782
 30
0.0
  0
SEQEND
  5
2A31D
  8
ALPHA
  0
POLYLINE
  5
28725
  8
ALPHA
 66
     1
 10
0.0
 20
0.0
 30
0.0
  0
VERTEX
  5
2A31E
  8
ALPHA
 10
2406.32788
 20
520.55827
 30
0.0
  0
VERTEX
  5
2A31F
  8
ALPHA
 10
2406.286513
 20
520.563242
 30
0.0
  0
VERTEX
  5
2A320
  8
ALPHA
 10
2406.220489
 20
520.566272
 30
0.0
  0
VERTEX
  5
2A321
  8
ALPHA
 10
2406.214564
 20
520.566274
 30
0.0
  0
SEQEND
  5
2A322
  8
ALPHA
  0
POLYLINE
  5
2872B
  8
ALPHA
 66
     1
 10
0.0
 20
0.0
 30
0.0
  0
VERTEX
  5
2A323
  8
ALPHA
 10
2406.302272
 20
520.565712
 30
0.0
  0
VERTEX
  5
2A324
  8
ALPHA
 10
2406.358809
 20
520.561981
 30
0.0
  0
VERTEX
  5
2A325
  8
ALPHA
 10
2406.396753
 20
520.555632
 30
0.0
  0
VERTEX
  5
2A326
  8
ALPHA
 10
2406.413734
 20
520.546694
 30
0.0
  0
VERTEX
  5
2A327
  8
ALPHA
 10
2406.414273
 20
520.544558
 30
0.0
  0
SEQEND
  5
2A328
  8
ALPHA
  0
POLYLINE
  5
28732
  8
ALPHA
 66
     1
 10
0.0
 20
0.0
 30
0.0
  0
VERTEX
  5
2A329
  8
ALPHA
 10
2404.584764
 20
520.50921
 30
0.0
  0
VERTEX
  5
2A32A
  8
ALPHA
 10
2404.61694
 20
520.509767
 30
0.0
  0
VERTEX
  5
2A32B
  8
ALPHA
 10
2404.64071
 20
520.512391
 30
0.0
  0
VERTEX
  5
2A32C
  8
ALPHA
 10
2404.654215
 20
520.517417
 30
0.0
  0
VERTEX
  5
2A32D
  8
ALPHA
 10
2404.656313
 20
520.521267
 30
0.0
  0
SEQEND
  5
2A32E
  8
ALPHA
  0
POLYLINE
  5
28739
  8
ALPHA
 66
     1
 10
0.0
 20
0.0
 30
0.0
  0
VERTEX
  5
2A32F
  8
ALPHA
 10
2405.793444
 20
520.531387
 30
0.0
  0
VERTEX
  5
2A330
  8
ALPHA
 10
2405.717275
 20
520.521124
 30
0.0
  0
VERTEX
  5
2A331
  8
ALPHA
 10
2405.637359
 20
520.514221
 30
0.0
  0
VERTEX
  5
2A332
  8
ALPHA
 10
2405.552997
 20
520.510232
 30
0.0
  0
VERTEX
  5
2A333
  8
ALPHA
 10
2405.465531
 20
520.509209
 30
0.0
  0
VERTEX
  5
2A334
  8
ALPHA
 10
2405.378735
 20
520.511219
 30
0.0
  0
VERTEX
  5
2A335
  8
ALPHA
 10
2405.29577
 20
520.516157
 30
0.0
  0
VERTEX
  5
2A336
  8
ALPHA
 10
2405.217059
 20
520.524095
 30
0.0
  0
VERTEX
  5
2A337
  8
ALPHA
 10
2405.14192
 20
520.535717
 30
0.0
  0
SEQEND
  5
2A338
  8
ALPHA
  0
POLYLINE
  5
28744
  8
ALPHA
 66
     1
 10
0.0
 20
0.0
 30
0.0
  0
VERTEX
  5
2A339
  8
ALPHA
 10
2405.793444
 20
520.531387
 30
0.0
  0
VERTEX
  5
2A33A
  8
ALPHA
 10
2405.871659
 20
520.542599
 30
0.0
  0
VERTEX
  5
2A33B
  8
ALPHA
 10
2405.962002
 20
520.552426
 30
0.0
  0
VERTEX
  5
2A33C
  8
ALPHA
 10
2406.055946
 20
520.559924
 30
0.0
  0
VERTEX
  5
2A33D
  8
ALPHA
 10
2406.14594
 20
520.564664
 30
0.0
  0
VERTEX
  5
2A33E
  8
ALPHA
 10
2406.230089
 20
520.566639
 30
0.0
  0
VERTEX
  5
2A33F
  8
ALPHA
 10
2406.302272
 20
520.565712
 30
0.0
  0
SEQEND
  5
2A340
  8
ALPHA
  0
POLYLINE
  5
2874D
  8
ALPHA
 66
     1
 10
0.0
 20
0.0
 30
0.0
  0
VERTEX
  5
2A341
  8
ALPHA
 10
2404.640571
 20
520.554587
 30
0.0
  0
VERTEX
  5
2A342
  8
ALPHA
 10
2404.670688
 20
520.561155
 30
0.0
  0
VERTEX
  5
2A343
  8
ALPHA
 10
2404.717174
 20
520.565226
 30
0.0
  0
VERTEX
  5
2A344
  8
ALPHA
 10
2404.779703
 20
520.566685
 30
0.0
  0
VERTEX
  5
2A345
  8
ALPHA
 10
2404.852689
 20
520.565241
 30
0.0
  0
VERTEX
  5
2A346
  8
ALPHA
 10
2404.928503
 20
520.561172
 30
0.0
  0
VERTEX
  5
2A347
  8
ALPHA
 10
2405.006243
 20
520.554557
 30
0.0
  0
VERTEX
  5
2A348
  8
ALPHA
 10
2405.079862
 20
520.545771
 30
0.0
  0
VERTEX
  5
2A349
  8
ALPHA
 10
2405.14192
 20
520.535717
 30
0.0
  0
SEQEND
  5
2A34A
  8
ALPHA
  0
POLYLINE
  5
28758
  8
ALPHA
 66
     1
 10
0.0
 20
0.0
 30
0.0
  0
VERTEX
  5
2A34B
  8
ALPHA
 10
2406.376479
 20
520.524056
 30
0.0
  0
VERTEX
  5
2A34C
  8
ALPHA
 10
2406.359097
 20
520.517895
 30
0.0
  0
VERTEX
  5
2A34D
  8
ALPHA
 10
2406.353728
 20
520.513469
 30
0.0
  0
SEQEND
  5
2A34E
  8
ALPHA
  0
POLYLINE
  5
2875D
  8
ALPHA
 66
     1
 10
0.0
 20
0.0
 30
0.0
  0
VERTEX
  5
2A34F
  8
ALPHA
 10
2401.511286
 20
521.515029
 30
0.0
  0
VERTEX
  5
2A350
  8
ALPHA
 10
2401.940379
 20
521.286298
 30
0.0
  0
VERTEX
  5
2A351
  8
ALPHA
 10
2402.341594
 20
521.101505
 30
0.0
  0
VERTEX
  5
2A352
  8
ALPHA
 10
2402.713374
 20
520.953488
 30
0.0
  0
VERTEX
  5
2A353
  8
ALPHA
 10
2403.056152
 20
520.835645
 30
0.0
  0
VERTEX
  5
2A354
  8
ALPHA
 10
2403.370537
 20
520.742548
 30
0.0
  0
VERTEX
  5
2A355
  8
ALPHA
 10
2403.657778
 20
520.66957
 30
0.0
  0
VERTEX
  5
2A356
  8
ALPHA
 10
2403.920122
 20
520.612712
 30
0.0
  0
VERTEX
  5
2A357
  8
ALPHA
 10
2404.160282
 20
520.56868
 30
0.0
  0
VERTEX
  5
2A358
  8
ALPHA
 10
2404.380998
 20
520.534858
 30
0.0
  0
SEQEND
  5
2A359
  8
ALPHA
  0
POLYLINE
  5
28769
  8
ALPHA
 66
     1
 10
0.0
 20
0.0
 30
0.0
  0
VERTEX
  5
2A35A
  8
ALPHA
 10
2406.353728
 20
520.513469
 30
0.0
  0
VERTEX
  5
2A35B
  8
ALPHA
 10
2406.359405
 20
520.510477
 30
0.0
  0
VERTEX
  5
2A35C
  8
ALPHA
 10
2406.375203
 20
520.509226
 30
0.0
  0
SEQEND
  5
2A35D
  8
ALPHA
  0
LINE
  5
2876E
  8
ALPHA
 10
2401.479929
 20
522.043232
 30
0.0
 11
2401.511286
 21
522.043232
 31
0.0
  0
LINE
  5
2876F
  8
ALPHA
 10
2404.640089
 20
520.535717
 30
0.0
 11
2404.629913
 21
520.545765
 31
0.0
  0
LINE
  5
28770
  8
ALPHA
 10
2404.629913
 20
520.545765
 30
0.0
 11
2404.640571
 21
520.554587
 31
0.0
  0
POLYLINE
  5
28771
  8
ALPHA
 66
     1
 10
0.0
 20
0.0
 30
0.0
  0
VERTEX
  5
2A35E
  8
ALPHA
 10
2406.414273
 20
520.544558
 30
0.0
  0
VERTEX
  5
2A35F
  8
ALPHA
 10
2406.406632
 20
520.535821
 30
0.0
  0
VERTEX
  5
2A360
  8
ALPHA
 10
2406.376479
 20
520.524056
 30
0.0
  0
SEQEND
  5
2A361
  8
ALPHA
  0
POLYLINE
  5
28776
  8
ALPHA
 66
     1
 10
0.0
 20
0.0
 30
0.0
  0
VERTEX
  5
2A362
  8
ALPHA
 10
2404.656313
 20
520.521267
 30
0.0
  0
VERTEX
  5
2A363
  8
ALPHA
 10
2404.654816
 20
520.525154
 30
0.0
  0
VERTEX
  5
2A364
  8
ALPHA
 10
2404.640089
 20
520.535717
 30
0.0
  0
SEQEND
  5
2A365
  8
ALPHA
  0
LINE
  5
2877B
  8
ALPHA
 10
2406.376479
 20
520.524056
 30
0.0
 11
2406.376479
 21
520.559025
 31
0.0
  0
LINE
  5
2877C
  8
ALPHA
 10
2406.353728
 20
520.562316
 30
0.0
 11
2406.353728
 21
520.51349
 31
0.0
  0
LINE
  5
2877D
  8
ALPHA
 10
2406.32788
 20
520.564022
 30
0.0
 11
2406.32788
 21
520.515875
 31
0.0
  0
LINE
  5
2877E
  8
ALPHA
 10
2404.656313
 20
520.55802
 30
0.0
 11
2404.656313
 21
520.521611
 31
0.0
  0
LINE
  5
2877F
  8
ALPHA
 10
2404.640089
 20
520.535717
 30
0.0
 11
2404.640089
 21
520.554188
 31
0.0
  0
LINE
  5
28780
  8
ALPHA
 10
2401.511286
 20
521.515029
 30
0.0
 11
2401.511286
 21
522.043232
 31
0.0
  0
LINE
  5
28781
  8
ALPHA
 10
2401.479913
 20
522.043232
 30
0.0
 11
2401.479913
 21
523.543232
 31
0.0
  0
ARC
  5
28782
  8
ALPHA
 10
2409.185872
 20
517.243232
 30
0.0
 40
0.5
 50
208.553539
 51
351.14501
  0
ARC
  5
28783
  8
ALPHA
 10
2418.173953
 20
517.243232
 30
0.0
 40
0.5
 50
188.85499
 51
331.446461
  0
LINE
  5
28784
  8
ALPHA
 10
2409.44854
 20
522.043232
 30
0.0
 11
2409.479897
 21
522.043232
 31
0.0
  0
LINE
  5
28785
  8
ALPHA
 10
2409.020105
 20
521.286648
 30
0.0
 11
2409.44854
 21
521.515029
 31
0.0
  0
LINE
  5
28786
  8
ALPHA
 10
2408.746687
 20
517.004242
 30
0.0
 11
2406.806361
 21
520.569927
 31
0.0
  0
LINE
  5
28787
  8
ALPHA
 10
2421.736103
 20
522.743232
 30
0.0
 11
2422.379913
 21
521.834205
 31
0.0
  0
LINE
  5
28788
  8
ALPHA
 10
2422.379913
 20
521.834205
 30
0.0
 11
2417.679913
 21
513.197139
 31
0.0
  0
LINE
  5
28789
  8
ALPHA
 10
2418.613139
 20
517.004242
 30
0.0
 11
2421.736103
 21
522.743232
 31
0.0
  0
LINE
  5
2878A
  8
ALPHA
 10
2409.479913
 20
522.043232
 30
0.0
 11
2409.479913
 21
523.543232
 31
0.0
  0
LINE
  5
2878B
  8
ALPHA
 10
2409.44854
 20
521.515029
 30
0.0
 11
2409.44854
 21
522.043232
 31
0.0
  0
LINE
  5
2878C
  8
ALPHA
 10
2409.679913
 20
511.543232
 30
0.0
 11
2417.679913
 21
511.543232
 31
0.0
  0
LINE
  5
287DC
  8
ALPHA
 10
2274.679913
 20
461.693232
 30
0.0
 11
2284.895864
 21
461.693232
 31
0.0
  0
ARC
  5
287DD
  8
ALPHA
 10
2284.895864
 20
463.693232
 30
0.0
 40
2.0
 50
270.0
 51
335.402912
  0
LINE
  5
28978
  8
ALPHA
 10
2411.179913
 20
462.343232
 30
0.0
 11
2416.179913
 21
462.343232
 31
0.0
  0
LINE
  5
28C15
  8
ALPHA
 10
2508.008116
 20
561.011859
 30
0.0
 11
2508.008116
 21
553.074605
 31
0.0
  0
POLYLINE
  5
28C16
  8
ALPHA
 66
     1
 10
0.0
 20
0.0
 30
0.0
  0
VERTEX
  5
2A366
  8
ALPHA
 10
2508.988526
 20
558.140251
 30
0.0
  0
VERTEX
  5
2A367
  8
ALPHA
 10
2508.955359
 20
558.35752
 30
0.0
  0
VERTEX
  5
2A368
  8
ALPHA
 10
2508.911525
 20
558.597532
 30
0.0
  0
VERTEX
  5
2A369
  8
ALPHA
 10
2508.854639
 20
558.86082
 30
0.0
  0
VERTEX
  5
2A36A
  8
ALPHA
 10
2508.781406
 20
559.149652
 30
0.0
  0
VERTEX
  5
2A36B
  8
ALPHA
 10
2508.687867
 20
559.465841
 30
0.0
  0
VERTEX
  5
2A36C
  8
ALPHA
 10
2508.569497
 20
559.810203
 30
0.0
  0
VERTEX
  5
2A36D
  8
ALPHA
 10
2508.421047
 20
560.182938
 30
0.0
  0
VERTEX
  5
2A36E
  8
ALPHA
 10
2508.236511
 20
560.583396
 30
0.0
  0
SEQEND
  5
2A36F
  8
ALPHA
  0
LINE
  5
28C21
  8
ALPHA
 10
2529.0254
 20
581.368723
 30
0.0
 11
2521.347969
 21
572.697743
 31
0.0
  0
LINE
  5
28C22
  8
ALPHA
 10
2527.92853
 20
582.363089
 30
0.0
 11
2520.251099
 21
573.692108
 31
0.0
  0
LINE
  5
28C23
  8
ALPHA
 10
2527.529913
 20
586.388417
 30
0.0
 11
2511.429913
 21
586.388417
 31
0.0
  0
LINE
  5
28C24
  8
ALPHA
 10
2527.529913
 20
586.493232
 30
0.0
 11
2511.429913
 21
586.493232
 31
0.0
  0
LINE
  5
28C25
  8
ALPHA
 10
2518.079913
 20
587.693232
 30
0.0
 11
2525.879913
 21
587.693232
 31
0.0
  0
LINE
  5
28C26
  8
ALPHA
 10
2511.429913
 20
589.393232
 30
0.0
 11
2527.529913
 21
589.393232
 31
0.0
  0
LINE
  5
28C27
  8
ALPHA
 10
2511.429913
 20
589.498048
 30
0.0
 11
2527.529913
 21
589.498048
 31
0.0
  0
LINE
  5
28C28
  8
ALPHA
 10
2511.429913
 20
593.930349
 30
0.0
 11
2527.529913
 21
593.930349
 31
0.0
  0
LINE
  5
28C29
  8
ALPHA
 10
2511.429913
 20
593.993232
 30
0.0
 11
2527.529913
 21
593.993232
 31
0.0
  0
LINE
  5
28C2A
  8
ALPHA
 10
2527.529913
 20
596.893232
 30
0.0
 11
2511.429913
 21
596.893232
 31
0.0
  0
LINE
  5
28C2B
  8
ALPHA
 10
2527.529913
 20
596.956115
 30
0.0
 11
2511.429913
 21
596.956115
 31
0.0
  0
LINE
  5
28C2C
  8
ALPHA
 10
2511.429913
 20
601.430349
 30
0.0
 11
2527.529913
 21
601.430349
 31
0.0
  0
LINE
  5
28C2D
  8
ALPHA
 10
2511.429913
 20
601.493232
 30
0.0
 11
2527.529913
 21
601.493232
 31
0.0
  0
LINE
  5
28C2E
  8
ALPHA
 10
2527.529912
 20
604.393232
 30
0.0
 11
2511.429913
 21
604.393232
 31
0.0
  0
LINE
  5
28C2F
  8
ALPHA
 10
2527.529913
 20
604.456115
 30
0.0
 11
2511.429913
 21
604.456115
 31
0.0
  0
LINE
  5
28C30
  8
ALPHA
 10
2511.429913
 20
608.930349
 30
0.0
 11
2527.529913
 21
608.930349
 31
0.0
  0
LINE
  5
28C31
  8
ALPHA
 10
2511.429913
 20
608.993232
 30
0.0
 11
2527.529913
 21
608.993232
 31
0.0
  0
LINE
  5
28C32
  8
ALPHA
 10
2527.529913
 20
611.893232
 30
0.0
 11
2511.429913
 21
611.893232
 31
0.0
  0
LINE
  5
28C33
  8
ALPHA
 10
2527.529913
 20
611.956115
 30
0.0
 11
2511.429913
 21
611.956115
 31
0.0
  0
LINE
  5
28C34
  8
ALPHA
 10
2527.529913
 20
616.388417
 30
0.0
 11
2511.429913
 21
616.388417
 31
0.0
  0
LINE
  5
28C35
  8
ALPHA
 10
2527.529913
 20
616.493232
 30
0.0
 11
2511.429913
 21
616.493232
 31
0.0
  0
LINE
  5
28C36
  8
ALPHA
 10
2511.429913
 20
619.393232
 30
0.0
 11
2527.529913
 21
619.393232
 31
0.0
  0
LINE
  5
28C37
  8
ALPHA
 10
2511.429913
 20
619.498048
 30
0.0
 11
2527.529913
 21
619.498048
 31
0.0
  0
LINE
  5
28C38
  8
ALPHA
 10
2527.529913
 20
623.888417
 30
0.0
 11
2511.429913
 21
623.888417
 31
0.0
  0
LINE
  5
28C39
  8
ALPHA
 10
2527.529913
 20
623.993232
 30
0.0
 11
2511.429913
 21
623.993232
 31
0.0
  0
LINE
  5
28C3A
  8
ALPHA
 10
2526.879913
 20
624.893232
 30
0.0
 11
2518.079913
 21
624.893232
 31
0.0
  0
LINE
  5
28C3B
  8
ALPHA
 10
2522.079913
 20
626.573232
 30
0.0
 11
2518.879913
 21
626.573232
 31
0.0
  0
LINE
  5
28C3C
  8
ALPHA
 10
2511.429913
 20
626.893232
 30
0.0
 11
2527.529913
 21
626.893232
 31
0.0
  0
LINE
  5
28C3D
  8
ALPHA
 10
2511.429913
 20
626.998048
 30
0.0
 11
2527.529913
 21
626.998048
 31
0.0
  0
LINE
  5
28C3E
  8
ALPHA
 10
2527.529913
 20
631.388417
 30
0.0
 11
2511.429913
 21
631.388417
 31
0.0
  0
LINE
  5
28C3F
  8
ALPHA
 10
2527.529913
 20
631.493232
 30
0.0
 11
2511.429913
 21
631.493232
 31
0.0
  0
LINE
  5
28C40
  8
ALPHA
 10
2523.911409
 20
632.278632
 30
0.0
 11
2519.829913
 21
632.278632
 31
0.0
  0
LINE
  5
28C41
  8
ALPHA
 10
2511.429913
 20
634.393232
 30
0.0
 11
2527.529913
 21
634.393232
 31
0.0
  0
LINE
  5
28C42
  8
ALPHA
 10
2511.429913
 20
634.498048
 30
0.0
 11
2527.529913
 21
634.498048
 31
0.0
  0
LINE
  5
28C43
  8
ALPHA
 10
2527.529913
 20
638.888417
 30
0.0
 11
2511.429913
 21
638.888417
 31
0.0
  0
LINE
  5
28C44
  8
ALPHA
 10
2527.529913
 20
638.993232
 30
0.0
 11
2511.429913
 21
638.993232
 31
0.0
  0
LINE
  5
28C45
  8
ALPHA
 10
2518.079913
 20
640.493232
 30
0.0
 11
2527.779913
 21
640.493232
 31
0.0
  0
LINE
  5
28C46
  8
ALPHA
 10
2511.429913
 20
641.893232
 30
0.0
 11
2527.529913
 21
641.893232
 31
0.0
  0
LINE
  5
28C47
  8
ALPHA
 10
2511.429913
 20
641.998048
 30
0.0
 11
2527.529913
 21
641.998048
 31
0.0
  0
LINE
  5
28C48
  8
ALPHA
 10
2511.429913
 20
646.493232
 30
0.0
 11
2527.529913
 21
646.493232
 31
0.0
  0
LINE
  5
28C49
  8
ALPHA
 10
2511.429913
 20
646.556115
 30
0.0
 11
2527.529913
 21
646.556115
 31
0.0
  0
LINE
  5
28C4A
  8
ALPHA
 10
2527.529913
 20
649.330349
 30
0.0
 11
2511.429913
 21
649.330349
 31
0.0
  0
LINE
  5
28C4B
  8
ALPHA
 10
2527.529913
 20
649.393232
 30
0.0
 11
2511.429913
 21
649.393232
 31
0.0
  0
POLYLINE
  5
28C4C
  8
ALPHA
 66
     1
 10
0.0
 20
0.0
 30
0.0
  0
VERTEX
  5
2A370
  8
ALPHA
 10
2528.936848
 20
640.223761
 30
0.0
  0
VERTEX
  5
2A371
  8
ALPHA
 10
2524.412517
 20
640.165364
 30
0.0
  0
VERTEX
  5
2A372
  8
ALPHA
 10
2519.082518
 20
640.095227
 30
0.0
  0
SEQEND
  5
2A373
  8
ALPHA
  0
POLYLINE
  5
28C51
  8
ALPHA
 66
     1
 10
0.0
 20
0.0
 30
0.0
  0
VERTEX
  5
2A374
  8
ALPHA
 10
2526.056686
 20
631.493232
 30
0.0
  0
VERTEX
  5
2A375
  8
ALPHA
 10
2522.94674
 20
632.631922
 30
0.0
  0
VERTEX
  5
2A376
  8
ALPHA
 10
2520.703915
 20
633.454857
 30
0.0
  0
VERTEX
  5
2A377
  8
ALPHA
 10
2519.829913
 20
633.776795
 30
0.0
  0
SEQEND
  5
2A378
  8
ALPHA
  0
LINE
  5
28C57
  8
ALPHA
 10
2518.079913
 20
638.993232
 30
0.0
 11
2518.079913
 21
641.893232
 31
0.0
  0
LINE
  5
28C58
  8
ALPHA
 10
2516.479913
 20
641.893232
 30
0.0
 11
2516.479913
 21
638.993232
 31
0.0
  0
POLYLINE
  5
28C59
  8
ALPHA
 66
     1
 10
0.0
 20
0.0
 30
0.0
  0
VERTEX
  5
2A379
  8
ALPHA
 10
2511.429913
 20
638.993232
 30
0.0
  0
VERTEX
  5
2A37A
  8
ALPHA
 10
2510.868256
 20
639.106432
 30
0.0
  0
VERTEX
  5
2A37B
  8
ALPHA
 10
2510.396458
 20
639.426146
 30
0.0
  0
VERTEX
  5
2A37C
  8
ALPHA
 10
2510.087429
 20
639.8953
 30
0.0
  0
VERTEX
  5
2A37D
  8
ALPHA
 10
2509.979913
 20
640.443232
 30
0.0
  0
VERTEX
  5
2A37E
  8
ALPHA
 10
2510.087429
 20
640.991164
 30
0.0
  0
VERTEX
  5
2A37F
  8
ALPHA
 10
2510.396458
 20
641.460319
 30
0.0
  0
VERTEX
  5
2A380
  8
ALPHA
 10
2510.868256
 20
641.780033
 30
0.0
  0
VERTEX
  5
2A381
  8
ALPHA
 10
2511.429913
 20
641.893232
 30
0.0
  0
SEQEND
  5
2A382
  8
ALPHA
  0
POLYLINE
  5
28C64
  8
ALPHA
 66
     1
 10
0.0
 20
0.0
 30
0.0
  0
VERTEX
  5
2A383
  8
ALPHA
 10
2511.429913
 20
638.888417
 30
0.0
  0
VERTEX
  5
2A384
  8
ALPHA
 10
2510.827913
 20
639.00965
 30
0.0
  0
VERTEX
  5
2A385
  8
ALPHA
 10
2510.322605
 20
639.351661
 30
0.0
  0
VERTEX
  5
2A386
  8
ALPHA
 10
2509.990429
 20
639.85535
 30
0.0
  0
VERTEX
  5
2A387
  8
ALPHA
 10
2509.875001
 20
640.443232
 30
0.0
  0
VERTEX
  5
2A388
  8
ALPHA
 10
2509.990429
 20
641.031114
 30
0.0
  0
VERTEX
  5
2A389
  8
ALPHA
 10
2510.322605
 20
641.534803
 30
0.0
  0
VERTEX
  5
2A38A
  8
ALPHA
 10
2510.827913
 20
641.876814
 30
0.0
  0
VERTEX
  5
2A38B
  8
ALPHA
 10
2511.429913
 20
641.998048
 30
0.0
  0
SEQEND
  5
2A38C
  8
ALPHA
  0
LINE
  5
28C6F
  8
ALPHA
 10
2519.829913
 20
641.243232
 30
0.0
 11
2519.829913
 21
641.893232
 31
0.0
  0
LINE
  5
28C70
  8
ALPHA
 10
2518.779913
 20
640.743232
 30
0.0
 11
2518.779913
 21
641.243232
 31
0.0
  0
LINE
  5
28C71
  8
ALPHA
 10
2511.429913
 20
649.393232
 30
0.0
 11
2511.429913
 21
649.330349
 31
0.0
  0
LINE
  5
28C72
  8
ALPHA
 10
2511.429913
 20
646.493232
 30
0.0
 11
2511.429913
 21
646.556115
 31
0.0
  0
LINE
  5
28C73
  8
ALPHA
 10
2511.429913
 20
641.893232
 30
0.0
 11
2511.429913
 21
641.998048
 31
0.0
  0
POLYLINE
  5
28C74
  8
ALPHA
 66
     1
 10
0.0
 20
0.0
 30
0.0
  0
VERTEX
  5
2A38D
  8
ALPHA
 10
2511.429913
 20
649.330349
 30
0.0
  0
VERTEX
  5
2A38E
  8
ALPHA
 10
2510.892638
 20
649.222045
 30
0.0
  0
VERTEX
  5
2A38F
  8
ALPHA
 10
2510.441336
 20
648.916213
 30
0.0
  0
VERTEX
  5
2A390
  8
ALPHA
 10
2510.145705
 20
648.467397
 30
0.0
  0
VERTEX
  5
2A391
  8
ALPHA
 10
2510.042853
 20
647.943232
 30
0.0
  0
VERTEX
  5
2A392
  8
ALPHA
 10
2510.145705
 20
647.419068
 30
0.0
  0
VERTEX
  5
2A393
  8
ALPHA
 10
2510.441336
 20
646.970252
 30
0.0
  0
VERTEX
  5
2A394
  8
ALPHA
 10
2510.892638
 20
646.664419
 30
0.0
  0
VERTEX
  5
2A395
  8
ALPHA
 10
2511.429913
 20
646.556115
 30
0.0
  0
SEQEND
  5
2A396
  8
ALPHA
  0
POLYLINE
  5
28C7F
  8
ALPHA
 66
     1
 10
0.0
 20
0.0
 30
0.0
  0
VERTEX
  5
2A397
  8
ALPHA
 10
2511.429913
 20
649.393232
 30
0.0
  0
VERTEX
  5
2A398
  8
ALPHA
 10
2510.868256
 20
649.280033
 30
0.0
  0
VERTEX
  5
2A399
  8
ALPHA
 10
2510.396458
 20
648.960319
 30
0.0
  0
VERTEX
  5
2A39A
  8
ALPHA
 10
2510.087429
 20
648.491164
 30
0.0
  0
VERTEX
  5
2A39B
  8
ALPHA
 10
2509.979913
 20
647.943232
 30
0.0
  0
VERTEX
  5
2A39C
  8
ALPHA
 10
2510.087429
 20
647.3953
 30
0.0
  0
VERTEX
  5
2A39D
  8
ALPHA
 10
2510.396458
 20
646.926146
 30
0.0
  0
VERTEX
  5
2A39E
  8
ALPHA
 10
2510.868256
 20
646.606432
 30
0.0
  0
VERTEX
  5
2A39F
  8
ALPHA
 10
2511.429913
 20
646.493232
 30
0.0
  0
SEQEND
  5
2A3A0
  8
ALPHA
  0
LINE
  5
28C8A
  8
ALPHA
 10
2518.079913
 20
640.743232
 30
0.0
 11
2518.779913
 21
640.743232
 31
0.0
  0
LINE
  5
28C8B
  8
ALPHA
 10
2519.829913
 20
641.243232
 30
0.0
 11
2518.079913
 21
641.243232
 31
0.0
  0
LINE
  5
28C8C
  8
ALPHA
 10
2519.829913
 20
631.493232
 30
0.0
 11
2519.829913
 21
633.943232
 31
0.0
  0
LINE
  5
28C8D
  8
ALPHA
 10
2519.579913
 20
633.943232
 30
0.0
 11
2519.579913
 21
634.393232
 31
0.0
  0
LINE
  5
28C8E
  8
ALPHA
 10
2519.079913
 20
638.993232
 30
0.0
 11
2519.079913
 21
640.293232
 31
0.0
  0
LINE
  5
28C8F
  8
ALPHA
 10
2519.079913
 20
633.943232
 30
0.0
 11
2519.079913
 21
634.393232
 31
0.0
  0
LINE
  5
28C90
  8
ALPHA
 10
2518.779913
 20
638.993232
 30
0.0
 11
2518.779913
 21
639.843232
 31
0.0
  0
LINE
  5
28C91
  8
ALPHA
 10
2518.629913
 20
631.493232
 30
0.0
 11
2518.629913
 21
633.943232
 31
0.0
  0
POLYLINE
  5
28C92
  8
ALPHA
 66
     1
 10
0.0
 20
0.0
 30
0.0
  0
VERTEX
  5
2A3A1
  8
ALPHA
 10
2514.179913
 20
639.42698
 30
0.0
  0
VERTEX
  5
2A3A2
  8
ALPHA
 10
2514.199121
 20
639.599545
 30
0.0
  0
VERTEX
  5
2A3A3
  8
ALPHA
 10
2514.255569
 20
639.762461
 30
0.0
  0
VERTEX
  5
2A3A4
  8
ALPHA
 10
2514.345247
 20
639.906585
 30
0.0
  0
VERTEX
  5
2A3A5
  8
ALPHA
 10
2514.464905
 20
640.027318
 30
0.0
  0
VERTEX
  5
2A3A6
  8
ALPHA
 10
2514.606176
 20
640.116823
 30
0.0
  0
VERTEX
  5
2A3A7
  8
ALPHA
 10
2514.764514
 20
640.172676
 30
0.0
  0
VERTEX
  5
2A3A8
  8
ALPHA
 10
2514.929913
 20
640.19142
 30
0.0
  0
SEQEND
  5
2A3A9
  8
ALPHA
  0
LINE
  5
28C9C
  8
ALPHA
 10
2518.079913
 20
631.493232
 30
0.0
 11
2518.079913
 21
634.393232
 31
0.0
  0
LINE
  5
28C9D
  8
ALPHA
 10
2516.479913
 20
634.393232
 30
0.0
 11
2516.479913
 21
631.493232
 31
0.0
  0
LINE
  5
28C9E
  8
ALPHA
 10
2515.329913
 20
640.19142
 30
0.0
 11
2515.329913
 21
640.243232
 31
0.0
  0
LINE
  5
28C9F
  8
ALPHA
 10
2515.329913
 20
633.243232
 30
0.0
 11
2515.329913
 21
633.295044
 31
0.0
  0
LINE
  5
28CA0
  8
ALPHA
 10
2514.929913
 20
638.993232
 30
0.0
 11
2514.929913
 21
640.19142
 31
0.0
  0
LINE
  5
28CA1
  8
ALPHA
 10
2514.929913
 20
633.295044
 30
0.0
 11
2514.929913
 21
634.393232
 31
0.0
  0
LINE
  5
28CA2
  8
ALPHA
 10
2514.179913
 20
638.993232
 30
0.0
 11
2514.179913
 21
639.42698
 31
0.0
  0
LINE
  5
28CA3
  8
ALPHA
 10
2514.179913
 20
634.059485
 30
0.0
 11
2514.179913
 21
634.393232
 31
0.0
  0
LINE
  5
28CA4
  8
ALPHA
 10
2511.429913
 20
631.493232
 30
0.0
 11
2511.429913
 21
631.388417
 31
0.0
  0
LINE
  5
28CA5
  8
ALPHA
 10
2511.429913
 20
638.993232
 30
0.0
 11
2511.429913
 21
638.888417
 31
0.0
  0
LINE
  5
28CA6
  8
ALPHA
 10
2511.429913
 20
634.393232
 30
0.0
 11
2511.429913
 21
634.498048
 31
0.0
  0
POLYLINE
  5
28CA7
  8
ALPHA
 66
     1
 10
0.0
 20
0.0
 30
0.0
  0
VERTEX
  5
2A3AA
  8
ALPHA
 10
2518.274434
 20
640.293232
 30
0.0
  0
VERTEX
  5
2A3AB
  8
ALPHA
 10
2518.326241
 20
640.336632
 30
0.0
  0
VERTEX
  5
2A3AC
  8
ALPHA
 10
2518.470951
 20
640.447614
 30
0.0
  0
SEQEND
  5
2A3AD
  8
ALPHA
  0
LINE
  5
28CAC
  8
ALPHA
 10
2518.15132
 20
640.293232
 30
0.0
 11
2518.43695
 21
640.493232
 31
0.0
  0
LINE
  5
28CAD
  8
ALPHA
 10
2516.479913
 20
633.243232
 30
0.0
 11
2515.329913
 21
633.243232
 31
0.0
  0
LINE
  5
28CAE
  8
ALPHA
 10
2515.329913
 20
633.295044
 30
0.0
 11
2514.929913
 21
633.295044
 31
0.0
  0
POLYLINE
  5
28CAF
  8
ALPHA
 66
     1
 10
0.0
 20
0.0
 30
0.0
  0
VERTEX
  5
2A3AE
  8
ALPHA
 10
2514.929913
 20
633.295044
 30
0.0
  0
VERTEX
  5
2A3AF
  8
ALPHA
 10
2514.764514
 20
633.313788
 30
0.0
  0
VERTEX
  5
2A3B0
  8
ALPHA
 10
2514.606176
 20
633.369641
 30
0.0
  0
VERTEX
  5
2A3B1
  8
ALPHA
 10
2514.464905
 20
633.459146
 30
0.0
  0
VERTEX
  5
2A3B2
  8
ALPHA
 10
2514.345247
 20
633.57988
 30
0.0
  0
VERTEX
  5
2A3B3
  8
ALPHA
 10
2514.255569
 20
633.724003
 30
0.0
  0
VERTEX
  5
2A3B4
  8
ALPHA
 10
2514.199121
 20
633.88692
 30
0.0
  0
VERTEX
  5
2A3B5
  8
ALPHA
 10
2514.179913
 20
634.059485
 30
0.0
  0
SEQEND
  5
2A3B6
  8
ALPHA
  0
LINE
  5
28CB9
  8
ALPHA
 10
2519.829913
 20
633.212686
 30
0.0
 11
2521.440549
 21
633.184572
 31
0.0
  0
LINE
  5
28CBA
  8
ALPHA
 10
2518.079913
 20
633.943232
 30
0.0
 11
2519.829913
 21
633.943232
 31
0.0
  0
LINE
  5
28CBB
  8
ALPHA
 10
2518.079913
 20
639.843232
 30
0.0
 11
2518.779913
 21
639.843232
 31
0.0
  0
LINE
  5
28CBC
  8
ALPHA
 10
2519.079913
 20
639.893232
 30
0.0
 11
2518.079913
 21
639.893232
 31
0.0
  0
LINE
  5
28CBD
  8
ALPHA
 10
2515.329913
 20
640.19142
 30
0.0
 11
2514.929913
 21
640.19142
 31
0.0
  0
LINE
  5
28CBE
  8
ALPHA
 10
2516.479913
 20
640.243232
 30
0.0
 11
2515.329913
 21
640.243232
 31
0.0
  0
LINE
  5
28CBF
  8
ALPHA
 10
2519.079913
 20
640.293232
 30
0.0
 11
2518.079913
 21
640.293232
 31
0.0
  0
POLYLINE
  5
28CC0
  8
ALPHA
 66
     1
 10
0.0
 20
0.0
 30
0.0
  0
VERTEX
  5
2A3B7
  8
ALPHA
 10
2511.429913
 20
631.493232
 30
0.0
  0
VERTEX
  5
2A3B8
  8
ALPHA
 10
2510.868256
 20
631.606432
 30
0.0
  0
VERTEX
  5
2A3B9
  8
ALPHA
 10
2510.396458
 20
631.926146
 30
0.0
  0
VERTEX
  5
2A3BA
  8
ALPHA
 10
2510.087429
 20
632.3953
 30
0.0
  0
VERTEX
  5
2A3BB
  8
ALPHA
 10
2509.979913
 20
632.943232
 30
0.0
  0
VERTEX
  5
2A3BC
  8
ALPHA
 10
2510.087429
 20
633.491164
 30
0.0
  0
VERTEX
  5
2A3BD
  8
ALPHA
 10
2510.396458
 20
633.960319
 30
0.0
  0
VERTEX
  5
2A3BE
  8
ALPHA
 10
2510.868256
 20
634.280033
 30
0.0
  0
VERTEX
  5
2A3BF
  8
ALPHA
 10
2511.429913
 20
634.393232
 30
0.0
  0
SEQEND
  5
2A3C0
  8
ALPHA
  0
POLYLINE
  5
28CCB
  8
ALPHA
 66
     1
 10
0.0
 20
0.0
 30
0.0
  0
VERTEX
  5
2A3C1
  8
ALPHA
 10
2511.429913
 20
631.388417
 30
0.0
  0
VERTEX
  5
2A3C2
  8
ALPHA
 10
2510.827913
 20
631.50965
 30
0.0
  0
VERTEX
  5
2A3C3
  8
ALPHA
 10
2510.322605
 20
631.851661
 30
0.0
  0
VERTEX
  5
2A3C4
  8
ALPHA
 10
2509.990429
 20
632.35535
 30
0.0
  0
VERTEX
  5
2A3C5
  8
ALPHA
 10
2509.875001
 20
632.943232
 30
0.0
  0
VERTEX
  5
2A3C6
  8
ALPHA
 10
2509.990429
 20
633.531114
 30
0.0
  0
VERTEX
  5
2A3C7
  8
ALPHA
 10
2510.322605
 20
634.034803
 30
0.0
  0
VERTEX
  5
2A3C8
  8
ALPHA
 10
2510.827913
 20
634.376814
 30
0.0
  0
VERTEX
  5
2A3C9
  8
ALPHA
 10
2511.429913
 20
634.498048
 30
0.0
  0
SEQEND
  5
2A3CA
  8
ALPHA
  0
LINE
  5
28CD6
  8
ALPHA
 10
2518.079913
 20
616.493232
 30
0.0
 11
2518.079913
 21
619.393232
 31
0.0
  0
LINE
  5
28CD7
  8
ALPHA
 10
2516.479913
 20
619.393232
 30
0.0
 11
2516.479913
 21
616.493232
 31
0.0
  0
LINE
  5
28CD8
  8
ALPHA
 10
2513.479913
 20
616.493232
 30
0.0
 11
2513.479913
 21
619.393232
 31
0.0
  0
POLYLINE
  5
28CD9
  8
ALPHA
 66
     1
 10
0.0
 20
0.0
 30
0.0
  0
VERTEX
  5
2A3CB
  8
ALPHA
 10
2511.429913
 20
616.493232
 30
0.0
  0
VERTEX
  5
2A3CC
  8
ALPHA
 10
2510.868256
 20
616.606432
 30
0.0
  0
VERTEX
  5
2A3CD
  8
ALPHA
 10
2510.396458
 20
616.926146
 30
0.0
  0
VERTEX
  5
2A3CE
  8
ALPHA
 10
2510.087429
 20
617.3953
 30
0.0
  0
VERTEX
  5
2A3CF
  8
ALPHA
 10
2509.979913
 20
617.943232
 30
0.0
  0
VERTEX
  5
2A3D0
  8
ALPHA
 10
2510.087429
 20
618.491164
 30
0.0
  0
VERTEX
  5
2A3D1
  8
ALPHA
 10
2510.396458
 20
618.960319
 30
0.0
  0
VERTEX
  5
2A3D2
  8
ALPHA
 10
2510.868256
 20
619.280033
 30
0.0
  0
VERTEX
  5
2A3D3
  8
ALPHA
 10
2511.429913
 20
619.393232
 30
0.0
  0
SEQEND
  5
2A3D4
  8
ALPHA
  0
POLYLINE
  5
28CE4
  8
ALPHA
 66
     1
 10
0.0
 20
0.0
 30
0.0
  0
VERTEX
  5
2A3D5
  8
ALPHA
 10
2511.429913
 20
616.388417
 30
0.0
  0
VERTEX
  5
2A3D6
  8
ALPHA
 10
2510.827913
 20
616.50965
 30
0.0
  0
VERTEX
  5
2A3D7
  8
ALPHA
 10
2510.322605
 20
616.851661
 30
0.0
  0
VERTEX
  5
2A3D8
  8
ALPHA
 10
2509.990429
 20
617.35535
 30
0.0
  0
VERTEX
  5
2A3D9
  8
ALPHA
 10
2509.875001
 20
617.943232
 30
0.0
  0
VERTEX
  5
2A3DA
  8
ALPHA
 10
2509.990429
 20
618.531114
 30
0.0
  0
VERTEX
  5
2A3DB
  8
ALPHA
 10
2510.322605
 20
619.034803
 30
0.0
  0
VERTEX
  5
2A3DC
  8
ALPHA
 10
2510.827913
 20
619.376814
 30
0.0
  0
VERTEX
  5
2A3DD
  8
ALPHA
 10
2511.429913
 20
619.498048
 30
0.0
  0
SEQEND
  5
2A3DE
  8
ALPHA
  0
LINE
  5
28CEF
  8
ALPHA
 10
2519.079913
 20
624.893232
 30
0.0
 11
2519.079913
 21
626.093232
 31
0.0
  0
LINE
  5
28CF0
  8
ALPHA
 10
2518.879913
 20
626.443232
 30
0.0
 11
2518.879913
 21
626.893232
 31
0.0
  0
LINE
  5
28CF1
  8
ALPHA
 10
2518.779913
 20
626.093232
 30
0.0
 11
2518.779913
 21
626.893232
 31
0.0
  0
LINE
  5
28CF2
  8
ALPHA
 10
2518.079913
 20
623.993232
 30
0.0
 11
2518.079913
 21
626.893232
 31
0.0
  0
LINE
  5
28CF3
  8
ALPHA
 10
2516.479913
 20
626.893232
 30
0.0
 11
2516.479913
 21
623.993232
 31
0.0
  0
LINE
  5
28CF4
  8
ALPHA
 10
2513.479913
 20
623.993232
 30
0.0
 11
2513.479913
 21
624.893232
 31
0.0
  0
LINE
  5
28CF5
  8
ALPHA
 10
2511.429913
 20
623.993232
 30
0.0
 11
2511.429913
 21
623.888417
 31
0.0
  0
LINE
  5
28CF6
  8
ALPHA
 10
2511.429913
 20
626.893232
 30
0.0
 11
2511.429913
 21
626.998048
 31
0.0
  0
LINE
  5
28CF7
  8
ALPHA
 10
2511.429913
 20
619.393232
 30
0.0
 11
2511.429913
 21
619.498048
 31
0.0
  0
LINE
  5
28CF8
  8
ALPHA
 10
2516.479913
 20
624.893232
 30
0.0
 11
2513.479913
 21
624.893232
 31
0.0
  0
LINE
  5
28CF9
  8
ALPHA
 10
2519.079913
 20
625.293232
 30
0.0
 11
2518.079913
 21
625.293232
 31
0.0
  0
LINE
  5
28CFA
  8
ALPHA
 10
2519.079913
 20
626.093232
 30
0.0
 11
2518.079913
 21
626.093232
 31
0.0
  0
LINE
  5
28CFB
  8
ALPHA
 10
2518.779913
 20
626.443232
 30
0.0
 11
2518.879913
 21
626.443232
 31
0.0
  0
POLYLINE
  5
28CFC
  8
ALPHA
 66
     1
 10
0.0
 20
0.0
 30
0.0
  0
VERTEX
  5
2A3DF
  8
ALPHA
 10
2511.429913
 20
623.993232
 30
0.0
  0
VERTEX
  5
2A3E0
  8
ALPHA
 10
2510.868256
 20
624.106432
 30
0.0
  0
VERTEX
  5
2A3E1
  8
ALPHA
 10
2510.396458
 20
624.426146
 30
0.0
  0
VERTEX
  5
2A3E2
  8
ALPHA
 10
2510.087429
 20
624.8953
 30
0.0
  0
VERTEX
  5
2A3E3
  8
ALPHA
 10
2509.979913
 20
625.443232
 30
0.0
  0
VERTEX
  5
2A3E4
  8
ALPHA
 10
2510.087429
 20
625.991164
 30
0.0
  0
VERTEX
  5
2A3E5
  8
ALPHA
 10
2510.396458
 20
626.460319
 30
0.0
  0
VERTEX
  5
2A3E6
  8
ALPHA
 10
2510.868256
 20
626.780033
 30
0.0
  0
VERTEX
  5
2A3E7
  8
ALPHA
 10
2511.429913
 20
626.893232
 30
0.0
  0
SEQEND
  5
2A3E8
  8
ALPHA
  0
POLYLINE
  5
28D07
  8
ALPHA
 66
     1
 10
0.0
 20
0.0
 30
0.0
  0
VERTEX
  5
2A3E9
  8
ALPHA
 10
2511.429913
 20
623.888417
 30
0.0
  0
VERTEX
  5
2A3EA
  8
ALPHA
 10
2510.827913
 20
624.00965
 30
0.0
  0
VERTEX
  5
2A3EB
  8
ALPHA
 10
2510.322605
 20
624.351661
 30
0.0
  0
VERTEX
  5
2A3EC
  8
ALPHA
 10
2509.990429
 20
624.85535
 30
0.0
  0
VERTEX
  5
2A3ED
  8
ALPHA
 10
2509.875001
 20
625.443232
 30
0.0
  0
VERTEX
  5
2A3EE
  8
ALPHA
 10
2509.990429
 20
626.031114
 30
0.0
  0
VERTEX
  5
2A3EF
  8
ALPHA
 10
2510.322605
 20
626.534803
 30
0.0
  0
VERTEX
  5
2A3F0
  8
ALPHA
 10
2510.827913
 20
626.876814
 30
0.0
  0
VERTEX
  5
2A3F1
  8
ALPHA
 10
2511.429913
 20
626.998048
 30
0.0
  0
SEQEND
  5
2A3F2
  8
ALPHA
  0
LINE
  5
28D12
  8
ALPHA
 10
2511.429913
 20
611.956115
 30
0.0
 11
2511.429913
 21
611.893232
 31
0.0
  0
LINE
  5
28D13
  8
ALPHA
 10
2511.429913
 20
616.493232
 30
0.0
 11
2511.429913
 21
616.388417
 31
0.0
  0
LINE
  5
28D14
  8
ALPHA
 10
2511.429913
 20
608.930349
 30
0.0
 11
2511.429913
 21
608.993232
 31
0.0
  0
POLYLINE
  5
28D15
  8
ALPHA
 66
     1
 10
0.0
 20
0.0
 30
0.0
  0
VERTEX
  5
2A3F3
  8
ALPHA
 10
2511.429913
 20
611.893232
 30
0.0
  0
VERTEX
  5
2A3F4
  8
ALPHA
 10
2510.868247
 20
611.780029
 30
0.0
  0
VERTEX
  5
2A3F5
  8
ALPHA
 10
2510.396445
 20
611.460305
 30
0.0
  0
VERTEX
  5
2A3F6
  8
ALPHA
 10
2510.087429
 20
610.991162
 30
0.0
  0
VERTEX
  5
2A3F7
  8
ALPHA
 10
2509.979913
 20
610.443232
 30
0.0
  0
VERTEX
  5
2A3F8
  8
ALPHA
 10
2510.087429
 20
609.895302
 30
0.0
  0
VERTEX
  5
2A3F9
  8
ALPHA
 10
2510.396445
 20
609.426159
 30
0.0
  0
VERTEX
  5
2A3FA
  8
ALPHA
 10
2510.868247
 20
609.106435
 30
0.0
  0
VERTEX
  5
2A3FB
  8
ALPHA
 10
2511.429913
 20
608.993232
 30
0.0
  0
SEQEND
  5
2A3FC
  8
ALPHA
  0
POLYLINE
  5
28D20
  8
ALPHA
 66
     1
 10
0.0
 20
0.0
 30
0.0
  0
VERTEX
  5
2A3FD
  8
ALPHA
 10
2511.429913
 20
611.956115
 30
0.0
  0
VERTEX
  5
2A3FE
  8
ALPHA
 10
2510.844042
 20
611.838091
 30
0.0
  0
VERTEX
  5
2A3FF
  8
ALPHA
 10
2510.352142
 20
611.504996
 30
0.0
  0
VERTEX
  5
2A400
  8
ALPHA
 10
2510.029236
 20
611.015133
 30
0.0
  0
VERTEX
  5
2A401
  8
ALPHA
 10
2509.916972
 20
610.443232
 30
0.0
  0
VERTEX
  5
2A402
  8
ALPHA
 10
2510.029236
 20
609.871332
 30
0.0
  0
VERTEX
  5
2A403
  8
ALPHA
 10
2510.352142
 20
609.381468
 30
0.0
  0
VERTEX
  5
2A404
  8
ALPHA
 10
2510.844042
 20
609.048373
 30
0.0
  0
VERTEX
  5
2A405
  8
ALPHA
 10
2511.429913
 20
608.930349
 30
0.0
  0
SEQEND
  5
2A406
  8
ALPHA
  0
POLYLINE
  5
28D2B
  8
ALPHA
 66
     1
 10
0.0
 20
0.0
 30
0.0
  0
VERTEX
  5
2A407
  8
ALPHA
 10
2511.429913
 20
596.893232
 30
0.0
  0
VERTEX
  5
2A408
  8
ALPHA
 10
2510.868247
 20
596.780029
 30
0.0
  0
VERTEX
  5
2A409
  8
ALPHA
 10
2510.396444
 20
596.460305
 30
0.0
  0
VERTEX
  5
2A40A
  8
ALPHA
 10
2510.087428
 20
595.991162
 30
0.0
  0
VERTEX
  5
2A40B
  8
ALPHA
 10
2509.979913
 20
595.443232
 30
0.0
  0
VERTEX
  5
2A40C
  8
ALPHA
 10
2510.087429
 20
594.895302
 30
0.0
  0
VERTEX
  5
2A40D
  8
ALPHA
 10
2510.396445
 20
594.426159
 30
0.0
  0
VERTEX
  5
2A40E
  8
ALPHA
 10
2510.868247
 20
594.106435
 30
0.0
  0
VERTEX
  5
2A40F
  8
ALPHA
 10
2511.429913
 20
593.993232
 30
0.0
  0
SEQEND
  5
2A410
  8
ALPHA
  0
POLYLINE
  5
28D36
  8
ALPHA
 66
     1
 10
0.0
 20
0.0
 30
0.0
  0
VERTEX
  5
2A411
  8
ALPHA
 10
2511.429913
 20
596.956115
 30
0.0
  0
VERTEX
  5
2A412
  8
ALPHA
 10
2510.844042
 20
596.838091
 30
0.0
  0
VERTEX
  5
2A413
  8
ALPHA
 10
2510.352142
 20
596.504996
 30
0.0
  0
VERTEX
  5
2A414
  8
ALPHA
 10
2510.029236
 20
596.015133
 30
0.0
  0
VERTEX
  5
2A415
  8
ALPHA
 10
2509.916972
 20
595.443232
 30
0.0
  0
VERTEX
  5
2A416
  8
ALPHA
 10
2510.029236
 20
594.871332
 30
0.0
  0
VERTEX
  5
2A417
  8
ALPHA
 10
2510.352142
 20
594.381468
 30
0.0
  0
VERTEX
  5
2A418
  8
ALPHA
 10
2510.844042
 20
594.048373
 30
0.0
  0
VERTEX
  5
2A419
  8
ALPHA
 10
2511.429913
 20
593.930349
 30
0.0
  0
SEQEND
  5
2A41A
  8
ALPHA
  0
LINE
  5
28D41
  8
ALPHA
 10
2511.429913
 20
596.956115
 30
0.0
 11
2511.429913
 21
596.893232
 31
0.0
  0
LINE
  5
28D42
  8
ALPHA
 10
2511.429913
 20
604.456115
 30
0.0
 11
2511.429913
 21
604.393232
 31
0.0
  0
POLYLINE
  5
28D43
  8
ALPHA
 66
     1
 10
0.0
 20
0.0
 30
0.0
  0
VERTEX
  5
2A41B
  8
ALPHA
 10
2511.429913
 20
604.393232
 30
0.0
  0
VERTEX
  5
2A41C
  8
ALPHA
 10
2510.868247
 20
604.280029
 30
0.0
  0
VERTEX
  5
2A41D
  8
ALPHA
 10
2510.396445
 20
603.960305
 30
0.0
  0
VERTEX
  5
2A41E
  8
ALPHA
 10
2510.087429
 20
603.491162
 30
0.0
  0
VERTEX
  5
2A41F
  8
ALPHA
 10
2509.979913
 20
602.943232
 30
0.0
  0
VERTEX
  5
2A420
  8
ALPHA
 10
2510.087429
 20
602.395302
 30
0.0
  0
VERTEX
  5
2A421
  8
ALPHA
 10
2510.396445
 20
601.926159
 30
0.0
  0
VERTEX
  5
2A422
  8
ALPHA
 10
2510.868247
 20
601.606435
 30
0.0
  0
VERTEX
  5
2A423
  8
ALPHA
 10
2511.429913
 20
601.493232
 30
0.0
  0
SEQEND
  5
2A424
  8
ALPHA
  0
POLYLINE
  5
28D4E
  8
ALPHA
 66
     1
 10
0.0
 20
0.0
 30
0.0
  0
VERTEX
  5
2A425
  8
ALPHA
 10
2511.429913
 20
604.456115
 30
0.0
  0
VERTEX
  5
2A426
  8
ALPHA
 10
2510.844042
 20
604.338091
 30
0.0
  0
VERTEX
  5
2A427
  8
ALPHA
 10
2510.352142
 20
604.004996
 30
0.0
  0
VERTEX
  5
2A428
  8
ALPHA
 10
2510.029236
 20
603.515133
 30
0.0
  0
VERTEX
  5
2A429
  8
ALPHA
 10
2509.916972
 20
602.943232
 30
0.0
  0
VERTEX
  5
2A42A
  8
ALPHA
 10
2510.029236
 20
602.371332
 30
0.0
  0
VERTEX
  5
2A42B
  8
ALPHA
 10
2510.352142
 20
601.881468
 30
0.0
  0
VERTEX
  5
2A42C
  8
ALPHA
 10
2510.844042
 20
601.548373
 30
0.0
  0
VERTEX
  5
2A42D
  8
ALPHA
 10
2511.429913
 20
601.430349
 30
0.0
  0
SEQEND
  5
2A42E
  8
ALPHA
  0
LINE
  5
28D59
  8
ALPHA
 10
2519.579913
 20
588.800732
 30
0.0
 11
2519.579913
 21
589.393232
 31
0.0
  0
LINE
  5
28D5A
  8
ALPHA
 10
2518.779913
 20
589.043232
 30
0.0
 11
2518.779913
 21
589.393232
 31
0.0
  0
LINE
  5
28D5B
  8
ALPHA
 10
2518.779913
 20
588.243232
 30
0.0
 11
2518.779913
 21
588.800732
 31
0.0
  0
LINE
  5
28D5C
  8
ALPHA
 10
2518.079913
 20
586.493232
 30
0.0
 11
2518.079913
 21
589.393232
 31
0.0
  0
LINE
  5
28D5D
  8
ALPHA
 10
2516.479913
 20
589.393232
 30
0.0
 11
2516.479913
 21
586.493232
 31
0.0
  0
LINE
  5
28D5E
  8
ALPHA
 10
2511.429913
 20
586.493232
 30
0.0
 11
2511.429913
 21
586.388417
 31
0.0
  0
LINE
  5
28D5F
  8
ALPHA
 10
2511.429913
 20
589.393232
 30
0.0
 11
2511.429913
 21
589.498048
 31
0.0
  0
LINE
  5
28D60
  8
ALPHA
 10
2518.779913
 20
588.243232
 30
0.0
 11
2518.079913
 21
588.243232
 31
0.0
  0
LINE
  5
28D61
  8
ALPHA
 10
2519.579913
 20
588.800732
 30
0.0
 11
2518.079913
 21
588.800732
 31
0.0
  0
LINE
  5
28D62
  8
ALPHA
 10
2518.779913
 20
589.043232
 30
0.0
 11
2518.079913
 21
589.043232
 31
0.0
  0
LINE
  5
28D63
  8
ALPHA
 10
2518.779913
 20
589.243232
 30
0.0
 11
2518.079913
 21
589.243232
 31
0.0
  0
POLYLINE
  5
28D64
  8
ALPHA
 66
     1
 10
0.0
 20
0.0
 30
0.0
  0
VERTEX
  5
2A42F
  8
ALPHA
 10
2511.429913
 20
586.493232
 30
0.0
  0
VERTEX
  5
2A430
  8
ALPHA
 10
2510.868256
 20
586.606432
 30
0.0
  0
VERTEX
  5
2A431
  8
ALPHA
 10
2510.396458
 20
586.926146
 30
0.0
  0
VERTEX
  5
2A432
  8
ALPHA
 10
2510.087429
 20
587.3953
 30
0.0
  0
VERTEX
  5
2A433
  8
ALPHA
 10
2509.979913
 20
587.943232
 30
0.0
  0
VERTEX
  5
2A434
  8
ALPHA
 10
2510.087429
 20
588.491164
 30
0.0
  0
VERTEX
  5
2A435
  8
ALPHA
 10
2510.396458
 20
588.960319
 30
0.0
  0
VERTEX
  5
2A436
  8
ALPHA
 10
2510.868256
 20
589.280033
 30
0.0
  0
VERTEX
  5
2A437
  8
ALPHA
 10
2511.429913
 20
589.393232
 30
0.0
  0
SEQEND
  5
2A438
  8
ALPHA
  0
POLYLINE
  5
28D6F
  8
ALPHA
 66
     1
 10
0.0
 20
0.0
 30
0.0
  0
VERTEX
  5
2A439
  8
ALPHA
 10
2511.429913
 20
586.388417
 30
0.0
  0
VERTEX
  5
2A43A
  8
ALPHA
 10
2510.827913
 20
586.50965
 30
0.0
  0
VERTEX
  5
2A43B
  8
ALPHA
 10
2510.322605
 20
586.851661
 30
0.0
  0
VERTEX
  5
2A43C
  8
ALPHA
 10
2509.990429
 20
587.35535
 30
0.0
  0
VERTEX
  5
2A43D
  8
ALPHA
 10
2509.875001
 20
587.943232
 30
0.0
  0
VERTEX
  5
2A43E
  8
ALPHA
 10
2509.990429
 20
588.531114
 30
0.0
  0
VERTEX
  5
2A43F
  8
ALPHA
 10
2510.322605
 20
589.034803
 30
0.0
  0
VERTEX
  5
2A440
  8
ALPHA
 10
2510.827913
 20
589.376814
 30
0.0
  0
VERTEX
  5
2A441
  8
ALPHA
 10
2511.429913
 20
589.498048
 30
0.0
  0
SEQEND
  5
2A442
  8
ALPHA
  0
ARC
  5
28D7A
  8
ALPHA
 10
2520.224921
 20
573.692108
 30
0.0
 40
1.5
 50
271.0
 51
318.477787
  0
POLYLINE
  5
28D7B
  8
ALPHA
 66
     1
 10
0.0
 20
0.0
 30
0.0
  0
VERTEX
  5
2A443
  8
ALPHA
 10
2520.251099
 20
572.192337
 30
0.0
  0
VERTEX
  5
2A444
  8
ALPHA
 10
2520.259121
 20
572.306631
 30
0.0
  0
VERTEX
  5
2A445
  8
ALPHA
 10
2520.261937
 20
572.631771
 30
0.0
  0
VERTEX
  5
2A446
  8
ALPHA
 10
2520.259121
 20
573.118276
 30
0.0
  0
VERTEX
  5
2A447
  8
ALPHA
 10
2520.251099
 20
573.692108
 30
0.0
  0
SEQEND
  5
2A448
  8
ALPHA
  0
LINE
  5
28D82
  8
ALPHA
 10
2520.251099
 20
572.192337
 30
0.0
 11
2505.979913
 21
571.943232
 31
0.0
  0
LINE
  5
28D83
  8
ALPHA
 10
2520.251099
 20
573.692108
 30
0.0
 11
2505.979913
 21
573.443004
 31
0.0
  0
POLYLINE
  5
28D84
  8
ALPHA
 66
     1
 10
0.0
 20
0.0
 30
0.0
  0
VERTEX
  5
2A449
  8
ALPHA
 10
2521.347969
 20
572.697743
 30
0.0
  0
VERTEX
  5
2A44A
  8
ALPHA
 10
2521.267975
 20
572.777386
 30
0.0
  0
VERTEX
  5
2A44B
  8
ALPHA
 10
2521.03094
 20
572.994758
 30
0.0
  0
VERTEX
  5
2A44C
  8
ALPHA
 10
2520.672747
 20
573.316948
 30
0.0
  0
VERTEX
  5
2A44D
  8
ALPHA
 10
2520.251099
 20
573.692108
 30
0.0
  0
SEQEND
  5
2A44E
  8
ALPHA
  0
LINE
  5
28D8B
  8
ALPHA
 10
2507.479913
 20
561.011859
 30
0.0
 11
2507.479913
 21
561.043216
 31
0.0
  0
LINE
  5
28D8C
  8
ALPHA
 10
2508.008116
 20
561.011859
 30
0.0
 11
2507.479913
 21
561.011859
 31
0.0
  0
LINE
  5
28D8D
  8
ALPHA
 10
2507.479913
 20
561.043232
 30
0.0
 11
2505.979913
 21
561.043232
 31
0.0
  0
LINE
  5
28D8E
  8
ALPHA
 10
2508.236511
 20
560.583396
 30
0.0
 11
2508.008116
 21
561.011859
 31
0.0
  0
POLYLINE
  5
28D8F
  8
ALPHA
 66
     1
 10
0.0
 20
0.0
 30
0.0
  0
VERTEX
  5
2A44F
  8
ALPHA
 10
2534.00707
 20
607.402224
 30
0.0
  0
VERTEX
  5
2A450
  8
ALPHA
 10
2534.194552
 20
607.914983
 30
0.0
  0
VERTEX
  5
2A451
  8
ALPHA
 10
2534.392901
 20
608.088603
 30
0.0
  0
VERTEX
  5
2A452
  8
ALPHA
 10
2534.587582
 20
607.908183
 30
0.0
  0
VERTEX
  5
2A453
  8
ALPHA
 10
2534.765302
 20
607.386249
 30
0.0
  0
VERTEX
  5
2A454
  8
ALPHA
 10
2534.914458
 20
606.562503
 30
0.0
  0
VERTEX
  5
2A455
  8
ALPHA
 10
2535.02662
 20
605.496483
 30
0.0
  0
VERTEX
  5
2A456
  8
ALPHA
 10
2535.096048
 20
604.262015
 30
0.0
  0
VERTEX
  5
2A457
  8
ALPHA
 10
2535.119502
 20
602.943232
 30
0.0
  0
SEQEND
  5
2A458
  8
ALPHA
  0
POLYLINE
  5
28D9A
  8
ALPHA
 66
     1
 10
0.0
 20
0.0
 30
0.0
  0
VERTEX
  5
2A459
  8
ALPHA
 10
2533.60775
 20
602.943232
 30
0.0
  0
VERTEX
  5
2A45A
  8
ALPHA
 10
2533.63541
 20
604.27643
 30
0.0
  0
VERTEX
  5
2A45B
  8
ALPHA
 10
2533.716412
 20
605.521591
 30
0.0
  0
VERTEX
  5
2A45C
  8
ALPHA
 10
2533.843617
 20
606.58633
 30
0.0
  0
VERTEX
  5
2A45D
  8
ALPHA
 10
2534.00707
 20
607.402224
 30
0.0
  0
SEQEND
  5
2A45E
  8
ALPHA
  0
LINE
  5
28DA1
  8
ALPHA
 10
2539.679913
 20
629.671611
 30
0.0
 11
2539.679913
 21
583.196245
 31
0.0
  0
POLYLINE
  5
28DA2
  8
ALPHA
 66
     1
 10
0.0
 20
0.0
 30
0.0
  0
VERTEX
  5
2A45F
  8
ALPHA
 10
2533.619859
 20
602.943232
 30
0.0
  0
VERTEX
  5
2A460
  8
ALPHA
 10
2533.621159
 20
603.230754
 30
0.0
  0
VERTEX
  5
2A461
  8
ALPHA
 10
2533.637767
 20
604.00207
 30
0.0
  0
VERTEX
  5
2A462
  8
ALPHA
 10
2533.671754
 20
604.727859
 30
0.0
  0
VERTEX
  5
2A463
  8
ALPHA
 10
2533.720659
 20
605.391316
 30
0.0
  0
VERTEX
  5
2A464
  8
ALPHA
 10
2533.781467
 20
605.978632
 30
0.0
  0
VERTEX
  5
2A465
  8
ALPHA
 10
2533.850609
 20
606.478701
 30
0.0
  0
VERTEX
  5
2A466
  8
ALPHA
 10
2533.923723
 20
606.882627
 30
0.0
  0
VERTEX
  5
2A467
  8
ALPHA
 10
2533.995055
 20
607.183268
 30
0.0
  0
VERTEX
  5
2A468
  8
ALPHA
 10
2534.054426
 20
607.370486
 30
0.0
  0
VERTEX
  5
2A469
  8
ALPHA
 10
2534.068021
 20
607.404461
 30
0.0
  0
SEQEND
  5
2A46A
  8
ALPHA
  0
POLYLINE
  5
28DAF
  8
ALPHA
 66
     1
 10
0.0
 20
0.0
 30
0.0
  0
VERTEX
  5
2A46B
  8
ALPHA
 10
2533.832377
 20
606.346839
 30
0.0
  0
VERTEX
  5
2A46C
  8
ALPHA
 10
2533.941628
 20
605.859379
 30
0.0
  0
VERTEX
  5
2A46D
  8
ALPHA
 10
2534.053453
 20
605.00067
 30
0.0
  0
VERTEX
  5
2A46E
  8
ALPHA
 10
2534.122686
 20
604.006021
 30
0.0
  0
VERTEX
  5
2A46F
  8
ALPHA
 10
2534.146075
 20
602.943232
 30
0.0
  0
SEQEND
  5
2A470
  8
ALPHA
  0
POLYLINE
  5
28DB6
  8
ALPHA
 66
     1
 10
0.0
 20
0.0
 30
0.0
  0
VERTEX
  5
2A471
  8
ALPHA
 10
2537.98291
 20
636.206431
 30
0.0
  0
VERTEX
  5
2A472
  8
ALPHA
 10
2538.179477
 20
633.43036
 30
0.0
  0
VERTEX
  5
2A473
  8
ALPHA
 10
2538.427087
 20
631.07401
 30
0.0
  0
VERTEX
  5
2A474
  8
ALPHA
 10
2538.701979
 20
629.219638
 30
0.0
  0
VERTEX
  5
2A475
  8
ALPHA
 10
2538.984276
 20
627.932787
 30
0.0
  0
VERTEX
  5
2A476
  8
ALPHA
 10
2539.248246
 20
627.275784
 30
0.0
  0
VERTEX
  5
2A477
  8
ALPHA
 10
2539.383677
 20
627.184312
 30
0.0
  0
SEQEND
  5
2A478
  8
ALPHA
  0
POLYLINE
  5
28DBF
  8
ALPHA
 66
     1
 10
0.0
 20
0.0
 30
0.0
  0
VERTEX
  5
2A479
  8
ALPHA
 10
2537.715686
 20
644.550677
 30
0.0
  0
VERTEX
  5
2A47A
  8
ALPHA
 10
2537.768891
 20
641.461809
 30
0.0
  0
VERTEX
  5
2A47B
  8
ALPHA
 10
2537.85656
 20
638.74702
 30
0.0
  0
VERTEX
  5
2A47C
  8
ALPHA
 10
2537.98291
 20
636.206431
 30
0.0
  0
SEQEND
  5
2A47D
  8
ALPHA
  0
LINE
  5
28DC5
  8
ALPHA
 10
2539.679913
 20
644.56849
 30
0.0
 11
2537.715686
 21
644.550677
 31
0.0
  0
LINE
  5
28DC6
  8
ALPHA
 10
2527.779913
 20
640.493232
 30
0.0
 11
2527.779913
 21
641.842846
 31
0.0
  0
POLYLINE
  5
28DC7
  8
ALPHA
 66
     1
 10
0.0
 20
0.0
 30
0.0
  0
VERTEX
  5
2A47E
  8
ALPHA
 10
2527.529913
 20
641.893232
 30
0.0
  0
VERTEX
  5
2A47F
  8
ALPHA
 10
2528.09157
 20
641.780033
 30
0.0
  0
VERTEX
  5
2A480
  8
ALPHA
 10
2528.563368
 20
641.460319
 30
0.0
  0
VERTEX
  5
2A481
  8
ALPHA
 10
2528.872396
 20
640.991164
 30
0.0
  0
VERTEX
  5
2A482
  8
ALPHA
 10
2528.979913
 20
640.443232
 30
0.0
  0
VERTEX
  5
2A483
  8
ALPHA
 10
2528.872396
 20
639.8953
 30
0.0
  0
VERTEX
  5
2A484
  8
ALPHA
 10
2528.563368
 20
639.426146
 30
0.0
  0
VERTEX
  5
2A485
  8
ALPHA
 10
2528.09157
 20
639.106432
 30
0.0
  0
VERTEX
  5
2A486
  8
ALPHA
 10
2527.529913
 20
638.993232
 30
0.0
  0
SEQEND
  5
2A487
  8
ALPHA
  0
POLYLINE
  5
28DD2
  8
ALPHA
 66
     1
 10
0.0
 20
0.0
 30
0.0
  0
VERTEX
  5
2A488
  8
ALPHA
 10
2527.529913
 20
641.998048
 30
0.0
  0
VERTEX
  5
2A489
  8
ALPHA
 10
2528.131854
 20
641.876758
 30
0.0
  0
VERTEX
  5
2A48A
  8
ALPHA
 10
2528.637098
 20
641.534733
 30
0.0
  0
VERTEX
  5
2A48B
  8
ALPHA
 10
2528.969223
 20
641.03107
 30
0.0
  0
VERTEX
  5
2A48C
  8
ALPHA
 10
2529.084633
 20
640.443232
 30
0.0
  0
VERTEX
  5
2A48D
  8
ALPHA
 10
2528.969223
 20
639.855395
 30
0.0
  0
VERTEX
  5
2A48E
  8
ALPHA
 10
2528.637098
 20
639.351731
 30
0.0
  0
VERTEX
  5
2A48F
  8
ALPHA
 10
2528.131854
 20
639.009706
 30
0.0
  0
VERTEX
  5
2A490
  8
ALPHA
 10
2527.529913
 20
638.888417
 30
0.0
  0
SEQEND
  5
2A491
  8
ALPHA
  0
LINE
  5
28DDD
  8
ALPHA
 10
2527.529913
 20
649.393232
 30
0.0
 11
2527.529913
 21
649.330349
 31
0.0
  0
LINE
  5
28DDE
  8
ALPHA
 10
2527.529913
 20
646.493232
 30
0.0
 11
2527.529913
 21
646.556115
 31
0.0
  0
LINE
  5
28DDF
  8
ALPHA
 10
2527.529913
 20
641.893232
 30
0.0
 11
2527.529913
 21
641.998048
 31
0.0
  0
POLYLINE
  5
28DE0
  8
ALPHA
 66
     1
 10
0.0
 20
0.0
 30
0.0
  0
VERTEX
  5
2A492
  8
ALPHA
 10
2527.529913
 20
646.493232
 30
0.0
  0
VERTEX
  5
2A493
  8
ALPHA
 10
2528.09157
 20
646.606432
 30
0.0
  0
VERTEX
  5
2A494
  8
ALPHA
 10
2528.563368
 20
646.926146
 30
0.0
  0
VERTEX
  5
2A495
  8
ALPHA
 10
2528.872396
 20
647.3953
 30
0.0
  0
VERTEX
  5
2A496
  8
ALPHA
 10
2528.979913
 20
647.943232
 30
0.0
  0
VERTEX
  5
2A497
  8
ALPHA
 10
2528.872396
 20
648.491164
 30
0.0
  0
VERTEX
  5
2A498
  8
ALPHA
 10
2528.563368
 20
648.960319
 30
0.0
  0
VERTEX
  5
2A499
  8
ALPHA
 10
2528.09157
 20
649.280033
 30
0.0
  0
VERTEX
  5
2A49A
  8
ALPHA
 10
2527.529913
 20
649.393232
 30
0.0
  0
SEQEND
  5
2A49B
  8
ALPHA
  0
POLYLINE
  5
28DEB
  8
ALPHA
 66
     1
 10
0.0
 20
0.0
 30
0.0
  0
VERTEX
  5
2A49C
  8
ALPHA
 10
2527.529913
 20
646.556115
 30
0.0
  0
VERTEX
  5
2A49D
  8
ALPHA
 10
2528.067223
 20
646.664386
 30
0.0
  0
VERTEX
  5
2A49E
  8
ALPHA
 10
2528.518563
 20
646.97021
 30
0.0
  0
VERTEX
  5
2A49F
  8
ALPHA
 10
2528.814225
 20
647.419041
 30
0.0
  0
VERTEX
  5
2A4A0
  8
ALPHA
 10
2528.917087
 20
647.943232
 30
0.0
  0
VERTEX
  5
2A4A1
  8
ALPHA
 10
2528.814225
 20
648.467423
 30
0.0
  0
VERTEX
  5
2A4A2
  8
ALPHA
 10
2528.518563
 20
648.916254
 30
0.0
  0
VERTEX
  5
2A4A3
  8
ALPHA
 10
2528.067223
 20
649.222079
 30
0.0
  0
VERTEX
  5
2A4A4
  8
ALPHA
 10
2527.529913
 20
649.330349
 30
0.0
  0
SEQEND
  5
2A4A5
  8
ALPHA
  0
LINE
  5
28DF6
  8
ALPHA
 10
2527.529913
 20
631.493232
 30
0.0
 11
2527.529913
 21
631.388417
 31
0.0
  0
LINE
  5
28DF7
  8
ALPHA
 10
2527.529913
 20
638.993232
 30
0.0
 11
2527.529913
 21
638.888417
 31
0.0
  0
LINE
  5
28DF8
  8
ALPHA
 10
2527.529913
 20
634.393232
 30
0.0
 11
2527.529913
 21
634.498048
 31
0.0
  0
LINE
  5
28DF9
  8
ALPHA
 10
2528.93045
 20
640.695307
 30
0.0
 11
2527.777583
 21
640.681002
 31
0.0
  0
POLYLINE
  5
28DFA
  8
ALPHA
 66
     1
 10
0.0
 20
0.0
 30
0.0
  0
VERTEX
  5
2A4A6
  8
ALPHA
 10
2527.529913
 20
634.393232
 30
0.0
  0
VERTEX
  5
2A4A7
  8
ALPHA
 10
2528.09157
 20
634.280033
 30
0.0
  0
VERTEX
  5
2A4A8
  8
ALPHA
 10
2528.563368
 20
633.960319
 30
0.0
  0
VERTEX
  5
2A4A9
  8
ALPHA
 10
2528.872396
 20
633.491164
 30
0.0
  0
VERTEX
  5
2A4AA
  8
ALPHA
 10
2528.979913
 20
632.943232
 30
0.0
  0
VERTEX
  5
2A4AB
  8
ALPHA
 10
2528.872396
 20
632.3953
 30
0.0
  0
VERTEX
  5
2A4AC
  8
ALPHA
 10
2528.563368
 20
631.926146
 30
0.0
  0
VERTEX
  5
2A4AD
  8
ALPHA
 10
2528.09157
 20
631.606432
 30
0.0
  0
VERTEX
  5
2A4AE
  8
ALPHA
 10
2527.529913
 20
631.493232
 30
0.0
  0
SEQEND
  5
2A4AF
  8
ALPHA
  0
POLYLINE
  5
28E05
  8
ALPHA
 66
     1
 10
0.0
 20
0.0
 30
0.0
  0
VERTEX
  5
2A4B0
  8
ALPHA
 10
2527.529913
 20
634.498048
 30
0.0
  0
VERTEX
  5
2A4B1
  8
ALPHA
 10
2528.131854
 20
634.376758
 30
0.0
  0
VERTEX
  5
2A4B2
  8
ALPHA
 10
2528.637098
 20
634.034733
 30
0.0
  0
VERTEX
  5
2A4B3
  8
ALPHA
 10
2528.969223
 20
633.53107
 30
0.0
  0
VERTEX
  5
2A4B4
  8
ALPHA
 10
2529.084633
 20
632.943232
 30
0.0
  0
VERTEX
  5
2A4B5
  8
ALPHA
 10
2528.969223
 20
632.355395
 30
0.0
  0
VERTEX
  5
2A4B6
  8
ALPHA
 10
2528.637098
 20
631.851731
 30
0.0
  0
VERTEX
  5
2A4B7
  8
ALPHA
 10
2528.131854
 20
631.509706
 30
0.0
  0
VERTEX
  5
2A4B8
  8
ALPHA
 10
2527.529913
 20
631.388417
 30
0.0
  0
SEQEND
  5
2A4B9
  8
ALPHA
  0
POLYLINE
  5
28E10
  8
ALPHA
 66
     1
 10
0.0
 20
0.0
 30
0.0
  0
VERTEX
  5
2A4BA
  8
ALPHA
 10
2521.753537
 20
634.393232
 30
0.0
  0
VERTEX
  5
2A4BB
  8
ALPHA
 10
2522.961312
 20
633.986596
 30
0.0
  0
VERTEX
  5
2A4BC
  8
ALPHA
 10
2525.38634
 20
633.171807
 30
0.0
  0
VERTEX
  5
2A4BD
  8
ALPHA
 10
2528.660227
 20
632.073193
 30
0.0
  0
SEQEND
  5
2A4BE
  8
ALPHA
  0
LINE
  5
28E16
  8
ALPHA
 10
2539.679913
 20
636.343232
 30
0.0
 11
2537.98291
 21
636.206431
 31
0.0
  0
LINE
  5
28E17
  8
ALPHA
 10
2526.879913
 20
616.493232
 30
0.0
 11
2526.879913
 21
619.393232
 31
0.0
  0
POLYLINE
  5
28E18
  8
ALPHA
 66
     1
 10
0.0
 20
0.0
 30
0.0
  0
VERTEX
  5
2A4BF
  8
ALPHA
 10
2527.529913
 20
619.393232
 30
0.0
  0
VERTEX
  5
2A4C0
  8
ALPHA
 10
2528.09157
 20
619.280033
 30
0.0
  0
VERTEX
  5
2A4C1
  8
ALPHA
 10
2528.563368
 20
618.960319
 30
0.0
  0
VERTEX
  5
2A4C2
  8
ALPHA
 10
2528.872396
 20
618.491164
 30
0.0
  0
VERTEX
  5
2A4C3
  8
ALPHA
 10
2528.979913
 20
617.943232
 30
0.0
  0
VERTEX
  5
2A4C4
  8
ALPHA
 10
2528.872396
 20
617.3953
 30
0.0
  0
VERTEX
  5
2A4C5
  8
ALPHA
 10
2528.563368
 20
616.926146
 30
0.0
  0
VERTEX
  5
2A4C6
  8
ALPHA
 10
2528.09157
 20
616.606432
 30
0.0
  0
VERTEX
  5
2A4C7
  8
ALPHA
 10
2527.529913
 20
616.493232
 30
0.0
  0
SEQEND
  5
2A4C8
  8
ALPHA
  0
POLYLINE
  5
28E23
  8
ALPHA
 66
     1
 10
0.0
 20
0.0
 30
0.0
  0
VERTEX
  5
2A4C9
  8
ALPHA
 10
2527.529913
 20
619.498048
 30
0.0
  0
VERTEX
  5
2A4CA
  8
ALPHA
 10
2528.131854
 20
619.376758
 30
0.0
  0
VERTEX
  5
2A4CB
  8
ALPHA
 10
2528.637098
 20
619.034733
 30
0.0
  0
VERTEX
  5
2A4CC
  8
ALPHA
 10
2528.969223
 20
618.53107
 30
0.0
  0
VERTEX
  5
2A4CD
  8
ALPHA
 10
2529.084633
 20
617.943232
 30
0.0
  0
VERTEX
  5
2A4CE
  8
ALPHA
 10
2528.969223
 20
617.355395
 30
0.0
  0
VERTEX
  5
2A4CF
  8
ALPHA
 10
2528.637098
 20
616.851731
 30
0.0
  0
VERTEX
  5
2A4D0
  8
ALPHA
 10
2528.131854
 20
616.509706
 30
0.0
  0
VERTEX
  5
2A4D1
  8
ALPHA
 10
2527.529913
 20
616.388417
 30
0.0
  0
SEQEND
  5
2A4D2
  8
ALPHA
  0
LINE
  5
28E2E
  8
ALPHA
 10
2527.529913
 20
623.993232
 30
0.0
 11
2527.529913
 21
623.888417
 31
0.0
  0
LINE
  5
28E2F
  8
ALPHA
 10
2527.529913
 20
626.893232
 30
0.0
 11
2527.529913
 21
626.998048
 31
0.0
  0
LINE
  5
28E30
  8
ALPHA
 10
2527.529913
 20
619.393232
 30
0.0
 11
2527.529913
 21
619.498048
 31
0.0
  0
LINE
  5
28E31
  8
ALPHA
 10
2526.879913
 20
623.993232
 30
0.0
 11
2526.879913
 21
624.893232
 31
0.0
  0
LINE
  5
28E32
  8
ALPHA
 10
2522.079913
 20
624.893232
 30
0.0
 11
2522.079913
 21
626.893232
 31
0.0
  0
LINE
  5
28E33
  8
ALPHA
 10
2522.079913
 20
625.260732
 30
0.0
 11
2528.944102
 21
625.260732
 31
0.0
  0
POLYLINE
  5
28E34
  8
ALPHA
 66
     1
 10
0.0
 20
0.0
 30
0.0
  0
VERTEX
  5
2A4D3
  8
ALPHA
 10
2527.529913
 20
626.893232
 30
0.0
  0
VERTEX
  5
2A4D4
  8
ALPHA
 10
2528.09157
 20
626.780033
 30
0.0
  0
VERTEX
  5
2A4D5
  8
ALPHA
 10
2528.563368
 20
626.460319
 30
0.0
  0
VERTEX
  5
2A4D6
  8
ALPHA
 10
2528.872396
 20
625.991164
 30
0.0
  0
VERTEX
  5
2A4D7
  8
ALPHA
 10
2528.979913
 20
625.443232
 30
0.0
  0
VERTEX
  5
2A4D8
  8
ALPHA
 10
2528.872396
 20
624.8953
 30
0.0
  0
VERTEX
  5
2A4D9
  8
ALPHA
 10
2528.563368
 20
624.426146
 30
0.0
  0
VERTEX
  5
2A4DA
  8
ALPHA
 10
2528.09157
 20
624.106432
 30
0.0
  0
VERTEX
  5
2A4DB
  8
ALPHA
 10
2527.529913
 20
623.993232
 30
0.0
  0
SEQEND
  5
2A4DC
  8
ALPHA
  0
POLYLINE
  5
28E3F
  8
ALPHA
 66
     1
 10
0.0
 20
0.0
 30
0.0
  0
VERTEX
  5
2A4DD
  8
ALPHA
 10
2527.529913
 20
626.998048
 30
0.0
  0
VERTEX
  5
2A4DE
  8
ALPHA
 10
2528.131854
 20
626.876758
 30
0.0
  0
VERTEX
  5
2A4DF
  8
ALPHA
 10
2528.637098
 20
626.534733
 30
0.0
  0
VERTEX
  5
2A4E0
  8
ALPHA
 10
2528.969223
 20
626.03107
 30
0.0
  0
VERTEX
  5
2A4E1
  8
ALPHA
 10
2529.084633
 20
625.443232
 30
0.0
  0
VERTEX
  5
2A4E2
  8
ALPHA
 10
2528.969223
 20
624.855395
 30
0.0
  0
VERTEX
  5
2A4E3
  8
ALPHA
 10
2528.637098
 20
624.351731
 30
0.0
  0
VERTEX
  5
2A4E4
  8
ALPHA
 10
2528.131854
 20
624.009706
 30
0.0
  0
VERTEX
  5
2A4E5
  8
ALPHA
 10
2527.529913
 20
623.888417
 30
0.0
  0
SEQEND
  5
2A4E6
  8
ALPHA
  0
LINE
  5
28E4A
  8
ALPHA
 10
2527.529913
 20
611.956115
 30
0.0
 11
2527.529913
 21
611.893232
 31
0.0
  0
LINE
  5
28E4B
  8
ALPHA
 10
2527.529913
 20
616.493232
 30
0.0
 11
2527.529913
 21
616.388417
 31
0.0
  0
POLYLINE
  5
28E4C
  8
ALPHA
 66
     1
 10
0.0
 20
0.0
 30
0.0
  0
VERTEX
  5
2A4E7
  8
ALPHA
 10
2527.529913
 20
608.930349
 30
0.0
  0
VERTEX
  5
2A4E8
  8
ALPHA
 10
2528.115748
 20
609.048407
 30
0.0
  0
VERTEX
  5
2A4E9
  8
ALPHA
 10
2528.60761
 20
609.38151
 30
0.0
  0
VERTEX
  5
2A4EA
  8
ALPHA
 10
2528.930486
 20
609.871358
 30
0.0
  0
VERTEX
  5
2A4EB
  8
ALPHA
 10
2529.042738
 20
610.443232
 30
0.0
  0
VERTEX
  5
2A4EC
  8
ALPHA
 10
2528.930486
 20
611.015106
 30
0.0
  0
VERTEX
  5
2A4ED
  8
ALPHA
 10
2528.60761
 20
611.504955
 30
0.0
  0
VERTEX
  5
2A4EE
  8
ALPHA
 10
2528.115748
 20
611.838058
 30
0.0
  0
VERTEX
  5
2A4EF
  8
ALPHA
 10
2527.529913
 20
611.956115
 30
0.0
  0
SEQEND
  5
2A4F0
  8
ALPHA
  0
POLYLINE
  5
28E57
  8
ALPHA
 66
     1
 10
0.0
 20
0.0
 30
0.0
  0
VERTEX
  5
2A4F1
  8
ALPHA
 10
2527.529913
 20
608.993232
 30
0.0
  0
VERTEX
  5
2A4F2
  8
ALPHA
 10
2528.091579
 20
609.106435
 30
0.0
  0
VERTEX
  5
2A4F3
  8
ALPHA
 10
2528.563381
 20
609.426159
 30
0.0
  0
VERTEX
  5
2A4F4
  8
ALPHA
 10
2528.872397
 20
609.895302
 30
0.0
  0
VERTEX
  5
2A4F5
  8
ALPHA
 10
2528.979913
 20
610.443232
 30
0.0
  0
VERTEX
  5
2A4F6
  8
ALPHA
 10
2528.872397
 20
610.991162
 30
0.0
  0
VERTEX
  5
2A4F7
  8
ALPHA
 10
2528.563381
 20
611.460305
 30
0.0
  0
VERTEX
  5
2A4F8
  8
ALPHA
 10
2528.091579
 20
611.780029
 30
0.0
  0
VERTEX
  5
2A4F9
  8
ALPHA
 10
2527.529913
 20
611.893232
 30
0.0
  0
SEQEND
  5
2A4FA
  8
ALPHA
  0
LINE
  5
28E62
  8
ALPHA
 10
2539.383677
 20
627.184201
 30
0.0
 11
2539.679913
 21
627.225834
 31
0.0
  0
ARC
  5
28E63
  8
ALPHA
 10
2538.179875
 20
583.200556
 30
0.0
 40
1.5
 50
271.0
 51
360.0
  0
POLYLINE
  5
28E64
  8
ALPHA
 66
     1
 10
0.0
 20
0.0
 30
0.0
  0
VERTEX
  5
2A4FB
  8
ALPHA
 10
2533.51416
 20
583.093256
 30
0.0
  0
VERTEX
  5
2A4FC
  8
ALPHA
 10
2533.403381
 20
582.5234
 30
0.0
  0
VERTEX
  5
2A4FD
  8
ALPHA
 10
2533.086832
 20
582.038786
 30
0.0
  0
VERTEX
  5
2A4FE
  8
ALPHA
 10
2532.612101
 20
581.712475
 30
0.0
  0
VERTEX
  5
2A4FF
  8
ALPHA
 10
2532.058836
 20
581.593484
 30
0.0
  0
SEQEND
  5
2A500
  8
ALPHA
  0
POLYLINE
  5
28E6B
  8
ALPHA
 66
     1
 10
0.0
 20
0.0
 30
0.0
  0
VERTEX
  5
2A501
  8
ALPHA
 10
2532.058836
 20
581.593484
 30
0.0
  0
VERTEX
  5
2A502
  8
ALPHA
 10
2532.066857
 20
581.707778
 30
0.0
  0
VERTEX
  5
2A503
  8
ALPHA
 10
2532.069674
 20
582.032918
 30
0.0
  0
VERTEX
  5
2A504
  8
ALPHA
 10
2532.066857
 20
582.519423
 30
0.0
  0
VERTEX
  5
2A505
  8
ALPHA
 10
2532.058836
 20
583.093256
 30
0.0
  0
SEQEND
  5
2A506
  8
ALPHA
  0
POLYLINE
  5
28E72
  8
ALPHA
 66
     1
 10
0.0
 20
0.0
 30
0.0
  0
VERTEX
  5
2A507
  8
ALPHA
 10
2529.41296
 20
581.5473
 30
0.0
  0
VERTEX
  5
2A508
  8
ALPHA
 10
2529.420981
 20
581.661594
 30
0.0
  0
VERTEX
  5
2A509
  8
ALPHA
 10
2529.423798
 20
581.986735
 30
0.0
  0
VERTEX
  5
2A50A
  8
ALPHA
 10
2529.420981
 20
582.473239
 30
0.0
  0
VERTEX
  5
2A50B
  8
ALPHA
 10
2529.41296
 20
583.047072
 30
0.0
  0
SEQEND
  5
2A50C
  8
ALPHA
  0
POLYLINE
  5
28E79
  8
ALPHA
 66
     1
 10
0.0
 20
0.0
 30
0.0
  0
VERTEX
  5
2A50D
  8
ALPHA
 10
2529.41296
 20
583.047072
 30
0.0
  0
VERTEX
  5
2A50E
  8
ALPHA
 10
2528.860106
 20
582.960204
 30
0.0
  0
VERTEX
  5
2A50F
  8
ALPHA
 10
2528.353815
 20
582.726902
 30
0.0
  0
VERTEX
  5
2A510
  8
ALPHA
 10
2527.92853
 20
582.363089
 30
0.0
  0
SEQEND
  5
2A511
  8
ALPHA
  0
LINE
  5
28E7F
  8
ALPHA
 10
2533.51416
 20
583.093261
 30
0.0
 11
2539.679913
 21
583.200549
 31
0.0
  0
POLYLINE
  5
28E80
  8
ALPHA
 66
     1
 10
0.0
 20
0.0
 30
0.0
  0
VERTEX
  5
2A512
  8
ALPHA
 10
2527.529913
 20
593.930349
 30
0.0
  0
VERTEX
  5
2A513
  8
ALPHA
 10
2528.115748
 20
594.048407
 30
0.0
  0
VERTEX
  5
2A514
  8
ALPHA
 10
2528.60761
 20
594.38151
 30
0.0
  0
VERTEX
  5
2A515
  8
ALPHA
 10
2528.930486
 20
594.871358
 30
0.0
  0
VERTEX
  5
2A516
  8
ALPHA
 10
2529.042738
 20
595.443232
 30
0.0
  0
VERTEX
  5
2A517
  8
ALPHA
 10
2528.930486
 20
596.015106
 30
0.0
  0
VERTEX
  5
2A518
  8
ALPHA
 10
2528.60761
 20
596.504955
 30
0.0
  0
VERTEX
  5
2A519
  8
ALPHA
 10
2528.115748
 20
596.838058
 30
0.0
  0
VERTEX
  5
2A51A
  8
ALPHA
 10
2527.529913
 20
596.956115
 30
0.0
  0
SEQEND
  5
2A51B
  8
ALPHA
  0
POLYLINE
  5
28E8B
  8
ALPHA
 66
     1
 10
0.0
 20
0.0
 30
0.0
  0
VERTEX
  5
2A51C
  8
ALPHA
 10
2527.529913
 20
593.993232
 30
0.0
  0
VERTEX
  5
2A51D
  8
ALPHA
 10
2528.091579
 20
594.106435
 30
0.0
  0
VERTEX
  5
2A51E
  8
ALPHA
 10
2528.563381
 20
594.426159
 30
0.0
  0
VERTEX
  5
2A51F
  8
ALPHA
 10
2528.872397
 20
594.895302
 30
0.0
  0
VERTEX
  5
2A520
  8
ALPHA
 10
2528.979913
 20
595.443232
 30
0.0
  0
VERTEX
  5
2A521
  8
ALPHA
 10
2528.872397
 20
595.991162
 30
0.0
  0
VERTEX
  5
2A522
  8
ALPHA
 10
2528.563381
 20
596.460305
 30
0.0
  0
VERTEX
  5
2A523
  8
ALPHA
 10
2528.091579
 20
596.780029
 30
0.0
  0
VERTEX
  5
2A524
  8
ALPHA
 10
2527.529913
 20
596.893232
 30
0.0
  0
SEQEND
  5
2A525
  8
ALPHA
  0
POLYLINE
  5
28E96
  8
ALPHA
 66
     1
 10
0.0
 20
0.0
 30
0.0
  0
VERTEX
  5
2A526
  8
ALPHA
 10
2534.146075
 20
602.943232
 30
0.0
  0
VERTEX
  5
2A527
  8
ALPHA
 10
2534.121758
 20
601.859866
 30
0.0
  0
VERTEX
  5
2A528
  8
ALPHA
 10
2534.05057
 20
600.856546
 30
0.0
  0
VERTEX
  5
2A529
  8
ALPHA
 10
2533.937052
 20
600.000534
 30
0.0
  0
VERTEX
  5
2A52A
  8
ALPHA
 10
2533.832412
 20
599.54232
 30
0.0
  0
SEQEND
  5
2A52B
  8
ALPHA
  0
POLYLINE
  5
28E9D
  8
ALPHA
 66
     1
 10
0.0
 20
0.0
 30
0.0
  0
VERTEX
  5
2A52C
  8
ALPHA
 10
2535.119502
 20
602.943232
 30
0.0
  0
VERTEX
  5
2A52D
  8
ALPHA
 10
2535.095415
 20
601.606988
 30
0.0
  0
VERTEX
  5
2A52E
  8
ALPHA
 10
2535.024331
 20
600.361247
 30
0.0
  0
VERTEX
  5
2A52F
  8
ALPHA
 10
2534.910775
 20
599.297484
 30
0.0
  0
VERTEX
  5
2A530
  8
ALPHA
 10
2534.761089
 20
598.482997
 30
0.0
  0
VERTEX
  5
2A531
  8
ALPHA
 10
2534.583781
 20
597.971196
 30
0.0
  0
VERTEX
  5
2A532
  8
ALPHA
 10
2534.38916
 20
597.797863
 30
0.0
  0
VERTEX
  5
2A533
  8
ALPHA
 10
2534.190622
 20
597.978543
 30
0.0
  0
VERTEX
  5
2A534
  8
ALPHA
 10
2534.002555
 20
598.501418
 30
0.0
  0
SEQEND
  5
2A535
  8
ALPHA
  0
LINE
  5
28EA8
  8
ALPHA
 10
2527.529913
 20
604.456115
 30
0.0
 11
2527.529912
 21
604.393232
 31
0.0
  0
LINE
  5
28EA9
  8
ALPHA
 10
2527.529913
 20
596.956115
 30
0.0
 11
2527.529913
 21
596.893232
 31
0.0
  0
POLYLINE
  5
28EAA
  8
ALPHA
 66
     1
 10
0.0
 20
0.0
 30
0.0
  0
VERTEX
  5
2A536
  8
ALPHA
 10
2534.002555
 20
598.501418
 30
0.0
  0
VERTEX
  5
2A537
  8
ALPHA
 10
2533.839546
 20
599.326577
 30
0.0
  0
VERTEX
  5
2A538
  8
ALPHA
 10
2533.713861
 20
600.393169
 30
0.0
  0
VERTEX
  5
2A539
  8
ALPHA
 10
2533.634716
 20
601.626679
 30
0.0
  0
VERTEX
  5
2A53A
  8
ALPHA
 10
2533.60775
 20
602.943232
 30
0.0
  0
SEQEND
  5
2A53B
  8
ALPHA
  0
POLYLINE
  5
28EB1
  8
ALPHA
 66
     1
 10
0.0
 20
0.0
 30
0.0
  0
VERTEX
  5
2A53C
  8
ALPHA
 10
2527.529913
 20
601.430349
 30
0.0
  0
VERTEX
  5
2A53D
  8
ALPHA
 10
2528.115748
 20
601.548407
 30
0.0
  0
VERTEX
  5
2A53E
  8
ALPHA
 10
2528.60761
 20
601.88151
 30
0.0
  0
VERTEX
  5
2A53F
  8
ALPHA
 10
2528.930486
 20
602.371358
 30
0.0
  0
VERTEX
  5
2A540
  8
ALPHA
 10
2529.042738
 20
602.943232
 30
0.0
  0
VERTEX
  5
2A541
  8
ALPHA
 10
2528.930486
 20
603.515106
 30
0.0
  0
VERTEX
  5
2A542
  8
ALPHA
 10
2528.60761
 20
604.004955
 30
0.0
  0
VERTEX
  5
2A543
  8
ALPHA
 10
2528.115748
 20
604.338058
 30
0.0
  0
VERTEX
  5
2A544
  8
ALPHA
 10
2527.529913
 20
604.456115
 30
0.0
  0
SEQEND
  5
2A545
  8
ALPHA
  0
POLYLINE
  5
28EBC
  8
ALPHA
 66
     1
 10
0.0
 20
0.0
 30
0.0
  0
VERTEX
  5
2A546
  8
ALPHA
 10
2527.529913
 20
601.493232
 30
0.0
  0
VERTEX
  5
2A547
  8
ALPHA
 10
2528.091579
 20
601.606435
 30
0.0
  0
VERTEX
  5
2A548
  8
ALPHA
 10
2528.563381
 20
601.926159
 30
0.0
  0
VERTEX
  5
2A549
  8
ALPHA
 10
2528.872397
 20
602.395302
 30
0.0
  0
VERTEX
  5
2A54A
  8
ALPHA
 10
2528.979913
 20
602.943232
 30
0.0
  0
VERTEX
  5
2A54B
  8
ALPHA
 10
2528.872397
 20
603.491162
 30
0.0
  0
VERTEX
  5
2A54C
  8
ALPHA
 10
2528.563381
 20
603.960306
 30
0.0
  0
VERTEX
  5
2A54D
  8
ALPHA
 10
2528.091578
 20
604.280029
 30
0.0
  0
VERTEX
  5
2A54E
  8
ALPHA
 10
2527.529912
 20
604.393232
 30
0.0
  0
SEQEND
  5
2A54F
  8
ALPHA
  0
POLYLINE
  5
28EC7
  8
ALPHA
 66
     1
 10
0.0
 20
0.0
 30
0.0
  0
VERTEX
  5
2A550
  8
ALPHA
 10
2534.076585
 20
598.462611
 30
0.0
  0
VERTEX
  5
2A551
  8
ALPHA
 10
2534.077449
 20
598.461269
 30
0.0
  0
VERTEX
  5
2A552
  8
ALPHA
 10
2534.035335
 20
598.569742
 30
0.0
  0
VERTEX
  5
2A553
  8
ALPHA
 10
2533.964209
 20
598.822938
 30
0.0
  0
VERTEX
  5
2A554
  8
ALPHA
 10
2533.885323
 20
599.202464
 30
0.0
  0
VERTEX
  5
2A555
  8
ALPHA
 10
2533.80827
 20
599.697385
 30
0.0
  0
VERTEX
  5
2A556
  8
ALPHA
 10
2533.739109
 20
600.297078
 30
0.0
  0
VERTEX
  5
2A557
  8
ALPHA
 10
2533.682585
 20
600.987793
 30
0.0
  0
VERTEX
  5
2A558
  8
ALPHA
 10
2533.642584
 20
601.751866
 30
0.0
  0
VERTEX
  5
2A559
  8
ALPHA
 10
2533.622101
 20
602.567541
 30
0.0
  0
VERTEX
  5
2A55A
  8
ALPHA
 10
2533.619884
 20
602.943232
 30
0.0
  0
SEQEND
  5
2A55B
  8
ALPHA
  0
LINE
  5
28ED4
  8
ALPHA
 10
2527.529913
 20
586.493232
 30
0.0
 11
2527.529913
 21
586.388417
 31
0.0
  0
LINE
  5
28ED5
  8
ALPHA
 10
2527.529913
 20
589.393232
 30
0.0
 11
2527.529913
 21
589.498048
 31
0.0
  0
LINE
  5
28ED6
  8
ALPHA
 10
2525.879913
 20
587.693232
 30
0.0
 11
2525.879913
 21
586.493232
 31
0.0
  0
LINE
  5
28ED7
  8
ALPHA
 10
2533.51416
 20
583.093256
 30
0.0
 11
2532.058836
 21
583.093256
 31
0.0
  0
LINE
  5
28ED8
  8
ALPHA
 10
2532.058836
 20
583.093256
 30
0.0
 11
2529.41296
 21
583.047072
 31
0.0
  0
POLYLINE
  5
28ED9
  8
ALPHA
 66
     1
 10
0.0
 20
0.0
 30
0.0
  0
VERTEX
  5
2A55C
  8
ALPHA
 10
2527.529913
 20
589.393232
 30
0.0
  0
VERTEX
  5
2A55D
  8
ALPHA
 10
2528.09157
 20
589.280033
 30
0.0
  0
VERTEX
  5
2A55E
  8
ALPHA
 10
2528.563368
 20
588.960319
 30
0.0
  0
VERTEX
  5
2A55F
  8
ALPHA
 10
2528.872396
 20
588.491164
 30
0.0
  0
VERTEX
  5
2A560
  8
ALPHA
 10
2528.979913
 20
587.943232
 30
0.0
  0
VERTEX
  5
2A561
  8
ALPHA
 10
2528.872396
 20
587.3953
 30
0.0
  0
VERTEX
  5
2A562
  8
ALPHA
 10
2528.563368
 20
586.926146
 30
0.0
  0
VERTEX
  5
2A563
  8
ALPHA
 10
2528.09157
 20
586.606432
 30
0.0
  0
VERTEX
  5
2A564
  8
ALPHA
 10
2527.529913
 20
586.493232
 30
0.0
  0
SEQEND
  5
2A565
  8
ALPHA
  0
POLYLINE
  5
28EE4
  8
ALPHA
 66
     1
 10
0.0
 20
0.0
 30
0.0
  0
VERTEX
  5
2A566
  8
ALPHA
 10
2527.529913
 20
589.498048
 30
0.0
  0
VERTEX
  5
2A567
  8
ALPHA
 10
2528.131854
 20
589.376758
 30
0.0
  0
VERTEX
  5
2A568
  8
ALPHA
 10
2528.637098
 20
589.034733
 30
0.0
  0
VERTEX
  5
2A569
  8
ALPHA
 10
2528.969223
 20
588.53107
 30
0.0
  0
VERTEX
  5
2A56A
  8
ALPHA
 10
2529.084633
 20
587.943232
 30
0.0
  0
VERTEX
  5
2A56B
  8
ALPHA
 10
2528.969223
 20
587.355395
 30
0.0
  0
VERTEX
  5
2A56C
  8
ALPHA
 10
2528.637098
 20
586.851731
 30
0.0
  0
VERTEX
  5
2A56D
  8
ALPHA
 10
2528.131854
 20
586.509706
 30
0.0
  0
VERTEX
  5
2A56E
  8
ALPHA
 10
2527.529913
 20
586.388417
 30
0.0
  0
SEQEND
  5
2A56F
  8
ALPHA
  0
LINE
  5
28EEF
  8
ALPHA
 10
2538.206255
 20
581.700788
 30
0.0
 11
2529.41296
 21
581.5473
 31
0.0
  0
ARC
  5
28EF0
  8
ALPHA
 10
2529.42221
 20
581.017381
 30
0.0
 40
0.53
 50
91.0
 51
138.477787
  0
LINE
  5
28EF1
  8
ALPHA
 10
2525.879913
 20
575.693232
 30
0.0
 11
2526.679913
 21
576.493232
 31
0.0
  0
POLYLINE
  5
28EF2
  8
ALPHA
 66
     1
 10
0.0
 20
0.0
 30
0.0
  0
VERTEX
  5
2A570
  8
ALPHA
 10
2532.50111
 20
581.601204
 30
0.0
  0
VERTEX
  5
2A571
  8
ALPHA
 10
2532.425376
 20
581.176679
 30
0.0
  0
VERTEX
  5
2A572
  8
ALPHA
 10
2532.279233
 20
580.663166
 30
0.0
  0
VERTEX
  5
2A573
  8
ALPHA
 10
2532.120596
 20
580.210831
 30
0.0
  0
VERTEX
  5
2A574
  8
ALPHA
 10
2531.932846
 20
579.831797
 30
0.0
  0
VERTEX
  5
2A575
  8
ALPHA
 10
2531.702938
 20
579.537392
 30
0.0
  0
VERTEX
  5
2A576
  8
ALPHA
 10
2531.429913
 20
579.313232
 30
0.0
  0
SEQEND
  5
2A577
  8
ALPHA
  0
LINE
  5
28EFB
  8
ALPHA
 10
2531.429913
 20
579.313232
 30
0.0
 11
2531.429913
 21
581.582506
 31
0.0
  0
LINE
  5
28EFC
  8
ALPHA
 10
2526.679913
 20
576.493232
 30
0.0
 11
2526.679913
 21
577.693232
 31
0.0
  0
LINE
  5
28EFD
  8
ALPHA
 10
2525.879913
 20
577.816173
 30
0.0
 11
2525.879913
 21
577.693232
 31
0.0
  0
LINE
  5
28EFE
  8
ALPHA
 10
2524.000225
 20
575.693232
 30
0.0
 11
2525.879913
 21
575.693232
 31
0.0
  0
LINE
  5
28EFF
  8
ALPHA
 10
2526.679913
 20
577.693232
 30
0.0
 11
2525.879913
 21
577.693232
 31
0.0
  0
LINE
  5
28F00
  8
ALPHA
 10
2527.205434
 20
579.313232
 30
0.0
 11
2531.429913
 21
579.313232
 31
0.0
  0
POLYLINE
  5
28F01
  8
ALPHA
 66
     1
 10
0.0
 20
0.0
 30
0.0
  0
VERTEX
  5
2A578
  8
ALPHA
 10
2529.0254
 20
581.368723
 30
0.0
  0
VERTEX
  5
2A579
  8
ALPHA
 10
2528.945679
 20
581.44811
 30
0.0
  0
VERTEX
  5
2A57A
  8
ALPHA
 10
2528.70972
 20
581.664515
 30
0.0
  0
VERTEX
  5
2A57B
  8
ALPHA
 10
2528.352857
 20
581.985532
 30
0.0
  0
VERTEX
  5
2A57C
  8
ALPHA
 10
2527.92853
 20
582.363089
 30
0.0
  0
SEQEND
  5
2A57D
  8
ALPHA
  0
LINE
  5
28F08
  8
ALPHA
 10
2477.679913
 20
523.543232
 30
0.0
 11
2477.679913
 21
511.543232
 31
0.0
  0
LINE
  5
28F09
  8
ALPHA
 10
2469.679913
 20
523.543232
 30
0.0
 11
2469.679913
 21
511.543232
 31
0.0
  0
ARC
  5
28F0A
  8
ALPHA
 10
2469.185872
 20
517.243232
 30
0.0
 40
0.5
 50
208.553539
 51
351.14501
  0
LINE
  5
28F0B
  8
ALPHA
 10
2465.623722
 20
522.743232
 30
0.0
 11
2464.979913
 21
521.834205
 31
0.0
  0
LINE
  5
28F0C
  8
ALPHA
 10
2464.979913
 20
521.834205
 30
0.0
 11
2469.679913
 21
513.197139
 31
0.0
  0
LINE
  5
28F0D
  8
ALPHA
 10
2468.746687
 20
517.004242
 30
0.0
 11
2465.623722
 21
522.743232
 31
0.0
  0
ARC
  5
28F0E
  8
ALPHA
 10
2478.173953
 20
517.243232
 30
0.0
 40
0.5
 50
188.85499
 51
331.446461
  0
LINE
  5
28F0F
  8
ALPHA
 10
2482.379913
 20
521.834205
 30
0.0
 11
2477.679913
 21
513.197139
 31
0.0
  0
LINE
  5
28F10
  8
ALPHA
 10
2478.613139
 20
517.004242
 30
0.0
 11
2481.736103
 21
522.743232
 31
0.0
  0
LINE
  5
28F11
  8
ALPHA
 10
2481.736103
 20
522.743232
 30
0.0
 11
2482.379913
 21
521.834205
 31
0.0
  0
LINE
  5
28F12
  8
ALPHA
 10
2506.679913
 20
526.543232
 30
0.0
 11
2506.679913
 21
543.543232
 31
0.0
  0
LINE
  5
28F13
  8
ALPHA
 10
2505.179913
 20
526.543232
 30
0.0
 11
2505.179913
 21
543.543232
 31
0.0
  0
LINE
  5
28F14
  8
ALPHA
 10
2504.479913
 20
544.343232
 30
0.0
 11
2505.979913
 21
544.343232
 31
0.0
  0
LINE
  5
28F15
  8
ALPHA
 10
2504.479913
 20
547.343232
 30
0.0
 11
2505.979913
 21
547.343232
 31
0.0
  0
POLYLINE
  5
28F16
  8
ALPHA
 66
     1
 10
0.0
 20
0.0
 30
0.0
  0
VERTEX
  5
2A57E
  8
ALPHA
 10
2509.007363
 20
556.195265
 30
0.0
  0
VERTEX
  5
2A57F
  8
ALPHA
 10
2509.002862
 20
556.191456
 30
0.0
  0
VERTEX
  5
2A580
  8
ALPHA
 10
2508.996483
 20
556.177813
 30
0.0
  0
SEQEND
  5
2A581
  8
ALPHA
  0
POLYLINE
  5
28F1B
  8
ALPHA
 66
     1
 10
0.0
 20
0.0
 30
0.0
  0
VERTEX
  5
2A582
  8
ALPHA
 10
2509.005788
 20
557.89884
 30
0.0
  0
VERTEX
  5
2A583
  8
ALPHA
 10
2509.008688
 20
557.90073
 30
0.0
  0
VERTEX
  5
2A584
  8
ALPHA
 10
2509.012445
 20
557.914144
 30
0.0
  0
VERTEX
  5
2A585
  8
ALPHA
 10
2509.013929
 20
557.938433
 30
0.0
  0
SEQEND
  5
2A586
  8
ALPHA
  0
POLYLINE
  5
28F21
  8
ALPHA
 66
     1
 10
0.0
 20
0.0
 30
0.0
  0
VERTEX
  5
2A587
  8
ALPHA
 10
2508.996483
 20
556.177813
 30
0.0
  0
VERTEX
  5
2A588
  8
ALPHA
 10
2508.984728
 20
556.157266
 30
0.0
  0
VERTEX
  5
2A589
  8
ALPHA
 10
2508.980844
 20
556.155732
 30
0.0
  0
SEQEND
  5
2A58A
  8
ALPHA
  0
POLYLINE
  5
28F26
  8
ALPHA
 66
     1
 10
0.0
 20
0.0
 30
0.0
  0
VERTEX
  5
2A58B
  8
ALPHA
 10
2508.008116
 20
553.074605
 30
0.0
  0
VERTEX
  5
2A58C
  8
ALPHA
 10
2508.236825
 20
553.503655
 30
0.0
  0
VERTEX
  5
2A58D
  8
ALPHA
 10
2508.421605
 20
553.904833
 30
0.0
  0
VERTEX
  5
2A58E
  8
ALPHA
 10
2508.569616
 20
554.276583
 30
0.0
  0
VERTEX
  5
2A58F
  8
ALPHA
 10
2508.687457
 20
554.619337
 30
0.0
  0
VERTEX
  5
2A590
  8
ALPHA
 10
2508.780555
 20
554.933705
 30
0.0
  0
VERTEX
  5
2A591
  8
ALPHA
 10
2508.853537
 20
555.220936
 30
0.0
  0
VERTEX
  5
2A592
  8
ALPHA
 10
2508.9104
 20
555.483274
 30
0.0
  0
VERTEX
  5
2A593
  8
ALPHA
 10
2508.954437
 20
555.723433
 30
0.0
  0
VERTEX
  5
2A594
  8
ALPHA
 10
2508.988264
 20
555.944152
 30
0.0
  0
VERTEX
  5
2A595
  8
ALPHA
 10
2509.013917
 20
556.147921
 30
0.0
  0
SEQEND
  5
2A596
  8
ALPHA
  0
POLYLINE
  5
28F33
  8
ALPHA
 66
     1
 10
0.0
 20
0.0
 30
0.0
  0
VERTEX
  5
2A597
  8
ALPHA
 10
2509.010754
 20
557.882435
 30
0.0
  0
VERTEX
  5
2A598
  8
ALPHA
 10
2509.005728
 20
557.86893
 30
0.0
  0
VERTEX
  5
2A599
  8
ALPHA
 10
2509.001878
 20
557.866832
 30
0.0
  0
SEQEND
  5
2A59A
  8
ALPHA
  0
POLYLINE
  5
28F38
  8
ALPHA
 66
     1
 10
0.0
 20
0.0
 30
0.0
  0
VERTEX
  5
2A59B
  8
ALPHA
 10
2508.964615
 20
557.891658
 30
0.0
  0
VERTEX
  5
2A59C
  8
ALPHA
 10
2508.972561
 20
557.922475
 30
0.0
  0
VERTEX
  5
2A59D
  8
ALPHA
 10
2508.980846
 20
557.930732
 30
0.0
  0
SEQEND
  5
2A59E
  8
ALPHA
  0
LINE
  5
28F3D
  8
ALPHA
 10
2508.965125
 20
557.866832
 30
0.0
 11
2508.96199
 21
557.852457
 31
0.0
  0
POLYLINE
  5
28F3E
  8
ALPHA
 66
     1
 10
0.0
 20
0.0
 30
0.0
  0
VERTEX
  5
2A59F
  8
ALPHA
 10
2508.991758
 20
556.729701
 30
0.0
  0
VERTEX
  5
2A5A0
  8
ALPHA
 10
2508.980546
 20
556.651486
 30
0.0
  0
VERTEX
  5
2A5A1
  8
ALPHA
 10
2508.970719
 20
556.561143
 30
0.0
  0
VERTEX
  5
2A5A2
  8
ALPHA
 10
2508.963221
 20
556.467199
 30
0.0
  0
VERTEX
  5
2A5A3
  8
ALPHA
 10
2508.958481
 20
556.377205
 30
0.0
  0
VERTEX
  5
2A5A4
  8
ALPHA
 10
2508.956871
 20
556.308581
 30
0.0
  0
SEQEND
  5
2A5A5
  8
ALPHA
  0
LINE
  5
28F46
  8
ALPHA
 10
2508.991758
 20
556.729701
 30
0.0
 11
2509.00202
 21
556.80587
 31
0.0
  0
LINE
  5
28F47
  8
ALPHA
 10
2507.479913
 20
553.043232
 30
0.0
 11
2505.979913
 21
553.043232
 31
0.0
  0
LINE
  5
28F48
  8
ALPHA
 10
2508.008116
 20
553.074605
 30
0.0
 11
2507.479913
 21
553.074605
 31
0.0
  0
POLYLINE
  5
28F49
  8
ALPHA
 66
     1
 10
0.0
 20
0.0
 30
0.0
  0
VERTEX
  5
2A5A6
  8
ALPHA
 10
2509.00202
 20
556.80587
 30
0.0
  0
VERTEX
  5
2A5A7
  8
ALPHA
 10
2509.008924
 20
556.885786
 30
0.0
  0
VERTEX
  5
2A5A8
  8
ALPHA
 10
2509.012913
 20
556.970148
 30
0.0
  0
VERTEX
  5
2A5A9
  8
ALPHA
 10
2509.013369
 20
557.009152
 30
0.0
  0
SEQEND
  5
2A5AA
  8
ALPHA
  0
POLYLINE
  5
28F4F
  8
ALPHA
 66
     1
 10
0.0
 20
0.0
 30
0.0
  0
VERTEX
  5
2A5AB
  8
ALPHA
 10
2509.013935
 20
557.938381
 30
0.0
  0
VERTEX
  5
2A5AC
  8
ALPHA
 10
2509.013378
 20
557.906205
 30
0.0
  0
VERTEX
  5
2A5AD
  8
ALPHA
 10
2509.010754
 20
557.882435
 30
0.0
  0
SEQEND
  5
2A5AE
  8
ALPHA
  0
LINE
  5
28F54
  8
ALPHA
 10
2507.479913
 20
553.043248
 30
0.0
 11
2507.479913
 21
553.074605
 31
0.0
  0
POLYLINE
  5
28F55
  8
ALPHA
 66
     1
 10
0.0
 20
0.0
 30
0.0
  0
VERTEX
  5
2A5AF
  8
ALPHA
 10
2509.013917
 20
556.147921
 30
0.0
  0
VERTEX
  5
2A5B0
  8
ALPHA
 10
2509.013569
 20
556.172446
 30
0.0
  0
VERTEX
  5
2A5B1
  8
ALPHA
 10
2509.011618
 20
556.188552
 30
0.0
  0
VERTEX
  5
2A5B2
  8
ALPHA
 10
2509.008013
 20
556.195157
 30
0.0
  0
VERTEX
  5
2A5B3
  8
ALPHA
 10
2509.007363
 20
556.195265
 30
0.0
  0
SEQEND
  5
2A5B4
  8
ALPHA
  0
POLYLINE
  5
28F5C
  8
ALPHA
 66
     1
 10
0.0
 20
0.0
 30
0.0
  0
VERTEX
  5
2A5B5
  8
ALPHA
 10
2508.956904
 20
557.721004
 30
0.0
  0
VERTEX
  5
2A5B6
  8
ALPHA
 10
2508.957904
 20
557.670456
 30
0.0
  0
VERTEX
  5
2A5B7
  8
ALPHA
 10
2508.961973
 20
557.594642
 30
0.0
  0
VERTEX
  5
2A5B8
  8
ALPHA
 10
2508.968588
 20
557.516902
 30
0.0
  0
VERTEX
  5
2A5B9
  8
ALPHA
 10
2508.977374
 20
557.443283
 30
0.0
  0
VERTEX
  5
2A5BA
  8
ALPHA
 10
2508.987428
 20
557.381225
 30
0.0
  0
SEQEND
  5
2A5BB
  8
ALPHA
  0
POLYLINE
  5
28F64
  8
ALPHA
 66
     1
 10
0.0
 20
0.0
 30
0.0
  0
VERTEX
  5
2A5BC
  8
ALPHA
 10
2509.012998
 20
557.098118
 30
0.0
  0
VERTEX
  5
2A5BD
  8
ALPHA
 10
2509.011926
 20
557.144409
 30
0.0
  0
VERTEX
  5
2A5BE
  8
ALPHA
 10
2509.006988
 20
557.227375
 30
0.0
  0
SEQEND
  5
2A5BF
  8
ALPHA
  0
LINE
  5
28F69
  8
ALPHA
 10
2508.996483
 20
556.177813
 30
0.0
 11
2508.969
 21
556.177813
 31
0.0
  0
LINE
  5
28F6A
  8
ALPHA
 10
2508.964875
 20
556.195265
 30
0.0
 11
2509.00727
 21
556.195265
 31
0.0
  0
LINE
  5
28F6B
  8
ALPHA
 10
2508.991758
 20
556.729701
 30
0.0
 11
2508.982611
 21
556.729701
 31
0.0
  0
LINE
  5
28F6C
  8
ALPHA
 10
2508.987428
 20
557.381225
 30
0.0
 11
2508.979554
 21
557.381225
 31
0.0
  0
LINE
  5
28F6D
  8
ALPHA
 10
2508.961972
 20
557.866832
 30
0.0
 11
2509.001534
 21
557.866832
 31
0.0
  0
LINE
  5
28F6E
  8
ALPHA
 10
2508.966467
 20
557.89884
 30
0.0
 11
2509.005487
 21
557.89884
 31
0.0
  0
LINE
  5
28F6F
  8
ALPHA
 10
2508.993915
 20
557.914983
 30
0.0
 11
2508.970629
 21
557.914983
 31
0.0
  0
LINE
  5
28F70
  8
ALPHA
 10
2509.006988
 20
557.227375
 30
0.0
 11
2508.99905
 21
557.306086
 31
0.0
  0
POLYLINE
  5
28F71
  8
ALPHA
 66
     1
 10
0.0
 20
0.0
 30
0.0
  0
VERTEX
  5
2A5C0
  8
ALPHA
 10
2508.965649
 20
556.188828
 30
0.0
  0
VERTEX
  5
2A5C1
  8
ALPHA
 10
2508.959903
 20
556.236632
 30
0.0
  0
VERTEX
  5
2A5C2
  8
ALPHA
 10
2508.956873
 20
556.302656
 30
0.0
  0
VERTEX
  5
2A5C3
  8
ALPHA
 10
2508.956836
 20
556.38491
 30
0.0
  0
VERTEX
  5
2A5C4
  8
ALPHA
 10
2508.959874
 20
556.475694
 30
0.0
  0
VERTEX
  5
2A5C5
  8
ALPHA
 10
2508.965644
 20
556.568229
 30
0.0
  0
VERTEX
  5
2A5C6
  8
ALPHA
 10
2508.974156
 20
556.661649
 30
0.0
  0
VERTEX
  5
2A5C7
  8
ALPHA
 10
2508.984788
 20
556.747227
 30
0.0
  0
VERTEX
  5
2A5C8
  8
ALPHA
 10
2508.996483
 20
556.816986
 30
0.0
  0
SEQEND
  5
2A5C9
  8
ALPHA
  0
LINE
  5
28F7C
  8
ALPHA
 10
2509.013929
 20
557.938433
 30
0.0
 11
2508.988526
 21
558.140251
 31
0.0
  0
LINE
  5
28F7D
  8
ALPHA
 10
2508.99905
 20
557.306086
 30
0.0
 11
2508.987428
 21
557.381225
 31
0.0
  0
POLYLINE
  5
28F7E
  8
ALPHA
 66
     1
 10
0.0
 20
0.0
 30
0.0
  0
VERTEX
  5
2A5CA
  8
ALPHA
 10
2508.996483
 20
557.269479
 30
0.0
  0
VERTEX
  5
2A5CB
  8
ALPHA
 10
2509.004181
 20
557.2204
 30
0.0
  0
VERTEX
  5
2A5CC
  8
ALPHA
 10
2509.009572
 20
557.165601
 30
0.0
  0
VERTEX
  5
2A5CD
  8
ALPHA
 10
2509.012857
 20
557.105997
 30
0.0
  0
VERTEX
  5
2A5CE
  8
ALPHA
 10
2509.013977
 20
557.043229
 30
0.0
  0
VERTEX
  5
2A5CF
  8
ALPHA
 10
2509.012857
 20
556.980459
 30
0.0
  0
VERTEX
  5
2A5D0
  8
ALPHA
 10
2509.009571
 20
556.920852
 30
0.0
  0
VERTEX
  5
2A5D1
  8
ALPHA
 10
2509.00418
 20
556.866057
 30
0.0
  0
VERTEX
  5
2A5D2
  8
ALPHA
 10
2508.996483
 20
556.816986
 30
0.0
  0
SEQEND
  5
2A5D3
  8
ALPHA
  0
POLYLINE
  5
28F89
  8
ALPHA
 66
     1
 10
0.0
 20
0.0
 30
0.0
  0
VERTEX
  5
2A5D4
  8
ALPHA
 10
2508.996483
 20
557.269479
 30
0.0
  0
VERTEX
  5
2A5D5
  8
ALPHA
 10
2508.984985
 20
557.337878
 30
0.0
  0
VERTEX
  5
2A5D6
  8
ALPHA
 10
2508.974537
 20
557.421263
 30
0.0
  0
VERTEX
  5
2A5D7
  8
ALPHA
 10
2508.966129
 20
557.511962
 30
0.0
  0
VERTEX
  5
2A5D8
  8
ALPHA
 10
2508.960271
 20
557.602755
 30
0.0
  0
VERTEX
  5
2A5D9
  8
ALPHA
 10
2508.957007
 20
557.692669
 30
0.0
  0
VERTEX
  5
2A5DA
  8
ALPHA
 10
2508.956708
 20
557.774983
 30
0.0
  0
VERTEX
  5
2A5DB
  8
ALPHA
 10
2508.959343
 20
557.842132
 30
0.0
  0
VERTEX
  5
2A5DC
  8
ALPHA
 10
2508.964615
 20
557.891658
 30
0.0
  0
SEQEND
  5
2A5DD
  8
ALPHA
  0
POLYLINE
  5
28F94
  8
ALPHA
 66
     1
 10
0.0
 20
0.0
 30
0.0
  0
VERTEX
  5
2A5DE
  8
ALPHA
 10
2508.980846
 20
557.930732
 30
0.0
  0
VERTEX
  5
2A5DF
  8
ALPHA
 10
2508.982643
 20
557.93039
 30
0.0
  0
VERTEX
  5
2A5E0
  8
ALPHA
 10
2508.993915
 20
557.914983
 30
0.0
  0
SEQEND
  5
2A5E1
  8
ALPHA
  0
LINE
  5
28F99
  8
ALPHA
 10
2509.002482
 20
557.900507
 30
0.0
 11
2509.005788
 21
557.89884
 31
0.0
  0
LINE
  5
28F9A
  8
ALPHA
 10
2508.980844
 20
556.155732
 30
0.0
 11
2508.974104
 21
556.161034
 31
0.0
  0
LINE
  5
28F9B
  8
ALPHA
 10
2508.993915
 20
557.914983
 30
0.0
 11
2509.002482
 21
557.900507
 31
0.0
  0
LINE
  5
28F9C
  8
ALPHA
 10
2508.974104
 20
556.161034
 30
0.0
 11
2508.965649
 21
556.188828
 31
0.0
  0
LINE
  5
28F9D
  8
ALPHA
 10
2505.179913
 20
540.543232
 30
0.0
 11
2506.679913
 21
540.543232
 31
0.0
  0
LINE
  5
28F9E
  8
ALPHA
 10
2505.179913
 20
543.543232
 30
0.0
 11
2506.679913
 21
543.543232
 31
0.0
  0
ARC
  5
28F9F
  8
ALPHA
 10
2503.679913
 20
526.543232
 30
0.0
 40
1.5
 50
270.0
 51
0.0
  0
ARC
  5
28FA0
  8
ALPHA
 10
2503.679913
 20
526.543232
 30
0.0
 40
3.0
 50
270.0
 51
0.0
  0
LINE
  5
28FA1
  8
ALPHA
 10
2503.679913
 20
525.043232
 30
0.0
 11
2503.679913
 21
523.543232
 31
0.0
  0
LINE
  5
28FA2
  8
ALPHA
 10
2501.479913
 20
528.043232
 30
0.0
 11
2504.479913
 21
528.043232
 31
0.0
  0
LINE
  5
28FA3
  8
ALPHA
 10
2501.479913
 20
528.043232
 30
0.0
 11
2501.479913
 21
525.043232
 31
0.0
  0
POLYLINE
  5
28FA4
  8
ALPHA
 66
     1
 10
0.0
 20
0.0
 30
0.0
  0
VERTEX
  5
2A5E2
  8
ALPHA
 10
2497.376479
 20
520.524056
 30
0.0
  0
VERTEX
  5
2A5E3
  8
ALPHA
 10
2497.359097
 20
520.517895
 30
0.0
  0
VERTEX
  5
2A5E4
  8
ALPHA
 10
2497.353728
 20
520.513469
 30
0.0
  0
SEQEND
  5
2A5E5
  8
ALPHA
  0
LINE
  5
28FA9
  8
ALPHA
 10
2500.020105
 20
521.286648
 30
0.0
 11
2500.44854
 21
521.515029
 31
0.0
  0
LINE
  5
28FAA
  8
ALPHA
 10
2495.629913
 20
520.545765
 30
0.0
 11
2495.640571
 21
520.554587
 31
0.0
  0
POLYLINE
  5
28FAB
  8
ALPHA
 66
     1
 10
0.0
 20
0.0
 30
0.0
  0
VERTEX
  5
2A5E6
  8
ALPHA
 10
2497.375203
 20
520.509226
 30
0.0
  0
VERTEX
  5
2A5E7
  8
ALPHA
 10
2497.575268
 20
520.534364
 30
0.0
  0
VERTEX
  5
2A5E8
  8
ALPHA
 10
2497.794282
 20
520.5678
 30
0.0
  0
VERTEX
  5
2A5E9
  8
ALPHA
 10
2498.034288
 20
520.611635
 30
0.0
  0
VERTEX
  5
2A5EA
  8
ALPHA
 10
2498.297568
 20
520.668521
 30
0.0
  0
VERTEX
  5
2A5EB
  8
ALPHA
 10
2498.586391
 20
520.741755
 30
0.0
  0
VERTEX
  5
2A5EC
  8
ALPHA
 10
2498.902569
 20
520.835293
 30
0.0
  0
VERTEX
  5
2A5ED
  8
ALPHA
 10
2499.24692
 20
520.953661
 30
0.0
  0
VERTEX
  5
2A5EE
  8
ALPHA
 10
2499.619642
 20
521.102108
 30
0.0
  0
VERTEX
  5
2A5EF
  8
ALPHA
 10
2500.020105
 20
521.286648
 30
0.0
  0
SEQEND
  5
2A5F0
  8
ALPHA
  0
POLYLINE
  5
28FB7
  8
ALPHA
 66
     1
 10
0.0
 20
0.0
 30
0.0
  0
VERTEX
  5
2A5F1
  8
ALPHA
 10
2496.793444
 20
520.531387
 30
0.0
  0
VERTEX
  5
2A5F2
  8
ALPHA
 10
2496.717275
 20
520.521124
 30
0.0
  0
VERTEX
  5
2A5F3
  8
ALPHA
 10
2496.637359
 20
520.514221
 30
0.0
  0
VERTEX
  5
2A5F4
  8
ALPHA
 10
2496.552997
 20
520.510232
 30
0.0
  0
VERTEX
  5
2A5F5
  8
ALPHA
 10
2496.465531
 20
520.509209
 30
0.0
  0
VERTEX
  5
2A5F6
  8
ALPHA
 10
2496.378735
 20
520.511219
 30
0.0
  0
VERTEX
  5
2A5F7
  8
ALPHA
 10
2496.29577
 20
520.516157
 30
0.0
  0
VERTEX
  5
2A5F8
  8
ALPHA
 10
2496.217059
 20
520.524095
 30
0.0
  0
VERTEX
  5
2A5F9
  8
ALPHA
 10
2496.14192
 20
520.535717
 30
0.0
  0
SEQEND
  5
2A5FA
  8
ALPHA
  0
POLYLINE
  5
28FC2
  8
ALPHA
 66
     1
 10
0.0
 20
0.0
 30
0.0
  0
VERTEX
  5
2A5FB
  8
ALPHA
 10
2496.793444
 20
520.531387
 30
0.0
  0
VERTEX
  5
2A5FC
  8
ALPHA
 10
2496.871659
 20
520.542599
 30
0.0
  0
VERTEX
  5
2A5FD
  8
ALPHA
 10
2496.962002
 20
520.552426
 30
0.0
  0
VERTEX
  5
2A5FE
  8
ALPHA
 10
2497.055946
 20
520.559924
 30
0.0
  0
VERTEX
  5
2A5FF
  8
ALPHA
 10
2497.14594
 20
520.564664
 30
0.0
  0
VERTEX
  5
2A600
  8
ALPHA
 10
2497.230089
 20
520.566639
 30
0.0
  0
VERTEX
  5
2A601
  8
ALPHA
 10
2497.302272
 20
520.565712
 30
0.0
  0
SEQEND
  5
2A602
  8
ALPHA
  0
POLYLINE
  5
28FCB
  8
ALPHA
 66
     1
 10
0.0
 20
0.0
 30
0.0
  0
VERTEX
  5
2A603
  8
ALPHA
 10
2495.640571
 20
520.554587
 30
0.0
  0
VERTEX
  5
2A604
  8
ALPHA
 10
2495.670688
 20
520.561155
 30
0.0
  0
VERTEX
  5
2A605
  8
ALPHA
 10
2495.717174
 20
520.565226
 30
0.0
  0
VERTEX
  5
2A606
  8
ALPHA
 10
2495.779703
 20
520.566685
 30
0.0
  0
VERTEX
  5
2A607
  8
ALPHA
 10
2495.852689
 20
520.565241
 30
0.0
  0
VERTEX
  5
2A608
  8
ALPHA
 10
2495.928503
 20
520.561172
 30
0.0
  0
VERTEX
  5
2A609
  8
ALPHA
 10
2496.006243
 20
520.554557
 30
0.0
  0
VERTEX
  5
2A60A
  8
ALPHA
 10
2496.079862
 20
520.545771
 30
0.0
  0
VERTEX
  5
2A60B
  8
ALPHA
 10
2496.14192
 20
520.535717
 30
0.0
  0
SEQEND
  5
2A60C
  8
ALPHA
  0
POLYLINE
  5
28FD6
  8
ALPHA
 66
     1
 10
0.0
 20
0.0
 30
0.0
  0
VERTEX
  5
2A60D
  8
ALPHA
 10
2497.414273
 20
520.544558
 30
0.0
  0
VERTEX
  5
2A60E
  8
ALPHA
 10
2497.406632
 20
520.535821
 30
0.0
  0
VERTEX
  5
2A60F
  8
ALPHA
 10
2497.376479
 20
520.524056
 30
0.0
  0
SEQEND
  5
2A610
  8
ALPHA
  0
LINE
  5
28FDB
  8
ALPHA
 10
2492.511286
 20
521.515029
 30
0.0
 11
2500.44854
 21
521.515029
 31
0.0
  0
POLYLINE
  5
28FDC
  8
ALPHA
 66
     1
 10
0.0
 20
0.0
 30
0.0
  0
VERTEX
  5
2A611
  8
ALPHA
 10
2495.584764
 20
520.50921
 30
0.0
  0
VERTEX
  5
2A612
  8
ALPHA
 10
2495.61694
 20
520.509767
 30
0.0
  0
VERTEX
  5
2A613
  8
ALPHA
 10
2495.64071
 20
520.512391
 30
0.0
  0
VERTEX
  5
2A614
  8
ALPHA
 10
2495.654215
 20
520.517417
 30
0.0
  0
VERTEX
  5
2A615
  8
ALPHA
 10
2495.656313
 20
520.521267
 30
0.0
  0
SEQEND
  5
2A616
  8
ALPHA
  0
LINE
  5
28FE3
  8
ALPHA
 10
2495.380998
 20
520.534858
 30
0.0
 11
2495.584764
 21
520.50921
 31
0.0
  0
POLYLINE
  5
28FE4
  8
ALPHA
 66
     1
 10
0.0
 20
0.0
 30
0.0
  0
VERTEX
  5
2A617
  8
ALPHA
 10
2497.350699
 20
520.509576
 30
0.0
  0
VERTEX
  5
2A618
  8
ALPHA
 10
2497.334593
 20
520.511527
 30
0.0
  0
VERTEX
  5
2A619
  8
ALPHA
 10
2497.327988
 20
520.515132
 30
0.0
  0
VERTEX
  5
2A61A
  8
ALPHA
 10
2497.32788
 20
520.515782
 30
0.0
  0
SEQEND
  5
2A61B
  8
ALPHA
  0
POLYLINE
  5
28FEA
  8
ALPHA
 66
     1
 10
0.0
 20
0.0
 30
0.0
  0
VERTEX
  5
2A61C
  8
ALPHA
 10
2497.32788
 20
520.55827
 30
0.0
  0
VERTEX
  5
2A61D
  8
ALPHA
 10
2497.286513
 20
520.563242
 30
0.0
  0
VERTEX
  5
2A61E
  8
ALPHA
 10
2497.220489
 20
520.566272
 30
0.0
  0
VERTEX
  5
2A61F
  8
ALPHA
 10
2497.214564
 20
520.566274
 30
0.0
  0
SEQEND
  5
2A620
  8
ALPHA
  0
POLYLINE
  5
28FF0
  8
ALPHA
 66
     1
 10
0.0
 20
0.0
 30
0.0
  0
VERTEX
  5
2A621
  8
ALPHA
 10
2497.302272
 20
520.565712
 30
0.0
  0
VERTEX
  5
2A622
  8
ALPHA
 10
2497.358809
 20
520.561981
 30
0.0
  0
VERTEX
  5
2A623
  8
ALPHA
 10
2497.396753
 20
520.555632
 30
0.0
  0
VERTEX
  5
2A624
  8
ALPHA
 10
2497.413734
 20
520.546694
 30
0.0
  0
VERTEX
  5
2A625
  8
ALPHA
 10
2497.414273
 20
520.544558
 30
0.0
  0
SEQEND
  5
2A626
  8
ALPHA
  0
LINE
  5
28FF7
  8
ALPHA
 10
2500.44854
 20
522.043232
 30
0.0
 11
2500.479897
 21
522.043232
 31
0.0
  0
LINE
  5
28FF8
  8
ALPHA
 10
2492.479929
 20
522.043232
 30
0.0
 11
2492.511286
 21
522.043232
 31
0.0
  0
LINE
  5
28FF9
  8
ALPHA
 10
2500.479913
 20
522.043232
 30
0.0
 11
2500.479913
 21
523.543232
 31
0.0
  0
LINE
  5
28FFA
  8
ALPHA
 10
2500.44854
 20
521.515029
 30
0.0
 11
2500.44854
 21
522.043232
 31
0.0
  0
LINE
  5
28FFB
  8
ALPHA
 10
2497.376479
 20
520.524056
 30
0.0
 11
2497.376479
 21
520.559025
 31
0.0
  0
LINE
  5
28FFC
  8
ALPHA
 10
2497.353728
 20
520.562316
 30
0.0
 11
2497.353728
 21
520.51349
 31
0.0
  0
LINE
  5
28FFD
  8
ALPHA
 10
2497.32788
 20
520.564022
 30
0.0
 11
2497.32788
 21
520.515875
 31
0.0
  0
LINE
  5
28FFE
  8
ALPHA
 10
2495.656313
 20
520.55802
 30
0.0
 11
2495.656313
 21
520.521611
 31
0.0
  0
LINE
  5
28FFF
  8
ALPHA
 10
2495.640089
 20
520.535717
 30
0.0
 11
2495.640089
 21
520.554188
 31
0.0
  0
LINE
  5
29000
  8
ALPHA
 10
2492.511286
 20
521.515029
 30
0.0
 11
2492.511286
 21
522.043232
 31
0.0
  0
LINE
  5
29001
  8
ALPHA
 10
2492.479913
 20
522.043232
 30
0.0
 11
2492.479913
 21
523.543232
 31
0.0
  0
POLYLINE
  5
29002
  8
ALPHA
 66
     1
 10
0.0
 20
0.0
 30
0.0
  0
VERTEX
  5
2A627
  8
ALPHA
 10
2492.511286
 20
521.515029
 30
0.0
  0
VERTEX
  5
2A628
  8
ALPHA
 10
2492.940379
 20
521.286298
 30
0.0
  0
VERTEX
  5
2A629
  8
ALPHA
 10
2493.341594
 20
521.101505
 30
0.0
  0
VERTEX
  5
2A62A
  8
ALPHA
 10
2493.713374
 20
520.953488
 30
0.0
  0
VERTEX
  5
2A62B
  8
ALPHA
 10
2494.056152
 20
520.835645
 30
0.0
  0
VERTEX
  5
2A62C
  8
ALPHA
 10
2494.370537
 20
520.742548
 30
0.0
  0
VERTEX
  5
2A62D
  8
ALPHA
 10
2494.657778
 20
520.66957
 30
0.0
  0
VERTEX
  5
2A62E
  8
ALPHA
 10
2494.920122
 20
520.612712
 30
0.0
  0
VERTEX
  5
2A62F
  8
ALPHA
 10
2495.160282
 20
520.56868
 30
0.0
  0
VERTEX
  5
2A630
  8
ALPHA
 10
2495.380998
 20
520.534858
 30
0.0
  0
SEQEND
  5
2A631
  8
ALPHA
  0
POLYLINE
  5
2900E
  8
ALPHA
 66
     1
 10
0.0
 20
0.0
 30
0.0
  0
VERTEX
  5
2A632
  8
ALPHA
 10
2497.353728
 20
520.513469
 30
0.0
  0
VERTEX
  5
2A633
  8
ALPHA
 10
2497.359405
 20
520.510477
 30
0.0
  0
VERTEX
  5
2A634
  8
ALPHA
 10
2497.375203
 20
520.509226
 30
0.0
  0
SEQEND
  5
2A635
  8
ALPHA
  0
LINE
  5
29013
  8
ALPHA
 10
2495.640089
 20
520.535717
 30
0.0
 11
2495.629913
 21
520.545765
 31
0.0
  0
POLYLINE
  5
29014
  8
ALPHA
 66
     1
 10
0.0
 20
0.0
 30
0.0
  0
VERTEX
  5
2A636
  8
ALPHA
 10
2495.656313
 20
520.521267
 30
0.0
  0
VERTEX
  5
2A637
  8
ALPHA
 10
2495.654816
 20
520.525154
 30
0.0
  0
VERTEX
  5
2A638
  8
ALPHA
 10
2495.640089
 20
520.535717
 30
0.0
  0
SEQEND
  5
2A639
  8
ALPHA
  0
LINE
  5
29019
  8
ALPHA
 10
2505.179913
 20
526.543232
 30
0.0
 11
2506.679913
 21
526.543232
 31
0.0
  0
LINE
  5
2901A
  8
ALPHA
 10
2476.179913
 20
511.543232
 30
0.0
 11
2476.179913
 21
480.843232
 31
0.0
  0
LINE
  5
2901B
  8
ALPHA
 10
2471.179913
 20
511.543232
 30
0.0
 11
2471.179913
 21
480.843232
 31
0.0
  0
LINE
  5
2901C
  8
ALPHA
 10
2477.679913
 20
511.543232
 30
0.0
 11
2469.679913
 21
511.543232
 31
0.0
  0
LINE
  5
2901D
  8
ALPHA
 10
2476.179913
 20
480.843232
 30
0.0
 11
2471.179913
 21
480.843232
 31
0.0
  0
ENDSEC
  0
EOF
