999
DXF file: C:\Users\sesa63760\Dev\_Creo\CAD\MCADID0003479_3D-CAD\drw0001_7.dxf
999
Pro/ENGINEER 2019471 by Parametric Technology Corporation
  0
SECTION
  2
HEADER
  9
$ACADVER
  1
AC1024
  9
$DWGCODEPAGE
  3
ANSI_1252
  9
$EXTMAX
 10
37.9218884689
 20
53.6323851204
 30
0.0
  9
$EXTMIN
 10
0.0
 20
0.0
 30
0.0
  9
$LIMMIN
 10
0.0
 20
0.0
  9
$LIMMAX
 10
37.9218884689
 20
53.6323851204
  9
$VIEWCTR
 10
18.9609442345
 20
26.8161925602
  9
$VIEWSIZE
 40
53.6323851204
  9
$CLAYER
  8
0
  9
$LTSCALE
 40
3.496036956
  9
$CELTYPE
  6
BYLAYER
  9
$DIMSCALE
 40
1.0
  9
$DIMASZ
 40
0.4514510532
  9
$DIMEXO
 40
1.0
  9
$DIMDLI
 40
2.415443715
  9
$DIMEXE
 40
1.0
  9
$DIMCEN
 40
0.5720787746
  9
$DIMLFAC
 40
1.0
  9
$DIMBLK
  1
_FILLED
  9
$DIMALT
 70
0
  9
$DIMALTF
 40
0.0393700787
  9
$DIMTXT
 40
0.6320314745
  9
$DIMTOL
 70
1
  9
$DIMLIM
 70
0
  9
$DIMTFAC
 40
1.0
  9
$DIMTP
 40
0.01
  9
$DIMTM
 40
0.01
  9
$DIMGAP
 40
0.625
  9
$DIMDSEP
 70
46
  9
$AUNITS
 70
0
  9
$PDMODE
 70
3
  9
$PDSIZE
 40
0.3125
  9
$HANDSEED
  5
265
  9
$TILEMODE
 70
1
  9
$MEASUREMENT
 70
1
  9
$INSUNITS
 70
4
  0
ENDSEC
  0
SECTION
  2
CLASSES
  0
CLASS
  1
ACDBDICTIONARYWDFLT
  2
AcDbDictionaryWithDefault
  3
AutoCAD 2000
 90
0
 91
1
280
0
281
0
  0
CLASS
  1
ACDBPLACEHOLDER
  2
AcDbPlaceHolder
  3
AutoCAD 2000
 90
0
 91
1
280
0
281
0
  0
CLASS
  1
LAYOUT
  2
AcDbLayout
  3
AutoCAD 2000
 90
0
 91
0
280
0
281
0
  0
ENDSEC
  0
SECTION
  2
TABLES
  0
TABLE
  2
VPORT
  5
8
100
AcDbSymbolTable
 70
2
  0
VPORT
  5
1F4
100
AcDbSymbolTableRecord
100
AcDbViewportTableRecord
  2
*ACTIVE
 70
0
 10
0.0
 20
0.0
 11
1.0
 21
1.0
 12
18.9609442345
 22
26.8161925602
 13
0.0
 23
0.0
 14
1.0
 24
1.0
 15
0.0
 25
0.0
 16
0.0
 26
0.0
 36
1.0
 17
0.0
 27
0.0
 37
0.0
 40
53.6323851204
 41
0.7070707071
 42
50.0
 43
0.0
 44
0.0
 50
0.0
 51
0.0
 71
0
 72
100
 73
1
 74
1
 75
0
 76
0
 77
0
 78
0
  0
ENDTAB
  0
TABLE
  2
LTYPE
  5
5
100
AcDbSymbolTable
 70
6
  0
LTYPE
  5
14
100
AcDbSymbolTableRecord
100
AcDbLinetypeTableRecord
  2
BYBLOCK
 70
0
  3

 72
65
 73
0
 40
0.0
  0
LTYPE
  5
15
100
AcDbSymbolTableRecord
100
AcDbLinetypeTableRecord
  2
BYLAYER
 70
0
  3

 72
65
 73
0
 40
0.0
  0
LTYPE
  5
16
100
AcDbSymbolTableRecord
100
AcDbLinetypeTableRecord
  2
CONTINUOUS
 70
64
  3
Solid line
 72
65
 73
0
 40
0.0
  0
LTYPE
  5
1F5
100
AcDbSymbolTableRecord
100
AcDbLinetypeTableRecord
  2
CENTER
 70
64
  3
____ _ ____ _ ____ _ ____ _ ____ _ ____ _ ____
 72
65
 73
4
 40
0.6
 49
0.375
 74
0
 49
-0.075
 74
0
 49
0.075
 74
0
 49
-0.075
 74
0
  0
LTYPE
  5
1F6
100
AcDbSymbolTableRecord
100
AcDbLinetypeTableRecord
  2
HIDDEN
 70
64
  3
- - - - - - - - - - - - - - - - - - - -
 72
65
 73
2
 40
0.2
 49
0.1
 74
0
 49
-0.1
 74
0
  0
LTYPE
  5
1F7
100
AcDbSymbolTableRecord
100
AcDbLinetypeTableRecord
  2
PHANTOM
 70
64
  3
_____ _ _ _____ _ _ _____ _ _ _____
 72
65
 73
6
 40
0.8
 49
0.45
 74
0
 49
-0.05
 74
0
 49
0.1
 74
0
 49
-0.05
 74
0
 49
0.1
 74
0
 49
-0.05
 74
0
  0
LTYPE
  5
1F8
100
AcDbSymbolTableRecord
100
AcDbLinetypeTableRecord
  2
DOT
 70
64
  3
. . . . . . . . . . . . . . . . . . . .
 72
65
 73
2
 40
0.2
 49
0.1
 74
0
 49
-0.1
 74
0
  0
LTYPE
  5
1F9
100
AcDbSymbolTableRecord
100
AcDbLinetypeTableRecord
  2
DASHED
 70
64
  3
- - - - - - - - - - - - - - - - - - - -
 72
65
 73
2
 40
0.2
 49
0.1
 74
0
 49
-0.1
 74
0
  0
ENDTAB
  0
TABLE
  2
LAYER
  5
2
100
AcDbSymbolTable
 70
36
  0
LAYER
  5
10
100
AcDbSymbolTableRecord
100
AcDbLayerTableRecord
  2
0
 70
0
 62
7
  6
CONTINUOUS
370
-3
390
F
  0
LAYER
  5
1FA
100
AcDbSymbolTableRecord
100
AcDbLayerTableRecord
  2
DEFAULT_1
 70
0
 62
7
  6
CENTER
370
-3
390
F
  0
LAYER
  5
1FB
100
AcDbSymbolTableRecord
100
AcDbLayerTableRecord
  2
DEFAULT_2
 70
0
 62
7
  6
HIDDEN
370
-3
390
F
  0
LAYER
  5
1FC
100
AcDbSymbolTableRecord
100
AcDbLayerTableRecord
  2
DEFAULT_3
 70
0
 62
7
  6
PHANTOM
370
-3
390
F
  0
LAYER
  5
1FD
100
AcDbSymbolTableRecord
100
AcDbLayerTableRecord
  2
00_COMPONENTS
 70
0
 62
7
  6
CONTINUOUS
370
-3
390
F
  0
LAYER
  5
1FE
100
AcDbSymbolTableRecord
100
AcDbLayerTableRecord
  2
01_1_DEFAULT_DATUMS
 70
0
 62
7
  6
CONTINUOUS
370
-3
390
F
  0
LAYER
  5
1FF
100
AcDbSymbolTableRecord
100
AcDbLayerTableRecord
  2
01_PLANES
 70
0
 62
7
  6
CONTINUOUS
370
-3
390
F
  0
LAYER
  5
200
100
AcDbSymbolTableRecord
100
AcDbLayerTableRecord
  2
02_COORD_SYS
 70
0
 62
7
  6
CONTINUOUS
370
-3
390
F
  0
LAYER
  5
201
100
AcDbSymbolTableRecord
100
AcDbLayerTableRecord
  2
03_AXES
 70
0
 62
7
  6
CONTINUOUS
370
-3
390
F
  0
LAYER
  5
202
100
AcDbSymbolTableRecord
100
AcDbLayerTableRecord
  2
04_POINTS
 70
0
 62
7
  6
CONTINUOUS
370
-3
390
F
  0
LAYER
  5
203
100
AcDbSymbolTableRecord
100
AcDbLayerTableRecord
  2
05_CURVES
 70
0
 62
7
  6
CONTINUOUS
370
-3
390
F
  0
LAYER
  5
204
100
AcDbSymbolTableRecord
100
AcDbLayerTableRecord
  2
06_SURFS
 70
0
 62
7
  6
CONTINUOUS
370
-3
390
F
  0
LAYER
  5
205
100
AcDbSymbolTableRecord
100
AcDbLayerTableRecord
  2
07_COSMETICS
 70
0
 62
7
  6
CONTINUOUS
370
-3
390
F
  0
LAYER
  5
206
100
AcDbSymbolTableRecord
100
AcDbLayerTableRecord
  2
10_NOTES
 70
0
 62
7
  6
CONTINUOUS
370
-3
390
F
  0
LAYER
  5
207
100
AcDbSymbolTableRecord
100
AcDbLayerTableRecord
  2
11_NOTES_PUB
 70
0
 62
7
  6
CONTINUOUS
370
-3
390
F
  0
LAYER
  5
208
100
AcDbSymbolTableRecord
100
AcDbLayerTableRecord
  2
13_REF_GTOL
 70
0
 62
7
  6
CONTINUOUS
370
-3
390
F
  0
LAYER
  5
209
100
AcDbSymbolTableRecord
100
AcDbLayerTableRecord
  2
16_MISC
 70
0
 62
7
  6
CONTINUOUS
370
-3
390
F
  0
LAYER
  5
20A
100
AcDbSymbolTableRecord
100
AcDbLayerTableRecord
  2
17_NO_PRINT
 70
0
 62
7
  6
CONTINUOUS
370
-3
390
F
  0
LAYER
  5
20B
100
AcDbSymbolTableRecord
100
AcDbLayerTableRecord
  2
18_DATUM_CAMS_JOINTS
 70
0
 62
7
  6
CONTINUOUS
370
-3
390
F
  0
LAYER
  5
20C
100
AcDbSymbolTableRecord
100
AcDbLayerTableRecord
  2
19_DATUM_FUNCTIONAL
 70
0
 62
7
  6
CONTINUOUS
370
-3
390
F
  0
LAYER
  5
20D
100
AcDbSymbolTableRecord
100
AcDbLayerTableRecord
  2
20_DATUM_KINEMATIC_SCHEME
 70
0
 62
7
  6
CONTINUOUS
370
-3
390
F
  0
ENDTAB
  0
TABLE
  2
STYLE
  5
3
100
AcDbSymbolTable
 70
1
  0
STYLE
  5
11
100
AcDbSymbolTableRecord
100
AcDbTextStyleTableRecord
  2
STANDARD
 70
0
 40
0.0
 41
1.0
 50
0.0
 71
0
 42
0.2
  3
ARIAL.TTF
  4

  0
STYLE
  5
20E
100
AcDbSymbolTableRecord
100
AcDbTextStyleTableRecord
  2
TEXTSTYLE_1
 70
0
 40
0.0
 41
0.8
 50
0.0
 71
0
 42
0.2
  3
gdt
  4

  0
ENDTAB
  0
TABLE
  2
VIEW
  5
6
100
AcDbSymbolTable
 70
0
  0
ENDTAB
  0
TABLE
  2
UCS
  5
7
100
AcDbSymbolTable
 70
0
  0
ENDTAB
  0
TABLE
  2
APPID
  5
9
100
AcDbSymbolTable
 70
1
  0
APPID
  5
20F
100
AcDbSymbolTableRecord
100
AcDbRegAppTableRecord
  2
ACAD
 70
0
  0
ENDTAB
  0
TABLE
  2
BLOCK_RECORD
  5
1
100
AcDbSymbolTable
 70
0
  0
BLOCK_RECORD
  5
210
100
AcDbSymbolTableRecord
100
AcDbBlockTableRecord
  2
*Model_Space
  0
BLOCK_RECORD
  5
211
100
AcDbSymbolTableRecord
100
AcDbBlockTableRecord
  2
*Paper_Space
  0
BLOCK_RECORD
  5
212
100
AcDbSymbolTableRecord
100
AcDbBlockTableRecord
  2
_FILLED
  0
ENDTAB
  0
TABLE
  2
DIMSTYLE
  5
A
100
AcDbSymbolTable
 70
1
100
AcDbDimStyleTable
 71
0
  0
DIMSTYLE
105
213
100
AcDbSymbolTableRecord
100
AcDbDimStyleTableRecord
  2
STANDARD
 70
0
  3

  4

 40
1.0
 41
0.4514510532
 42
1.0
 43
0.38
 44
1.0
 45
0.0
 46
0.0
 47
0.01
 48
0.01
140
0.6320314745
141
0.09
142
0.0
143
25.4
144
1.0
145
0.0
146
1.0
147
0.625
 71
1
 72
0
 73
0
 74
0
 75
0
 76
0
 77
1
 78
8
 79
2
170
0
171
1
172
0
173
0
174
0
175
0
176
0
177
0
178
0
270
2
179
2
271
2
272
2
273
2
274
2
275
0
280
0
281
0
282
0
283
1
284
8
285
0
286
0
287
3
288
0
340
11
278
46
341
212
342
212
343
212
344
212
  0
ENDTAB
  0
ENDSEC
  0
SECTION
  2
BLOCKS
  0
BLOCK
  5
20
100
AcDbEntity
  8
0
100
AcDbBlockBegin
  2
*Model_Space
 70
0
 10
0.0
 20
0.0
 30
0.0
  3
*Model_Space
  1

  0
ENDBLK
  5
21
100
AcDbEntity
  8
0
100
AcDbBlockEnd
  0
BLOCK
  5
1C
100
AcDbEntity
  8
0
100
AcDbBlockBegin
  2
*Paper_Space
 70
0
 10
0.0
 20
0.0
 30
0.0
  3
*Paper_Space
  1

  0
ENDBLK
  5
1D
100
AcDbEntity
  8
0
100
AcDbBlockEnd
  0
BLOCK
  5
214
100
AcDbEntity
  8
0
100
AcDbBlockBegin
  2
_FILLED
 70
64
 10
0.0
 20
0.0
  3
_FILLED
  1

  0
SOLID
  5
215
100
AcDbEntity
  8
0
  6
BYBLOCK
 62
0
100
AcDbTrace
 10
0.0
 20
0.0
 11
-1.0
 21
0.25
 12
-1.0
 22
-0.25
 13
-1.0
 23
-0.25
  0
ENDBLK
  5
216
100
AcDbEntity
  8
0
  6
BYBLOCK
 62
0
100
AcDbBlockEnd
  0
ENDSEC
  0
SECTION
  2
ENTITIES
  0
LINE
  5
217
100
AcDbEntity
  8
0
100
AcDbLine
 62
7
  6
BYLAYER
 10
4.0265897487
 20
11.9755663954
 11
4.0265897487
 21
41.9755663954
  0
LINE
  5
218
100
AcDbEntity
  8
0
100
AcDbLine
 62
7
  6
BYLAYER
 10
9.6377353912
 20
11.9649452748
 11
18.4461329379
 21
11.9649452748
  0
LINE
  5
219
100
AcDbEntity
  8
0
100
AcDbLine
 62
7
  6
BYLAYER
 10
19.6080919708
 20
11.9649452748
 11
28.5445288677
 21
11.9649452748
  0
LINE
  5
21A
100
AcDbEntity
  8
0
100
AcDbLine
 62
7
  6
BYLAYER
 10
34.0265897487
 20
11.9755663954
 11
32.3956415803
 21
11.9755663954
  0
LINE
  5
21B
100
AcDbEntity
  8
0
100
AcDbLine
 62
7
  6
BYLAYER
 10
5.8665426829
 20
11.9755663954
 11
4.0265897487
 21
11.9755663954
  0
LINE
  5
21C
100
AcDbEntity
  8
0
100
AcDbLine
 62
7
  6
BYLAYER
 10
21.1322931005
 20
12.4886923011
 11
16.920886397
 21
12.4886923011
  0
LINE
  5
21D
100
AcDbEntity
  8
0
100
AcDbLine
 62
7
  6
BYLAYER
 10
21.3995713462
 20
12.8837752316
 11
16.6536081511
 21
12.8837752316
  0
LINE
  5
21E
100
AcDbEntity
  8
0
100
AcDbLine
 62
7
  6
BYLAYER
 10
5.8665426829
 20
15.6755663954
 11
5.8665426829
 21
16.9755663954
  0
LINE
  5
21F
100
AcDbEntity
  8
0
100
AcDbLine
 62
7
  6
BYLAYER
 10
20.0193460778
 20
13.4755663954
 11
18.0338334252
 21
13.4755663954
  0
LINE
  5
220
100
AcDbEntity
  8
0
100
AcDbLine
 62
7
  6
BYLAYER
 10
20.5112796603
 20
14.3242106895
 11
17.6413342677
 21
14.3242106895
  0
LINE
  5
221
100
AcDbEntity
  8
0
100
AcDbLine
 62
7
  6
BYLAYER
 10
6.5265897487
 20
41.9755663954
 11
6.5265897487
 21
16.9755663954
  0
LINE
  5
222
100
AcDbEntity
  8
0
100
AcDbLine
 62
7
  6
BYLAYER
 10
4.0265897487
 20
15.6755663954
 11
5.8665426829
 21
15.6755663954
  0
LINE
  5
223
100
AcDbEntity
  8
0
100
AcDbLine
 62
7
  6
BYLAYER
 10
32.3956415803
 20
15.6755663954
 11
34.0265897487
 21
15.6755663954
  0
LINE
  5
224
100
AcDbEntity
  8
0
100
AcDbLine
 62
7
  6
BYLAYER
 10
34.0265897487
 20
15.7755663954
 11
32.3956415803
 21
15.7755663954
  0
LINE
  5
225
100
AcDbEntity
  8
0
100
AcDbLine
 62
7
  6
BYLAYER
 10
5.8665426829
 20
15.7755663954
 11
4.0265897487
 21
15.7755663954
  0
LINE
  5
226
100
AcDbEntity
  8
0
100
AcDbLine
 62
7
  6
BYLAYER
 10
4.0265897487
 20
16.9755663954
 11
34.0265897487
 21
16.9755663954
  0
LINE
  5
227
100
AcDbEntity
  8
0
100
AcDbLine
 62
7
  6
BYLAYER
 10
9.6377370233
 20
16.9755663954
 11
9.6377370233
 21
11.9659016781
  0
LINE
  5
228
100
AcDbEntity
  8
0
100
AcDbLine
 62
7
  6
BYLAYER
 10
21.5215897487
 20
12.8241339214
 11
21.2518930015
 21
13.0897030888
  0
LINE
  5
229
100
AcDbEntity
  8
0
100
AcDbLine
 62
7
  6
BYLAYER
 10
13.2499729982
 20
12.1563512457
 11
13.2499729982
 21
16.9755663954
  0
LINE
  5
22A
100
AcDbEntity
  8
0
100
AcDbLine
 62
7
  6
BYLAYER
 10
13.5265897487
 20
31.2255663954
 11
13.5265897487
 21
27.7255663954
  0
LINE
  5
22B
100
AcDbEntity
  8
0
100
AcDbLine
 62
7
  6
BYLAYER
 10
14.9335072265
 20
16.9755663954
 11
14.9335072265
 21
13.1130387495
  0
LINE
  5
22C
100
AcDbEntity
  8
0
100
AcDbLine
 62
7
  6
BYLAYER
 10
16.6536864187
 20
12.8829075411
 11
16.6485924315
 21
12.939367879
  0
LINE
  5
22D
100
AcDbEntity
  8
0
100
AcDbLine
 62
7
  6
BYLAYER
 10
17.2765897487
 20
34.2255663954
 11
17.2765897487
 21
31.2255663954
  0
LINE
  5
22E
100
AcDbEntity
  8
0
100
AcDbLine
 62
7
  6
BYLAYER
 10
17.2765897487
 20
27.7255663954
 11
17.2765897487
 21
24.7255663954
  0
LINE
  5
22F
100
AcDbEntity
  8
0
100
AcDbLine
 62
7
  6
BYLAYER
 10
17.5013143925
 20
14.2733772729
 11
17.5013143925
 21
16.9755663954
  0
LINE
  5
230
100
AcDbEntity
  8
0
100
AcDbLine
 62
7
  6
BYLAYER
 10
17.2765897487
 20
24.7255663954
 11
20.7765897487
 21
24.7255663954
  0
LINE
  5
231
100
AcDbEntity
  8
0
100
AcDbLine
 62
7
  6
BYLAYER
 10
11.7981736013
 20
27.4755663954
 11
17.2765897487
 21
27.4755663954
  0
LINE
  5
232
100
AcDbEntity
  8
0
100
AcDbLine
 62
7
  6
BYLAYER
 10
20.7765897487
 20
27.4755663954
 11
26.2550058961
 21
27.4755663954
  0
LINE
  5
233
100
AcDbEntity
  8
0
100
AcDbLine
 62
7
  6
BYLAYER
 10
24.5265897487
 20
27.7255663954
 11
13.5265897487
 21
27.7255663954
  0
LINE
  5
234
100
AcDbEntity
  8
0
100
AcDbLine
 62
7
  6
BYLAYER
 10
20.6512995356
 20
14.2733769249
 11
20.6512995356
 21
16.9755663954
  0
LINE
  5
235
100
AcDbEntity
  8
0
100
AcDbLine
 62
7
  6
BYLAYER
 10
20.7765897487
 20
34.2255663954
 11
20.7765897487
 21
31.2255663954
  0
LINE
  5
236
100
AcDbEntity
  8
0
100
AcDbLine
 62
7
  6
BYLAYER
 10
20.7765897487
 20
27.7255663954
 11
20.7765897487
 21
24.7255663954
  0
LINE
  5
237
100
AcDbEntity
  8
0
100
AcDbLine
 62
7
  6
BYLAYER
 10
23.2191067016
 20
13.1130387495
 11
23.2191067016
 21
16.9755663954
  0
LINE
  5
238
100
AcDbEntity
  8
0
100
AcDbLine
 62
7
  6
BYLAYER
 10
21.4045841988
 20
12.9393487573
 11
21.3994930785
 21
12.8829075391
  0
LINE
  5
239
100
AcDbEntity
  8
0
100
AcDbLine
 62
7
  6
BYLAYER
 10
13.5265897487
 20
31.2255663954
 11
24.5265897487
 21
31.2255663954
  0
LINE
  5
23A
100
AcDbEntity
  8
0
100
AcDbLine
 62
7
  6
BYLAYER
 10
24.5265897487
 20
27.7255663954
 11
24.5265897487
 21
31.2255663954
  0
LINE
  5
23B
100
AcDbEntity
  8
0
100
AcDbLine
 62
7
  6
BYLAYER
 10
26.2265897487
 20
31.5755663954
 11
20.7765897487
 21
31.5755663954
  0
LINE
  5
23C
100
AcDbEntity
  8
0
100
AcDbLine
 62
7
  6
BYLAYER
 10
17.2765897487
 20
31.5755663954
 11
11.8265897487
 21
31.5755663954
  0
LINE
  5
23D
100
AcDbEntity
  8
0
100
AcDbLine
 62
7
  6
BYLAYER
 10
24.9011228647
 20
16.9755663954
 11
24.9011228647
 21
12.1563512457
  0
LINE
  5
23E
100
AcDbEntity
  8
0
100
AcDbLine
 62
7
  6
BYLAYER
 10
16.8012792534
 20
13.0897442032
 11
16.5315897487
 21
12.8241339214
  0
LINE
  5
23F
100
AcDbEntity
  8
0
100
AcDbLine
 62
7
  6
BYLAYER
 10
20.7765897487
 20
34.2255663954
 11
17.2765897487
 21
34.2255663954
  0
LINE
  5
240
100
AcDbEntity
  8
0
100
AcDbLine
 62
7
  6
BYLAYER
 10
28.5445276855
 20
11.9659016781
 11
28.5445276855
 21
16.9755663954
  0
LINE
  5
241
100
AcDbEntity
  8
0
100
AcDbLine
 62
7
  6
BYLAYER
 10
31.5265897487
 20
41.9755663954
 11
31.5265897487
 21
16.9755663954
  0
LINE
  5
242
100
AcDbEntity
  8
0
100
AcDbLine
 62
7
  6
BYLAYER
 10
32.3956415803
 20
15.6755663954
 11
32.3956415803
 21
16.9755663954
  0
LINE
  5
243
100
AcDbEntity
  8
0
100
AcDbLine
 62
7
  6
BYLAYER
 10
34.0265897487
 20
11.9755663954
 11
34.0265897487
 21
41.9755663954
  0
LINE
  5
244
100
AcDbEntity
  8
0
100
AcDbLine
 62
7
  6
BYLAYER
 10
4.0265897487
 20
41.9755663954
 11
34.0265897487
 21
41.9755663954
  0
ARC
  5
245
100
AcDbEntity
  8
0
100
AcDbCircle
 62
7
  6
BYLAYER
 10
29.2359127016
 20
267.7725815094
 40
255.8076018584
100
AcDbArc
 50
269.8451434223
 51
270.0442510972
  0
ARC
  5
246
100
AcDbEntity
  8
0
100
AcDbCircle
 62
7
  6
BYLAYER
 10
19.0265897487
 20
29.4755663954
 40
7.5
100
AcDbArc
 50
195.4660099534
 51
344.5339900466
  0
ARC
  5
247
100
AcDbEntity
  8
0
100
AcDbCircle
 62
7
  6
BYLAYER
 10
19.0265897487
 20
29.4755663954
 40
7.5
100
AcDbArc
 50
16.2602047083
 51
163.7397952917
  0
ARC
  5
248
100
AcDbEntity
  8
0
100
AcDbCircle
 62
7
  6
BYLAYER
 10
18.8482461062
 20
7.8553706915
 40
5.6789525371
100
AcDbArc
 50
98.2528126438
 51
101.268901996
  0
ARC
  5
249
100
AcDbEntity
  8
0
100
AcDbCircle
 62
7
  6
BYLAYER
 10
19.2183830733
 20
7.9337322568
 40
5.5994725786
100
AcDbArc
 50
78.709115006
 51
81.7682856797
  0
ARC
  5
24A
100
AcDbEntity
  8
0
100
AcDbCircle
 62
7
  6
BYLAYER
 10
19.0265897487
 20
29.4755663954
 40
5.5
100
AcDbArc
 50
201.3236862635
 51
338.6763137365
  0
ARC
  5
24B
100
AcDbEntity
  8
0
100
AcDbCircle
 62
7
  6
BYLAYER
 10
19.0265897487
 20
29.4755663954
 40
5.5
100
AcDbArc
 50
22.4463505814
 51
157.5536494186
  0
ARC
  5
24C
100
AcDbEntity
  8
0
100
AcDbCircle
 62
7
  6
BYLAYER
 10
18.630190791
 20
11.382199929
 40
3.1037500767
100
AcDbArc
 50
108.578313991
 51
111.3277770251
  0
ARC
  5
24D
100
AcDbEntity
  8
0
100
AcDbCircle
 62
7
  6
BYLAYER
 10
19.5448552918
 20
11.4439748032
 40
3.0380478635
100
AcDbArc
 50
68.6420479908
 51
71.451515641
  0
SPLINE
  5
24E
100
AcDbEntity
  8
0
100
AcDbSpline
 62
7
  6
BYLAYER
 70
0
 71
3
 72
11
 73
7
 74
0
 42
0.0000001
 43
0.0000001
 44
0.0000000001
 40
0.0
 40
0.0
 40
0.0
 40
0.0
 40
0.3030354628
 40
0.5735829852
 40
0.8067441609
 40
1.0
 40
1.0
 40
1.0
 40
1.0
 10
17.7386224563
 20
13.4248688024
 30
0.0
 10
17.6348473911
 20
13.4048057876
 30
0.0
 10
17.4394426081
 20
13.3612154927
 30
0.0
 10
17.1692334075
 20
13.2817550659
 30
0.0
 10
16.9420677594
 20
13.1944874474
 30
0.0
 10
16.8090400401
 20
13.1268379066
 30
0.0
 10
16.7517516993
 20
13.0913181083
 30
0.0
  0
SPLINE
  5
24F
100
AcDbEntity
  8
0
100
AcDbSpline
 62
7
  6
BYLAYER
 70
0
 71
3
 72
11
 73
7
 74
0
 42
0.0000001
 43
0.0000001
 44
0.0000000001
 40
0.0
 40
0.0
 40
0.0
 40
0.0
 40
0.1932474215
 40
0.4264059848
 40
0.6969563044
 40
1.0
 40
1.0
 40
1.0
 40
1.0
 10
21.301491969
 20
13.0912785055
 30
0.0
 10
21.2442043773
 20
13.1268031392
 30
0.0
 10
21.1111730658
 20
13.1944613687
 30
0.0
 10
20.8839954972
 20
13.2817388702
 30
0.0
 10
20.6137648867
 20
13.3612089331
 30
0.0
 10
20.4183423978
 20
13.4048038446
 30
0.0
 10
20.3145570411
 20
13.4248688024
 30
0.0
  0
SPLINE
  5
250
100
AcDbEntity
  8
0
100
AcDbSpline
 62
7
  6
BYLAYER
 70
0
 71
3
 72
11
 73
7
 74
0
 42
0.0000001
 43
0.0000001
 44
0.0000000001
 40
0.0
 40
0.0
 40
0.0
 40
0.0
 40
0.2499158554
 40
0.5000098704
 40
0.7501231016
 40
1.0
 40
1.0
 40
1.0
 40
1.0
 10
16.9214532363
 20
12.4883088187
 30
0.0
 10
16.8848917817
 20
12.5075426807
 30
0.0
 10
16.8160358312
 20
12.5549208417
 30
0.0
 10
16.7329745789
 20
12.6486472038
 30
0.0
 10
16.6757754161
 20
12.7600828297
 30
0.0
 10
16.6573988146
 20
12.8417691467
 30
0.0
 10
16.6536864187
 20
12.8829075411
 30
0.0
  0
SPLINE
  5
251
100
AcDbEntity
  8
0
100
AcDbSpline
 62
7
  6
BYLAYER
 70
0
 71
3
 72
11
 73
7
 74
0
 42
0.0000001
 43
0.0000001
 44
0.0000000001
 40
0.0
 40
0.0
 40
0.0
 40
0.0
 40
0.2498769128
 40
0.4999901652
 40
0.7500841617
 40
1.0
 40
1.0
 40
1.0
 40
1.0
 10
21.3994930785
 20
12.8829075391
 30
0.0
 10
21.3957806854
 20
12.8417691761
 30
0.0
 10
21.3774041002
 20
12.7600829216
 30
0.0
 10
21.3202050246
 20
12.6486473667
 30
0.0
 10
21.2371438871
 20
12.5549210423
 30
0.0
 10
21.1682880049
 20
12.507542908
 30
0.0
 10
21.1317265828
 20
12.4883090631
 30
0.0
  0
SPLINE
  5
252
100
AcDbEntity
  8
0
100
AcDbSpline
 62
7
  6
BYLAYER
 70
0
 71
3
 72
31
 73
27
 74
0
 42
0.0000001
 43
0.0000001
 44
0.0000000001
 40
0.0
 40
0.0
 40
0.0
 40
0.0
 40
0.1249466414
 40
0.1874519254
 40
0.2187066422
 40
0.2499603438
 40
0.2812185557
 40
0.3124763717
 40
0.343725934
 40
0.3749793188
 40
0.4062408208
 40
0.4374939111
 40
0.4687409927
 40
0.4999999008
 40
0.5312584841
 40
0.56250536
 40
0.593758849
 40
0.6250204082
 40
0.6562735048
 40
0.6875231118
 40
0.7187811667
 40
0.750039402
 40
0.7812930227
 40
0.8125477492
 40
0.8750532212
 40
1.0
 40
1.0
 40
1.0
 40
1.0
 10
16.9214532363
 20
12.4883088187
 30
0.0
 10
17.0801442209
 20
12.3956844662
 30
0.0
 10
17.3277889076
 20
12.2722229394
 30
0.0
 10
17.6285747071
 20
12.1578405808
 30
0.0
 10
17.803514123
 20
12.1011994721
 30
0.0
 10
17.9360795411
 20
12.0631578349
 30
0.0
 10
18.0697482484
 20
12.0291967012
 30
0.0
 10
18.2043677784
 20
11.9992253229
 30
0.0
 10
18.3400324317
 20
11.9743735485
 30
0.0
 10
18.4765665676
 20
11.9549100438
 30
0.0
 10
18.6135482611
 20
11.9389916533
 30
0.0
 10
18.7509169312
 20
11.9267282342
 30
0.0
 10
18.8886939219
 20
11.9203884909
 30
0.0
 10
19.0265890708
 20
11.9189160164
 30
0.0
 10
19.1644852741
 20
11.9203457627
 30
0.0
 10
19.3022600535
 20
11.9267407297
 30
0.0
 10
19.439626521
 20
11.9390216585
 30
0.0
 10
19.5766145251
 20
11.9548869081
 30
0.0
 10
19.713149992
 20
11.9743446804
 30
0.0
 10
19.8488070484
 20
11.9992386719
 30
0.0
 10
19.983423303
 20
12.0292244224
 30
0.0
 10
20.1170970942
 20
12.0631659849
 30
0.0
 10
20.249667705
 20
12.1011898646
 30
0.0
 10
20.4246073447
 20
12.15783162
 30
0.0
 10
20.7253868355
 20
12.2722314079
 30
0.0
 10
20.9730354237
 20
12.3956846088
 30
0.0
 10
21.1317265828
 20
12.4883090631
 30
0.0
  0
SPLINE
  5
253
100
AcDbEntity
  8
0
100
AcDbSpline
 62
7
  6
BYLAYER
 70
0
 71
3
 72
11
 73
7
 74
0
 42
0.0000001
 43
0.0000001
 44
0.0000000001
 40
0.0
 40
0.0
 40
0.0
 40
0.0
 40
0.2277748898
 40
0.4634536034
 40
0.7179541047
 40
1.0
 40
1.0
 40
1.0
 40
1.0
 10
16.5315897487
 20
12.8241339214
 30
0.0
 10
16.5315897487
 20
12.8126502256
 30
0.0
 10
16.534426392
 20
12.7891880322
 30
0.0
 10
16.5472466063
 20
12.7550208471
 30
0.0
 10
16.5683716986
 20
12.7220350401
 30
0.0
 10
16.5867855343
 20
12.7020454636
 30
0.0
 10
16.5970906388
 20
12.692247019
 30
0.0
  0
SPLINE
  5
254
100
AcDbEntity
  8
0
100
AcDbSpline
 62
7
  6
BYLAYER
 70
0
 71
3
 72
9
 73
5
 74
0
 42
0.0000001
 43
0.0000001
 44
0.0000000001
 40
0.0
 40
0.0
 40
0.0
 40
0.0
 40
0.4627115866
 40
1.0
 40
1.0
 40
1.0
 40
1.0
 10
16.5970906388
 20
12.692247019
 30
0.0
 10
16.6126702402
 20
12.6774334031
 30
0.0
 10
16.6495314024
 20
12.6487602638
 30
0.0
 10
16.689788643
 20
12.6253695646
 30
0.0
 10
16.7119310903
 20
12.6138429408
 30
0.0
  0
SPLINE
  5
255
100
AcDbEntity
  8
0
100
AcDbSpline
 62
7
  6
BYLAYER
 70
0
 71
3
 72
10
 73
6
 74
0
 42
0.0000001
 43
0.0000001
 44
0.0000000001
 40
0.0
 40
0.0
 40
0.0
 40
0.0
 40
0.25000014
 40
0.6249999887
 40
1.0
 40
1.0
 40
1.0
 40
1.0
 10
9.6377370233
 20
11.9659016781
 30
0.0
 10
9.5651950465
 20
11.9657422703
 30
0.0
 10
9.3838407371
 20
11.9650532184
 30
0.0
 10
9.0936717316
 20
11.9653934754
 30
0.0
 10
8.8760457299
 20
11.9649452748
 30
0.0
 10
8.7672325597
 20
11.9649452748
 30
0.0
  0
SPLINE
  5
256
100
AcDbEntity
  8
0
100
AcDbSpline
 62
7
  6
BYLAYER
 70
0
 71
3
 72
16
 73
12
 74
0
 42
0.0000001
 43
0.0000001
 44
0.0000000001
 40
0.0
 40
0.0
 40
0.0
 40
0.0
 40
0.0329465611
 40
0.070555252
 40
0.1127752245
 40
0.1595163932
 40
0.265989023
 40
0.3886132006
 40
0.5255380566
 40
0.6746593405
 40
1.0
 40
1.0
 40
1.0
 40
1.0
 10
13.2500840854
 20
12.1563876071
 30
0.0
 10
13.212070196
 20
12.1445641052
 30
0.0
 10
13.1295850798
 20
12.1226925169
 30
0.0
 10
12.9960303001
 20
12.0953955387
 30
0.0
 10
12.8449523264
 20
12.071356883
 30
0.0
 10
12.6105623578
 20
12.0423171993
 30
0.0
 10
12.2782615644
 20
12.0149791446
 30
0.0
 10
11.8364899874
 20
11.993165596
 30
0.0
 10
11.3428522259
 20
11.9792620702
 30
0.0
 10
10.6041677484
 20
11.9683416663
 30
0.0
 10
10.0308523731
 20
11.966589635
 30
0.0
 10
9.6377353912
 20
11.9659017364
 30
0.0
  0
SPLINE
  5
257
100
AcDbEntity
  8
0
100
AcDbSpline
 62
7
  6
BYLAYER
 70
0
 71
3
 72
11
 73
7
 74
0
 42
0.0000001
 43
0.0000001
 44
0.0000000001
 40
0.0
 40
0.0
 40
0.0
 40
0.0
 40
0.285785348
 40
0.5491157194
 40
0.7878946932
 40
1.0
 40
1.0
 40
1.0
 40
1.0
 10
17.5013479736
 20
14.2733897243
 30
0.0
 10
17.2500336341
 20
14.1785175121
 30
0.0
 10
16.7701607908
 20
13.988128781
 30
0.0
 10
16.0911131206
 20
13.6922318349
 30
0.0
 10
15.4847953346
 20
13.4037517148
 30
0.0
 10
15.1085093259
 20
13.2085054712
 30
0.0
 10
14.9334902598
 20
13.1130249652
 30
0.0
  0
SPLINE
  5
258
100
AcDbEntity
  8
0
100
AcDbSpline
 62
7
  6
BYLAYER
 70
0
 71
3
 72
11
 73
7
 74
0
 42
0.0000001
 43
0.0000001
 44
0.0000000001
 40
0.0
 40
0.0
 40
0.0
 40
0.0
 40
0.2123347165
 40
0.45117523
 40
0.7144193996
 40
1.0
 40
1.0
 40
1.0
 40
1.0
 10
23.2191119455
 20
13.1130344853
 30
0.0
 10
23.0437981366
 20
13.2084103706
 30
0.0
 10
22.6671259054
 20
13.4034657894
 30
0.0
 10
22.0605961933
 20
13.6918861559
 30
0.0
 10
21.3818380293
 20
13.9878365173
 30
0.0
 10
20.9023464114
 20
14.1783894113
 30
0.0
 10
20.651292293
 20
14.2733796847
 30
0.0
  0
SPLINE
  5
259
100
AcDbEntity
  8
0
100
AcDbSpline
 62
7
  6
BYLAYER
 70
0
 71
3
 72
16
 73
12
 74
0
 42
0.0000001
 43
0.0000001
 44
0.0000000001
 40
0.0
 40
0.0
 40
0.0
 40
0.0
 40
0.3245928402
 40
0.4735208226
 40
0.6103800977
 40
0.7330690143
 40
0.8397365995
 40
0.8866226251
 40
0.9290173942
 40
0.9668280797
 40
1.0
 40
1.0
 40
1.0
 40
1.0
 10
28.5445288677
 20
11.9659017211
 30
0.0
 10
28.1489592444
 20
11.9665810295
 30
0.0
 10
27.5718851109
 20
11.9683107521
 30
0.0
 10
26.8281043648
 20
11.9791584231
 30
0.0
 10
26.3304749017
 20
11.9930088341
 30
0.0
 10
25.8846756712
 20
12.0147838138
 30
0.0
 10
25.5490192481
 20
12.0421133776
 30
0.0
 10
25.3119637213
 20
12.0711688924
 30
0.0
 10
25.1589241159
 20
12.095247955
 30
0.0
 10
25.0234443101
 20
12.1226092646
 30
0.0
 10
24.9396809987
 20
12.1445305467
 30
0.0
 10
24.9010315151
 20
12.1563811733
 30
0.0
  0
SPLINE
  5
25A
100
AcDbEntity
  8
0
100
AcDbSpline
 62
7
  6
BYLAYER
 70
0
 71
3
 72
9
 73
5
 74
0
 42
0.0000001
 43
0.0000001
 44
0.0000000001
 40
0.0
 40
0.0
 40
0.0
 40
0.0
 40
0.5378164855
 40
1.0
 40
1.0
 40
1.0
 40
1.0
 10
21.3412115146
 20
12.6138230394
 30
0.0
 10
21.3636351426
 20
12.6254949209
 30
0.0
 10
21.404353041
 20
12.6491807106
 30
0.0
 10
21.4415711303
 20
12.6782991538
 30
0.0
 10
21.4572398402
 20
12.693347158
 30
0.0
  0
SPLINE
  5
25B
100
AcDbEntity
  8
0
100
AcDbSpline
 62
7
  6
BYLAYER
 70
0
 71
3
 72
11
 73
7
 74
0
 42
0.0000001
 43
0.0000001
 44
0.0000000001
 40
0.0
 40
0.0
 40
0.0
 40
0.0
 40
0.2815537418
 40
0.5359563465
 40
0.7718479051
 40
1.0
 40
1.0
 40
1.0
 40
1.0
 10
21.4572398402
 20
12.693347158
 30
0.0
 10
21.4673706578
 20
12.7030766498
 30
0.0
 10
21.4854722821
 20
12.72292514
 30
0.0
 10
21.5062197289
 20
12.7556396043
 30
0.0
 10
21.5188058144
 20
12.7895076217
 30
0.0
 10
21.5215897487
 20
12.8127518103
 30
0.0
 10
21.5215897487
 20
12.8241339214
 30
0.0
  0
SPLINE
  5
25C
100
AcDbEntity
  8
0
100
AcDbSpline
 62
7
  6
BYLAYER
 70
0
 71
3
 72
11
 73
7
 74
0
 42
0.0000001
 43
0.0000001
 44
0.0000000001
 40
0.0
 40
0.0
 40
0.0
 40
0.0
 40
0.2565575148
 40
0.5104918504
 40
0.7591335966
 40
1.0
 40
1.0
 40
1.0
 40
1.0
 10
19.0265897487
 20
13.5436706575
 30
0.0
 10
18.9414258546
 20
13.5436706575
 30
0.0
 10
18.7719574483
 20
13.5405918924
 30
0.0
 10
18.5202477567
 20
13.5277478316
 30
0.0
 10
18.2743149621
 20
13.5066364098
 30
0.0
 10
18.1130011909
 20
13.4867604687
 30
0.0
 10
18.0338334252
 20
13.4755663954
 30
0.0
  0
SPLINE
  5
25D
100
AcDbEntity
  8
0
100
AcDbSpline
 62
7
  6
BYLAYER
 70
0
 71
3
 72
22
 73
18
 74
0
 42
0.0000001
 43
0.0000001
 44
0.0000000001
 40
0.0
 40
0.0
 40
0.0
 40
0.0
 40
0.0549859859
 40
0.1130512515
 40
0.1736474808
 40
0.2362722468
 40
0.3005543473
 40
0.3662616037
 40
0.4329731177
 40
0.5000831186
 40
0.6337593104
 40
0.6994781994
 40
0.7637580307
 40
0.8263685937
 40
0.8869533804
 40
0.9450145356
 40
1.0
 40
1.0
 40
1.0
 40
1.0
 10
20.511271881
 20
14.3242106895
 30
0.0
 10
20.459713816
 20
14.341550266
 30
0.0
 10
20.3541124725
 20
14.3783875427
 30
0.0
 10
20.1921640144
 20
14.4356734982
 30
0.0
 10
20.0225019905
 20
14.4938135701
 30
0.0
 10
19.8456191629
 20
14.5497649003
 30
0.0
 10
19.6616096839
 20
14.5995659856
 30
0.0
 10
19.4709273491
 20
14.6390856514
 30
0.0
 10
19.2750514633
 20
14.6650298874
 30
0.0
 10
19.0104029632
 20
14.6779840932
 30
0.0
 10
18.7464356294
 20
14.6524849392
 30
0.0
 10
18.4909510918
 20
14.5995142684
 30
0.0
 10
18.3069152151
 20
14.549741889
 30
0.0
 10
18.1300592228
 20
14.4938154356
 30
0.0
 10
17.9604294635
 20
14.4356672742
 30
0.0
 10
17.7984967067
 20
14.3783858943
 30
0.0
 10
17.6928996026
 20
14.3415501015
 30
0.0
 10
17.6413420266
 20
14.3242106895
 30
0.0
  0
SPLINE
  5
25E
100
AcDbEntity
  8
0
100
AcDbSpline
 62
7
  6
BYLAYER
 70
0
 71
3
 72
11
 73
7
 74
0
 42
0.0000001
 43
0.0000001
 44
0.0000000001
 40
0.0
 40
0.0
 40
0.0
 40
0.0
 40
0.240866392
 40
0.4895081243
 40
0.743442474
 40
1.0
 40
1.0
 40
1.0
 40
1.0
 10
20.0193460778
 20
13.4755663954
 30
0.0
 10
19.9401783156
 20
13.4867604694
 30
0.0
 10
19.7788645529
 20
13.5066364196
 30
0.0
 10
19.5329317588
 20
13.5277478216
 30
0.0
 10
19.2812220629
 20
13.5405918983
 30
0.0
 10
19.111753647
 20
13.5436706575
 30
0.0
 10
19.0265897487
 20
13.5436706575
 30
0.0
  0
ELLIPSE
  5
25F
100
AcDbEntity
  8
0
100
AcDbEllipse
 62
7
  6
BYLAYER
 10
29.4334799729
 20
42.5162779702
 30
0.0
 11
112.3469820618
 21
-0.0
 31
0.0
 40
0.2719372798
 41
-1.5707963268
 42
-1.5444270834
  0
ELLIPSE
  5
260
100
AcDbEntity
  8
0
100
AcDbEllipse
 62
7
  6
BYLAYER
 10
8.7672325597
 20
42.5162779702
 30
0.0
 11
110.0155213505
 21
-0.0
 31
0.0
 40
0.2777002038
 41
-1.5971655702
 42
-1.5707963268
  0
ELLIPSE
  5
261
100
AcDbEntity
  8
0
100
AcDbEllipse
 62
7
  6
BYLAYER
 10
12.0725241848
 20
42.5162779702
 30
0.0
 11
-0.0
 21
30.5513326953
 31
0.0
 40
0.3448383085
 41
-3.0295960997
 42
-2.8665766
  0
ELLIPSE
  5
262
100
AcDbEntity
  8
0
100
AcDbEllipse
 62
7
  6
BYLAYER
 10
26.077509957
 20
42.5162779702
 30
0.0
 11
-0.0
 21
30.5513326953
 31
0.0
 40
0.3445273632
 41
-3.4166087072
 42
-3.2535892075
  0
ENDSEC
  0
SECTION
  2
OBJECTS
  0
DICTIONARY
  5
C
100
AcDbDictionary
280
0
281
1
  3
ACAD_GROUP
350
D
  3
ACAD_MLINESTYLE
350
17
  3
ACAD_LAYOUT
350
1A
  3
ACAD_PLOTSETTINGS
350
19
  3
ACAD_PLOTSTYLENAME
350
E
  0
DICTIONARY
  5
D
102
{ACAD_REACTORS
330
C
102
}
100
AcDbDictionary
280
0
281
1
  0
ACDBDICTIONARYWDFLT
  5
E
102
{ACAD_REACTORS
330
C
102
}
100
AcDbDictionary
281
1
  3
Normal
350
F
100
AcDbDictionaryWithDefault
340
F
  0
DICTIONARY
  5
17
102
{ACAD_REACTORS
330
C
102
}
100
AcDbDictionary
280
0
281
1
  3
Standard
350
18
  0
DICTIONARY
  5
19
102
{ACAD_REACTORS
330
C
102
}
100
AcDbDictionary
281
1
  0
DICTIONARY
  5
1A
102
{ACAD_REACTORS
330
C
102
}
100
AcDbDictionary
281
1
  3
Model
350
263
  3
Layout1
350
264
  0
ACDBPLACEHOLDER
  5
F
102
{ACAD_REACTORS
330
E
102
}
  0
MLINESTYLE
  5
18
102
{ACAD_REACTORS
330
17
102
}
100
AcDbMlineStyle
  2
STANDARD
 70
0
  3

 62
256
 51
90.0
 52
90.0
 71
2
 49
0.5
 62
256
  6
BYLAYER
 49
-0.5
 62
256
  6
BYLAYER
  0
LAYOUT
  5
263
102
{ACAD_REACTORS
330
1A
102
}
100
AcDbPlotSettings
  1

  2
none_device
  4

  6

 40
0.0
 41
0.0
 42
0.0
 43
0.0
 44
210.0
 45
297.0
 46
0.0
 47
0.0
 48
0.0
 49
0.0
140
0.0
141
0.0
142
1.0
143
1.0
 70
1024
 72
1
 73
0
 74
0
  7

 75
0
147
1.0
148
0.0
149
0.0
100
AcDbLayout
  1
Model
 70
0
 71
0
 10
0.0
 20
0.0
 11
210.0
 21
297.0
 12
0.0
 22
0.0
 32
0.0
 14
0.0
 24
0.0
 34
0.0
 15
0.0
 25
0.0
 35
0.0
146
0.0
 13
0.0
 23
0.0
 33
0.0
 16
1.0
 26
0.0
 36
0.0
 17
0.0
 27
1.0
 37
0.0
 76
0
330
210
345
0
346
0
  0
LAYOUT
  5
264
102
{ACAD_REACTORS
330
1A
102
}
100
AcDbPlotSettings
  1

  2
none_device
  4

  6

 40
0.0
 41
0.0
 42
0.0
 43
0.0
 44
210.0
 45
297.0
 46
0.0
 47
0.0
 48
0.0
 49
0.0
140
0.0
141
0.0
142
1.0
143
1.0
 70
0
 72
1
 73
0
 74
0
  7

 75
0
147
1.0
148
0.0
149
0.0
100
AcDbLayout
  1
Layout1
 70
0
 71
1
 10
0.0
 20
0.0
 11
210.0
 21
297.0
 12
0.0
 22
0.0
 32
0.0
 14
0.0
 24
0.0
 34
0.0
 15
0.0
 25
0.0
 35
0.0
146
0.0
 13
0.0
 23
0.0
 33
0.0
 16
1.0
 26
0.0
 36
0.0
 17
0.0
 27
1.0
 37
0.0
 76
0
330
211
345
0
346
0
  0
ENDSEC
  0
EOF
