999
DXF file: C:\Users\sesa63760\Dev\_Creo\CAD\MCADPD0004417_3D-CAD\drw0001_7.dxf
999
Pro/ENGINEER 2019471 by Parametric Technology Corporation
  0
SECTION
  2
HEADER
  9
$ACADVER
  1
AC1024
  9
$DWGCODEPAGE
  3
ANSI_1252
  9
$EXTMAX
 10
212.9946069004
 20
301.2352297592
 30
0.0
  9
$EXTMIN
 10
0.0
 20
0.0
 30
0.0
  9
$LIMMIN
 10
0.0
 20
0.0
  9
$LIMMAX
 10
212.9946069004
 20
301.2352297592
  9
$VIEWCTR
 10
106.4973034502
 20
150.6176148796
  9
$VIEWSIZE
 40
301.2352297592
  9
$CLAYER
  8
0
  9
$LTSCALE
 40
19.6360742362
  9
$CELTYPE
  6
BYLAYER
  9
$DIMSCALE
 40
1.0
  9
$DIMASZ
 40
2.5356500821
  9
$DIMEXO
 40
1.0
  9
$DIMDLI
 40
13.5667421995
  9
$DIMEXE
 40
1.0
  9
$DIMCEN
 40
3.2131757841
  9
$DIMLFAC
 40
1.0
  9
$DIMBLK
  1
_FILLED
  9
$DIMALT
 70
0
  9
$DIMALTF
 40
0.0393700787
  9
$DIMTXT
 40
3.549910115
  9
$DIMTOL
 70
1
  9
$DIMLIM
 70
0
  9
$DIMTFAC
 40
1.0
  9
$DIMTP
 40
0.01
  9
$DIMTM
 40
0.01
  9
$DIMGAP
 40
0.625
  9
$DIMDSEP
 70
46
  9
$AUNITS
 70
0
  9
$PDMODE
 70
3
  9
$PDSIZE
 40
0.3125
  9
$HANDSEED
  5
2FA
  9
$TILEMODE
 70
1
  9
$MEASUREMENT
 70
1
  9
$INSUNITS
 70
4
  0
ENDSEC
  0
SECTION
  2
CLASSES
  0
CLASS
  1
ACDBDICTIONARYWDFLT
  2
AcDbDictionaryWithDefault
  3
AutoCAD 2000
 90
0
 91
1
280
0
281
0
  0
CLASS
  1
ACDBPLACEHOLDER
  2
AcDbPlaceHolder
  3
AutoCAD 2000
 90
0
 91
1
280
0
281
0
  0
CLASS
  1
LAYOUT
  2
AcDbLayout
  3
AutoCAD 2000
 90
0
 91
0
280
0
281
0
  0
ENDSEC
  0
SECTION
  2
TABLES
  0
TABLE
  2
VPORT
  5
8
100
AcDbSymbolTable
 70
2
  0
VPORT
  5
1F4
100
AcDbSymbolTableRecord
100
AcDbViewportTableRecord
  2
*ACTIVE
 70
0
 10
0.0
 20
0.0
 11
1.0
 21
1.0
 12
106.4973034502
 22
150.6176148796
 13
0.0
 23
0.0
 14
1.0
 24
1.0
 15
0.0
 25
0.0
 16
0.0
 26
0.0
 36
1.0
 17
0.0
 27
0.0
 37
0.0
 40
301.2352297592
 41
0.7070707071
 42
50.0
 43
0.0
 44
0.0
 50
0.0
 51
0.0
 71
0
 72
100
 73
1
 74
1
 75
0
 76
0
 77
0
 78
0
  0
ENDTAB
  0
TABLE
  2
LTYPE
  5
5
100
AcDbSymbolTable
 70
6
  0
LTYPE
  5
14
100
AcDbSymbolTableRecord
100
AcDbLinetypeTableRecord
  2
BYBLOCK
 70
0
  3

 72
65
 73
0
 40
0.0
  0
LTYPE
  5
15
100
AcDbSymbolTableRecord
100
AcDbLinetypeTableRecord
  2
BYLAYER
 70
0
  3

 72
65
 73
0
 40
0.0
  0
LTYPE
  5
16
100
AcDbSymbolTableRecord
100
AcDbLinetypeTableRecord
  2
CONTINUOUS
 70
64
  3
Solid line
 72
65
 73
0
 40
0.0
  0
LTYPE
  5
1F5
100
AcDbSymbolTableRecord
100
AcDbLinetypeTableRecord
  2
CENTER
 70
64
  3
____ _ ____ _ ____ _ ____ _ ____ _ ____ _ ____
 72
65
 73
4
 40
0.6
 49
0.375
 74
0
 49
-0.075
 74
0
 49
0.075
 74
0
 49
-0.075
 74
0
  0
LTYPE
  5
1F6
100
AcDbSymbolTableRecord
100
AcDbLinetypeTableRecord
  2
HIDDEN
 70
64
  3
- - - - - - - - - - - - - - - - - - - -
 72
65
 73
2
 40
0.2
 49
0.1
 74
0
 49
-0.1
 74
0
  0
LTYPE
  5
1F7
100
AcDbSymbolTableRecord
100
AcDbLinetypeTableRecord
  2
PHANTOM
 70
64
  3
_____ _ _ _____ _ _ _____ _ _ _____
 72
65
 73
6
 40
0.8
 49
0.45
 74
0
 49
-0.05
 74
0
 49
0.1
 74
0
 49
-0.05
 74
0
 49
0.1
 74
0
 49
-0.05
 74
0
  0
LTYPE
  5
1F8
100
AcDbSymbolTableRecord
100
AcDbLinetypeTableRecord
  2
DOT
 70
64
  3
. . . . . . . . . . . . . . . . . . . .
 72
65
 73
2
 40
0.2
 49
0.1
 74
0
 49
-0.1
 74
0
  0
LTYPE
  5
1F9
100
AcDbSymbolTableRecord
100
AcDbLinetypeTableRecord
  2
DASHED
 70
64
  3
- - - - - - - - - - - - - - - - - - - -
 72
65
 73
2
 40
0.2
 49
0.1
 74
0
 49
-0.1
 74
0
  0
ENDTAB
  0
TABLE
  2
LAYER
  5
2
100
AcDbSymbolTable
 70
36
  0
LAYER
  5
10
100
AcDbSymbolTableRecord
100
AcDbLayerTableRecord
  2
0
 70
0
 62
7
  6
CONTINUOUS
370
-3
390
F
  0
LAYER
  5
1FA
100
AcDbSymbolTableRecord
100
AcDbLayerTableRecord
  2
DEFAULT_1
 70
0
 62
7
  6
CENTER
370
-3
390
F
  0
LAYER
  5
1FB
100
AcDbSymbolTableRecord
100
AcDbLayerTableRecord
  2
DEFAULT_2
 70
0
 62
7
  6
HIDDEN
370
-3
390
F
  0
LAYER
  5
1FC
100
AcDbSymbolTableRecord
100
AcDbLayerTableRecord
  2
DEFAULT_3
 70
0
 62
7
  6
PHANTOM
370
-3
390
F
  0
LAYER
  5
1FD
100
AcDbSymbolTableRecord
100
AcDbLayerTableRecord
  2
00_COMPONENTS
 70
0
 62
7
  6
CONTINUOUS
370
-3
390
F
  0
LAYER
  5
1FE
100
AcDbSymbolTableRecord
100
AcDbLayerTableRecord
  2
01_1_DEFAULT_DATUMS
 70
0
 62
7
  6
CONTINUOUS
370
-3
390
F
  0
LAYER
  5
1FF
100
AcDbSymbolTableRecord
100
AcDbLayerTableRecord
  2
01_PLANES
 70
0
 62
7
  6
CONTINUOUS
370
-3
390
F
  0
LAYER
  5
200
100
AcDbSymbolTableRecord
100
AcDbLayerTableRecord
  2
02_COORD_SYS
 70
0
 62
7
  6
CONTINUOUS
370
-3
390
F
  0
LAYER
  5
201
100
AcDbSymbolTableRecord
100
AcDbLayerTableRecord
  2
03_AXES
 70
0
 62
7
  6
CONTINUOUS
370
-3
390
F
  0
LAYER
  5
202
100
AcDbSymbolTableRecord
100
AcDbLayerTableRecord
  2
04_POINTS
 70
0
 62
7
  6
CONTINUOUS
370
-3
390
F
  0
LAYER
  5
203
100
AcDbSymbolTableRecord
100
AcDbLayerTableRecord
  2
05_CURVES
 70
0
 62
7
  6
CONTINUOUS
370
-3
390
F
  0
LAYER
  5
204
100
AcDbSymbolTableRecord
100
AcDbLayerTableRecord
  2
06_SURFS
 70
0
 62
7
  6
CONTINUOUS
370
-3
390
F
  0
LAYER
  5
205
100
AcDbSymbolTableRecord
100
AcDbLayerTableRecord
  2
07_COSMETICS
 70
0
 62
7
  6
CONTINUOUS
370
-3
390
F
  0
LAYER
  5
206
100
AcDbSymbolTableRecord
100
AcDbLayerTableRecord
  2
10_NOTES
 70
0
 62
7
  6
CONTINUOUS
370
-3
390
F
  0
LAYER
  5
207
100
AcDbSymbolTableRecord
100
AcDbLayerTableRecord
  2
11_NOTES_PUB
 70
0
 62
7
  6
CONTINUOUS
370
-3
390
F
  0
LAYER
  5
208
100
AcDbSymbolTableRecord
100
AcDbLayerTableRecord
  2
13_REF_GTOL
 70
0
 62
7
  6
CONTINUOUS
370
-3
390
F
  0
LAYER
  5
209
100
AcDbSymbolTableRecord
100
AcDbLayerTableRecord
  2
16_MISC
 70
0
 62
7
  6
CONTINUOUS
370
-3
390
F
  0
LAYER
  5
20A
100
AcDbSymbolTableRecord
100
AcDbLayerTableRecord
  2
17_NO_PRINT
 70
0
 62
7
  6
CONTINUOUS
370
-3
390
F
  0
LAYER
  5
20B
100
AcDbSymbolTableRecord
100
AcDbLayerTableRecord
  2
18_DATUM_CAMS_JOINTS
 70
0
 62
7
  6
CONTINUOUS
370
-3
390
F
  0
LAYER
  5
20C
100
AcDbSymbolTableRecord
100
AcDbLayerTableRecord
  2
19_DATUM_FUNCTIONAL
 70
0
 62
7
  6
CONTINUOUS
370
-3
390
F
  0
LAYER
  5
20D
100
AcDbSymbolTableRecord
100
AcDbLayerTableRecord
  2
20_DATUM_KINEMATIC_SCHEME
 70
0
 62
7
  6
CONTINUOUS
370
-3
390
F
  0
ENDTAB
  0
TABLE
  2
STYLE
  5
3
100
AcDbSymbolTable
 70
1
  0
STYLE
  5
11
100
AcDbSymbolTableRecord
100
AcDbTextStyleTableRecord
  2
STANDARD
 70
0
 40
0.0
 41
1.0
 50
0.0
 71
0
 42
0.2
  3
ARIAL.TTF
  4

  0
STYLE
  5
20E
100
AcDbSymbolTableRecord
100
AcDbTextStyleTableRecord
  2
TEXTSTYLE_1
 70
0
 40
0.0
 41
0.8
 50
0.0
 71
0
 42
0.2
  3
gdt
  4

  0
ENDTAB
  0
TABLE
  2
VIEW
  5
6
100
AcDbSymbolTable
 70
0
  0
ENDTAB
  0
TABLE
  2
UCS
  5
7
100
AcDbSymbolTable
 70
0
  0
ENDTAB
  0
TABLE
  2
APPID
  5
9
100
AcDbSymbolTable
 70
1
  0
APPID
  5
20F
100
AcDbSymbolTableRecord
100
AcDbRegAppTableRecord
  2
ACAD
 70
0
  0
ENDTAB
  0
TABLE
  2
BLOCK_RECORD
  5
1
100
AcDbSymbolTable
 70
0
  0
BLOCK_RECORD
  5
210
100
AcDbSymbolTableRecord
100
AcDbBlockTableRecord
  2
*Model_Space
  0
BLOCK_RECORD
  5
211
100
AcDbSymbolTableRecord
100
AcDbBlockTableRecord
  2
*Paper_Space
  0
BLOCK_RECORD
  5
212
100
AcDbSymbolTableRecord
100
AcDbBlockTableRecord
  2
_FILLED
  0
ENDTAB
  0
TABLE
  2
DIMSTYLE
  5
A
100
AcDbSymbolTable
 70
1
100
AcDbDimStyleTable
 71
0
  0
DIMSTYLE
105
213
100
AcDbSymbolTableRecord
100
AcDbDimStyleTableRecord
  2
STANDARD
 70
0
  3

  4

 40
1.0
 41
2.5356500821
 42
1.0
 43
0.38
 44
1.0
 45
0.0
 46
0.0
 47
0.01
 48
0.01
140
3.549910115
141
0.09
142
0.0
143
25.4
144
1.0
145
0.0
146
1.0
147
0.625
 71
1
 72
0
 73
0
 74
0
 75
0
 76
0
 77
1
 78
8
 79
2
170
0
171
1
172
0
173
0
174
0
175
0
176
0
177
0
178
0
270
2
179
2
271
2
272
2
273
2
274
2
275
0
280
0
281
0
282
0
283
1
284
8
285
0
286
0
287
3
288
0
340
11
278
46
341
212
342
212
343
212
344
212
  0
ENDTAB
  0
ENDSEC
  0
SECTION
  2
BLOCKS
  0
BLOCK
  5
20
100
AcDbEntity
  8
0
100
AcDbBlockBegin
  2
*Model_Space
 70
0
 10
0.0
 20
0.0
 30
0.0
  3
*Model_Space
  1

  0
ENDBLK
  5
21
100
AcDbEntity
  8
0
100
AcDbBlockEnd
  0
BLOCK
  5
1C
100
AcDbEntity
  8
0
100
AcDbBlockBegin
  2
*Paper_Space
 70
0
 10
0.0
 20
0.0
 30
0.0
  3
*Paper_Space
  1

  0
ENDBLK
  5
1D
100
AcDbEntity
  8
0
100
AcDbBlockEnd
  0
BLOCK
  5
214
100
AcDbEntity
  8
0
100
AcDbBlockBegin
  2
_FILLED
 70
64
 10
0.0
 20
0.0
  3
_FILLED
  1

  0
SOLID
  5
215
100
AcDbEntity
  8
0
  6
BYBLOCK
 62
0
100
AcDbTrace
 10
0.0
 20
0.0
 11
-1.0
 21
0.25
 12
-1.0
 22
-0.25
 13
-1.0
 23
-0.25
  0
ENDBLK
  5
216
100
AcDbEntity
  8
0
  6
BYBLOCK
 62
0
100
AcDbBlockEnd
  0
ENDSEC
  0
SECTION
  2
ENTITIES
  0
LINE
  5
217
100
AcDbEntity
  8
0
100
AcDbLine
 62
7
  6
BYLAYER
 10
56.1160124217
 20
52.8550328227
 11
31.1160124217
 21
52.8550328227
  0
LINE
  5
218
100
AcDbEntity
  8
0
100
AcDbLine
 62
7
  6
BYLAYER
 10
79.1160124217
 20
52.8550328227
 11
104.1160124217
 21
52.8550328227
  0
LINE
  5
219
100
AcDbEntity
  8
0
100
AcDbLine
 62
7
  6
BYLAYER
 10
127.1160124217
 20
52.8550328227
 11
152.1160124217
 21
52.8550328227
  0
LINE
  5
21A
100
AcDbEntity
  8
0
100
AcDbLine
 62
7
  6
BYLAYER
 10
22.6160124217
 20
93.3550328227
 11
22.6160124217
 21
209.3550328227
  0
LINE
  5
21B
100
AcDbEntity
  8
0
100
AcDbLine
 62
7
  6
BYLAYER
 10
24.6160124217
 20
91.3550328227
 11
24.6160124393
 21
114.283858252
  0
LINE
  5
21C
100
AcDbEntity
  8
0
100
AcDbLine
 62
7
  6
BYLAYER
 10
24.6160124955
 20
116.354410596
 11
24.6160124555
 21
186.3556550394
  0
LINE
  5
21D
100
AcDbEntity
  8
0
100
AcDbLine
 62
7
  6
BYLAYER
 10
24.6160125746
 20
188.4262062639
 11
24.6160124217
 21
211.3550328227
  0
LINE
  5
21E
100
AcDbEntity
  8
0
100
AcDbLine
 62
7
  6
BYLAYER
 10
29.6160124217
 20
191.6050328227
 11
29.6160124217
 21
189.7659533501
  0
LINE
  5
21F
100
AcDbEntity
  8
0
100
AcDbLine
 62
7
  6
BYLAYER
 10
29.6160124217
 20
187.6954009893
 11
29.6160124217
 21
115.0146646561
  0
LINE
  5
220
100
AcDbEntity
  8
0
100
AcDbLine
 62
7
  6
BYLAYER
 10
29.6160124217
 20
112.9441122953
 11
29.6160124217
 21
111.1050328227
  0
LINE
  5
221
100
AcDbEntity
  8
0
100
AcDbLine
 62
7
  6
BYLAYER
 10
30.6160124217
 20
111.1050328227
 11
30.6160124217
 21
191.6050328227
  0
LINE
  5
222
100
AcDbEntity
  8
0
100
AcDbLine
 62
7
  6
BYLAYER
 10
31.1160124217
 20
249.8550328227
 11
31.1160124217
 21
224.0870836303
  0
LINE
  5
223
100
AcDbEntity
  8
0
100
AcDbLine
 62
7
  6
BYLAYER
 10
31.1160124217
 20
52.8550328227
 11
31.1160124217
 21
78.6229820151
  0
LINE
  5
224
100
AcDbEntity
  8
0
100
AcDbLine
 62
7
  6
BYLAYER
 10
31.6160124217
 20
109.1050328227
 11
31.6160124217
 21
193.6050328227
  0
LINE
  5
225
100
AcDbEntity
  8
0
100
AcDbLine
 62
7
  6
BYLAYER
 10
36.1160124217
 20
82.8550328227
 11
36.1160124217
 21
116.4334937918
  0
LINE
  5
226
100
AcDbEntity
  8
0
100
AcDbLine
 62
7
  6
BYLAYER
 10
36.1160124217
 20
126.7961870959
 11
36.1160124217
 21
175.9138785495
  0
LINE
  5
227
100
AcDbEntity
  8
0
100
AcDbLine
 62
7
  6
BYLAYER
 10
36.1160124217
 20
186.2765718536
 11
36.1160124217
 21
219.8550328227
  0
LINE
  5
228
100
AcDbEntity
  8
0
100
AcDbLine
 62
7
  6
BYLAYER
 10
38.1160124217
 20
186.2765718536
 11
38.1160124217
 21
175.9138785495
  0
LINE
  5
229
100
AcDbEntity
  8
0
100
AcDbLine
 62
7
  6
BYLAYER
 10
38.1160124217
 20
126.7961870959
 11
38.1160124217
 21
116.4334937918
  0
LINE
  5
22A
100
AcDbEntity
  8
0
100
AcDbLine
 62
7
  6
BYLAYER
 10
24.3571196332
 20
115.3885045514
 11
24.6159740184
 21
116.3544209071
  0
LINE
  5
22B
100
AcDbEntity
  8
0
100
AcDbLine
 62
7
  6
BYLAYER
 10
24.6160124386
 20
114.2838582525
 11
24.8748314838
 21
115.2497840792
  0
LINE
  5
22C
100
AcDbEntity
  8
0
100
AcDbLine
 62
7
  6
BYLAYER
 10
36.1160124217
 20
82.8550328227
 11
85.6160124217
 21
82.8550328227
  0
LINE
  5
22D
100
AcDbEntity
  8
0
100
AcDbLine
 62
7
  6
BYLAYER
 10
97.6160124217
 20
82.8550328227
 11
147.1160124217
 21
82.8550328227
  0
LINE
  5
22E
100
AcDbEntity
  8
0
100
AcDbLine
 62
7
  6
BYLAYER
 10
147.1160124217
 20
83.3550328227
 11
97.1160124217
 21
83.3550328227
  0
LINE
  5
22F
100
AcDbEntity
  8
0
100
AcDbLine
 62
7
  6
BYLAYER
 10
86.1160124217
 20
83.3550328227
 11
36.1160124217
 21
83.3550328227
  0
LINE
  5
230
100
AcDbEntity
  8
0
100
AcDbLine
 62
7
  6
BYLAYER
 10
24.6160378662
 20
186.355661845
 11
24.357132786
 21
187.3215646182
  0
LINE
  5
231
100
AcDbEntity
  8
0
100
AcDbLine
 62
7
  6
BYLAYER
 10
24.8748314668
 20
187.4602815617
 11
24.6160125674
 21
188.4262068445
  0
LINE
  5
232
100
AcDbEntity
  8
0
100
AcDbLine
 62
7
  6
BYLAYER
 10
29.8748314668
 20
113.9100381215
 11
29.6160124216
 21
112.9441122949
  0
LINE
  5
233
100
AcDbEntity
  8
0
100
AcDbLine
 62
7
  6
BYLAYER
 10
24.0983718045
 20
188.2181547028
 11
24.6160124981
 21
188.4262062333
  0
LINE
  5
234
100
AcDbEntity
  8
0
100
AcDbLine
 62
7
  6
BYLAYER
 10
147.1160124217
 20
90.3550328227
 11
191.1160124217
 21
90.3550328227
  0
LINE
  5
235
100
AcDbEntity
  8
0
100
AcDbLine
 62
7
  6
BYLAYER
 10
24.6160124217
 20
91.3550328227
 11
36.1160124217
 21
91.3550328227
  0
LINE
  5
236
100
AcDbEntity
  8
0
100
AcDbLine
 62
7
  6
BYLAYER
 10
24.6160124305
 20
114.2838582555
 11
24.0983651406
 21
114.4919116969
  0
LINE
  5
237
100
AcDbEntity
  8
0
100
AcDbLine
 62
7
  6
BYLAYER
 10
29.6160125673
 20
189.7659528066
 11
29.8748314668
 21
188.8000275238
  0
LINE
  5
238
100
AcDbEntity
  8
0
100
AcDbLine
 62
7
  6
BYLAYER
 10
48.3660124217
 20
91.3550328227
 11
48.3660124217
 21
98.3550328227
  0
LINE
  5
239
100
AcDbEntity
  8
0
100
AcDbLine
 62
7
  6
BYLAYER
 10
48.3660124217
 20
204.3550328227
 11
48.3660124217
 21
211.3550328227
  0
LINE
  5
23A
100
AcDbEntity
  8
0
100
AcDbLine
 62
7
  6
BYLAYER
 10
54.8660124217
 20
211.3550328227
 11
54.8660124217
 21
204.3550328227
  0
LINE
  5
23B
100
AcDbEntity
  8
0
100
AcDbLine
 62
7
  6
BYLAYER
 10
54.8660124217
 20
98.3550328227
 11
54.8660124217
 21
91.3550328227
  0
LINE
  5
23C
100
AcDbEntity
  8
0
100
AcDbLine
 62
7
  6
BYLAYER
 10
56.1160124217
 20
69.9627279773
 11
56.1160124217
 21
52.8550328227
  0
LINE
  5
23D
100
AcDbEntity
  8
0
100
AcDbLine
 62
7
  6
BYLAYER
 10
56.1160124217
 20
232.7473376681
 11
56.1160124217
 21
249.8550328227
  0
LINE
  5
23E
100
AcDbEntity
  8
0
100
AcDbLine
 62
7
  6
BYLAYER
 10
97.6160124217
 20
219.8550328227
 11
94.8660124217
 21
217.1050328227
  0
LINE
  5
23F
100
AcDbEntity
  8
0
100
AcDbLine
 62
7
  6
BYLAYER
 10
48.3660124217
 20
93.3550328227
 11
54.8660124217
 21
93.3550328227
  0
LINE
  5
240
100
AcDbEntity
  8
0
100
AcDbLine
 62
7
  6
BYLAYER
 10
88.3660124217
 20
93.3550328227
 11
94.8660124217
 21
93.3550328227
  0
LINE
  5
241
100
AcDbEntity
  8
0
100
AcDbLine
 62
7
  6
BYLAYER
 10
128.3660124217
 20
93.3550328227
 11
134.8660124217
 21
93.3550328227
  0
LINE
  5
242
100
AcDbEntity
  8
0
100
AcDbLine
 62
7
  6
BYLAYER
 10
48.3660124217
 20
96.3550328227
 11
54.8660124217
 21
96.3550328227
  0
LINE
  5
243
100
AcDbEntity
  8
0
100
AcDbLine
 62
7
  6
BYLAYER
 10
88.3660124217
 20
96.3550328227
 11
94.8660124217
 21
96.3550328227
  0
LINE
  5
244
100
AcDbEntity
  8
0
100
AcDbLine
 62
7
  6
BYLAYER
 10
128.3660124217
 20
96.3550328227
 11
134.8660124217
 21
96.3550328227
  0
LINE
  5
245
100
AcDbEntity
  8
0
100
AcDbLine
 62
7
  6
BYLAYER
 10
48.3660124217
 20
96.741071792
 11
54.8660124217
 21
96.741071792
  0
LINE
  5
246
100
AcDbEntity
  8
0
100
AcDbLine
 62
7
  6
BYLAYER
 10
88.3660124217
 20
96.741071792
 11
94.8660124217
 21
96.741071792
  0
LINE
  5
247
100
AcDbEntity
  8
0
100
AcDbLine
 62
7
  6
BYLAYER
 10
128.3660124217
 20
96.741071792
 11
134.8660124217
 21
96.741071792
  0
LINE
  5
248
100
AcDbEntity
  8
0
100
AcDbLine
 62
7
  6
BYLAYER
 10
173.6160124217
 20
98.3550328227
 11
147.1160124217
 21
98.3550328227
  0
LINE
  5
249
100
AcDbEntity
  8
0
100
AcDbLine
 62
7
  6
BYLAYER
 10
48.3660124217
 20
98.6050328227
 11
54.8660124217
 21
98.6050328227
  0
LINE
  5
24A
100
AcDbEntity
  8
0
100
AcDbLine
 62
7
  6
BYLAYER
 10
88.3660124217
 20
98.6050328227
 11
94.8660124217
 21
98.6050328227
  0
LINE
  5
24B
100
AcDbEntity
  8
0
100
AcDbLine
 62
7
  6
BYLAYER
 10
128.3660124217
 20
98.6050328227
 11
134.8660124217
 21
98.6050328227
  0
LINE
  5
24C
100
AcDbEntity
  8
0
100
AcDbLine
 62
7
  6
BYLAYER
 10
36.1160124217
 20
99.3550328233
 11
22.6160124217
 21
99.3550328254
  0
LINE
  5
24D
100
AcDbEntity
  8
0
100
AcDbLine
 62
7
  6
BYLAYER
 10
48.7744222456
 20
99.6050328227
 11
54.4544150596
 21
99.6050328227
  0
LINE
  5
24E
100
AcDbEntity
  8
0
100
AcDbLine
 62
7
  6
BYLAYER
 10
88.7744222456
 20
99.6050328227
 11
94.4544150596
 21
99.6050328227
  0
LINE
  5
24F
100
AcDbEntity
  8
0
100
AcDbLine
 62
7
  6
BYLAYER
 10
128.7744222456
 20
99.6050328227
 11
134.4544150596
 21
99.6050328227
  0
LINE
  5
250
100
AcDbEntity
  8
0
100
AcDbLine
 62
7
  6
BYLAYER
 10
134.3097501681
 20
100.0443726509
 11
128.9179668071
 21
100.0443726509
  0
LINE
  5
251
100
AcDbEntity
  8
0
100
AcDbLine
 62
7
  6
BYLAYER
 10
94.3097501681
 20
100.0443726509
 11
88.9179668071
 21
100.0443726509
  0
LINE
  5
252
100
AcDbEntity
  8
0
100
AcDbLine
 62
7
  6
BYLAYER
 10
54.3097501681
 20
100.0443726509
 11
48.9179668071
 21
100.0443726509
  0
LINE
  5
253
100
AcDbEntity
  8
0
100
AcDbLine
 62
7
  6
BYLAYER
 10
29.6160124217
 20
112.9441122953
 11
24.6160124393
 21
114.283858252
  0
LINE
  5
254
100
AcDbEntity
  8
0
100
AcDbLine
 62
7
  6
BYLAYER
 10
24.0983764249
 20
115.4578345851
 11
29.8748314668
 21
113.9100381215
  0
LINE
  5
255
100
AcDbEntity
  8
0
100
AcDbLine
 62
7
  6
BYLAYER
 10
24.6160124955
 20
116.354410596
 11
29.6160124217
 21
115.0146646561
  0
LINE
  5
256
100
AcDbEntity
  8
0
100
AcDbLine
 62
7
  6
BYLAYER
 10
94.8660124217
 20
85.6050328227
 11
97.6160124217
 21
82.8550328227
  0
LINE
  5
257
100
AcDbEntity
  8
0
100
AcDbLine
 62
7
  6
BYLAYER
 10
147.1160124217
 20
106.8550328227
 11
173.9686663831
 21
106.8550328227
  0
LINE
  5
258
100
AcDbEntity
  8
0
100
AcDbLine
 62
7
  6
BYLAYER
 10
31.6160124217
 20
109.1050328227
 11
36.1160124217
 21
109.1050328227
  0
LINE
  5
259
100
AcDbEntity
  8
0
100
AcDbLine
 62
7
  6
BYLAYER
 10
24.6160124755
 20
116.3544109965
 11
24.0983947453
 21
116.4237573717
  0
LINE
  5
25A
100
AcDbEntity
  8
0
100
AcDbLine
 62
7
  6
BYLAYER
 10
102.6726367487
 20
219.8550328227
 11
103.7140886331
 21
221.6588804
  0
LINE
  5
25B
100
AcDbEntity
  8
0
100
AcDbLine
 62
7
  6
BYLAYER
 10
147.1160124217
 20
219.4682814767
 11
150.6160124217
 21
221.4890074189
  0
LINE
  5
25C
100
AcDbEntity
  8
0
100
AcDbLine
 62
7
  6
BYLAYER
 10
31.6160124217
 20
110.1050328227
 11
36.1160124217
 21
110.1050328227
  0
LINE
  5
25D
100
AcDbEntity
  8
0
100
AcDbLine
 62
7
  6
BYLAYER
 10
30.6160124217
 20
111.1050328227
 11
29.6160124217
 21
111.1050328227
  0
LINE
  5
25E
100
AcDbEntity
  8
0
100
AcDbLine
 62
7
  6
BYLAYER
 10
36.1160124217
 20
112.1050328219
 11
30.6160124217
 21
112.1050328227
  0
LINE
  5
25F
100
AcDbEntity
  8
0
100
AcDbLine
 62
7
  6
BYLAYER
 10
29.6160124217
 20
112.9441122953
 11
30.6160124217
 21
112.9441122953
  0
LINE
  5
260
100
AcDbEntity
  8
0
100
AcDbLine
 62
7
  6
BYLAYER
 10
36.1160124217
 20
114.3550328227
 11
147.1160124217
 21
114.3550328227
  0
LINE
  5
261
100
AcDbEntity
  8
0
100
AcDbLine
 62
7
  6
BYLAYER
 10
29.6160124217
 20
115.0146646561
 11
30.6160124217
 21
115.0146646561
  0
LINE
  5
262
100
AcDbEntity
  8
0
100
AcDbLine
 62
7
  6
BYLAYER
 10
36.1160124217
 20
116.4334937918
 11
38.1160124217
 21
116.4334937918
  0
LINE
  5
263
100
AcDbEntity
  8
0
100
AcDbLine
 62
7
  6
BYLAYER
 10
38.1160124217
 20
117.5593268167
 11
147.1160124217
 21
117.5593268167
  0
LINE
  5
264
100
AcDbEntity
  8
0
100
AcDbLine
 62
7
  6
BYLAYER
 10
150.6160124217
 20
81.2210582265
 11
147.1160124217
 21
83.2417841686
  0
LINE
  5
265
100
AcDbEntity
  8
0
100
AcDbLine
 62
7
  6
BYLAYER
 10
103.7140886331
 20
81.0511852454
 11
102.6726367487
 21
82.8550328227
  0
LINE
  5
266
100
AcDbEntity
  8
0
100
AcDbLine
 62
7
  6
BYLAYER
 10
79.1160124217
 20
249.8550328227
 11
79.1160124217
 21
223.1588804
  0
LINE
  5
267
100
AcDbEntity
  8
0
100
AcDbLine
 62
7
  6
BYLAYER
 10
79.1160124217
 20
79.5511852454
 11
79.1160124217
 21
52.8550328227
  0
LINE
  5
268
100
AcDbEntity
  8
0
100
AcDbLine
 62
7
  6
BYLAYER
 10
38.1160124217
 20
125.670354071
 11
147.1160124217
 21
125.670354071
  0
LINE
  5
269
100
AcDbEntity
  8
0
100
AcDbLine
 62
7
  6
BYLAYER
 10
88.3660124217
 20
85.6050328227
 11
88.3660124217
 21
98.3550328227
  0
LINE
  5
26A
100
AcDbEntity
  8
0
100
AcDbLine
 62
7
  6
BYLAYER
 10
88.3660124217
 20
204.3550328227
 11
88.3660124217
 21
217.1050328227
  0
LINE
  5
26B
100
AcDbEntity
  8
0
100
AcDbLine
 62
7
  6
BYLAYER
 10
126.7140886331
 20
231.2473376681
 11
120.1367383639
 21
219.8550328227
  0
LINE
  5
26C
100
AcDbEntity
  8
0
100
AcDbLine
 62
7
  6
BYLAYER
 10
36.1160124217
 20
126.7961870959
 11
38.1160124217
 21
126.7961870959
  0
LINE
  5
26D
100
AcDbEntity
  8
0
100
AcDbLine
 62
7
  6
BYLAYER
 10
36.1160124217
 20
128.3550328227
 11
147.1160124217
 21
128.3550328227
  0
LINE
  5
26E
100
AcDbEntity
  8
0
100
AcDbLine
 62
7
  6
BYLAYER
 10
120.1367383639
 20
82.8550328227
 11
126.7140886331
 21
71.4627279773
  0
LINE
  5
26F
100
AcDbEntity
  8
0
100
AcDbLine
 62
7
  6
BYLAYER
 10
94.8660124217
 20
217.1050328227
 11
94.8660124217
 21
204.3550328227
  0
LINE
  5
270
100
AcDbEntity
  8
0
100
AcDbLine
 62
7
  6
BYLAYER
 10
94.8660124217
 20
98.3550328227
 11
94.8660124217
 21
85.6050328227
  0
LINE
  5
271
100
AcDbEntity
  8
0
100
AcDbLine
 62
7
  6
BYLAYER
 10
178.1160124217
 20
141.3550328227
 11
188.8160124217
 21
141.3550328227
  0
LINE
  5
272
100
AcDbEntity
  8
0
100
AcDbLine
 62
7
  6
BYLAYER
 10
104.1160124217
 20
52.8550328227
 11
104.1160124217
 21
79.5511852454
  0
LINE
  5
273
100
AcDbEntity
  8
0
100
AcDbLine
 62
7
  6
BYLAYER
 10
104.1160124217
 20
223.1588804
 11
104.1160124217
 21
249.8550328227
  0
LINE
  5
274
100
AcDbEntity
  8
0
100
AcDbLine
 62
7
  6
BYLAYER
 10
56.5179362104
 20
71.4627279773
 11
63.0952864796
 21
82.8550328227
  0
LINE
  5
275
100
AcDbEntity
  8
0
100
AcDbLine
 62
7
  6
BYLAYER
 10
63.0952864796
 20
219.8550328227
 11
56.5179362104
 21
231.2473376681
  0
LINE
  5
276
100
AcDbEntity
  8
0
100
AcDbLine
 62
7
  6
BYLAYER
 10
80.5593880947
 20
82.8550328227
 11
79.5179362104
 21
81.0511852454
  0
LINE
  5
277
100
AcDbEntity
  8
0
100
AcDbLine
 62
7
  6
BYLAYER
 10
188.8160124217
 20
161.3550328227
 11
178.1160124217
 21
161.3550328227
  0
LINE
  5
278
100
AcDbEntity
  8
0
100
AcDbLine
 62
7
  6
BYLAYER
 10
79.5179362103
 20
221.6588804
 11
80.5593880947
 21
219.8550328227
  0
LINE
  5
279
100
AcDbEntity
  8
0
100
AcDbLine
 62
7
  6
BYLAYER
 10
127.1160124217
 20
69.9627279773
 11
127.1160124217
 21
52.8550328227
  0
LINE
  5
27A
100
AcDbEntity
  8
0
100
AcDbLine
 62
7
  6
BYLAYER
 10
127.1160124217
 20
232.7473376681
 11
127.1160124217
 21
249.8550328227
  0
LINE
  5
27B
100
AcDbEntity
  8
0
100
AcDbLine
 62
7
  6
BYLAYER
 10
128.3660124217
 20
91.3550328227
 11
128.3660124217
 21
98.3550328227
  0
LINE
  5
27C
100
AcDbEntity
  8
0
100
AcDbLine
 62
7
  6
BYLAYER
 10
128.3660124217
 20
204.3550328227
 11
128.3660124217
 21
211.3550328227
  0
LINE
  5
27D
100
AcDbEntity
  8
0
100
AcDbLine
 62
7
  6
BYLAYER
 10
36.1160124217
 20
83.2417841686
 11
32.6160124217
 21
81.2210582265
  0
LINE
  5
27E
100
AcDbEntity
  8
0
100
AcDbLine
 62
7
  6
BYLAYER
 10
36.1160124217
 20
174.3550328227
 11
147.1160124217
 21
174.3550328227
  0
LINE
  5
27F
100
AcDbEntity
  8
0
100
AcDbLine
 62
7
  6
BYLAYER
 10
36.1160124217
 20
175.9138785495
 11
38.1160124217
 21
175.9138785495
  0
LINE
  5
280
100
AcDbEntity
  8
0
100
AcDbLine
 62
7
  6
BYLAYER
 10
38.1160124217
 20
177.0397115744
 11
147.1160124217
 21
177.0397115744
  0
LINE
  5
281
100
AcDbEntity
  8
0
100
AcDbLine
 62
7
  6
BYLAYER
 10
32.6160124217
 20
221.4890074189
 11
36.1160124217
 21
219.4682814767
  0
LINE
  5
282
100
AcDbEntity
  8
0
100
AcDbLine
 62
7
  6
BYLAYER
 10
134.8660124217
 20
211.3550328227
 11
134.8660124217
 21
204.3550328227
  0
LINE
  5
283
100
AcDbEntity
  8
0
100
AcDbLine
 62
7
  6
BYLAYER
 10
134.8660124217
 20
98.3550328227
 11
134.8660124217
 21
91.3550328227
  0
LINE
  5
284
100
AcDbEntity
  8
0
100
AcDbLine
 62
7
  6
BYLAYER
 10
85.6160124217
 20
82.8550328227
 11
88.3660124217
 21
85.6050328227
  0
LINE
  5
285
100
AcDbEntity
  8
0
100
AcDbLine
 62
7
  6
BYLAYER
 10
38.1160124217
 20
185.1507388287
 11
147.1160124217
 21
185.1507388287
  0
LINE
  5
286
100
AcDbEntity
  8
0
100
AcDbLine
 62
7
  6
BYLAYER
 10
36.1160124217
 20
186.2765718536
 11
38.1160124217
 21
186.2765718536
  0
LINE
  5
287
100
AcDbEntity
  8
0
100
AcDbLine
 62
7
  6
BYLAYER
 10
88.3660124217
 20
217.1050328227
 11
85.6160124217
 21
219.8550328227
  0
LINE
  5
288
100
AcDbEntity
  8
0
100
AcDbLine
 62
7
  6
BYLAYER
 10
147.1160124217
 20
82.8550328227
 11
147.1160124217
 21
219.8550328227
  0
LINE
  5
289
100
AcDbEntity
  8
0
100
AcDbLine
 62
7
  6
BYLAYER
 10
29.6160124217
 20
187.6954009893
 11
30.6160124217
 21
187.6954009893
  0
LINE
  5
28A
100
AcDbEntity
  8
0
100
AcDbLine
 62
7
  6
BYLAYER
 10
36.1160124217
 20
188.3550328227
 11
147.1160124217
 21
188.3550328227
  0
LINE
  5
28B
100
AcDbEntity
  8
0
100
AcDbLine
 62
7
  6
BYLAYER
 10
30.6160124217
 20
189.7659533501
 11
29.6160124217
 21
189.7659533501
  0
LINE
  5
28C
100
AcDbEntity
  8
0
100
AcDbLine
 62
7
  6
BYLAYER
 10
30.6160124217
 20
190.6050327419
 11
36.1160124217
 21
190.6050328206
  0
LINE
  5
28D
100
AcDbEntity
  8
0
100
AcDbLine
 62
7
  6
BYLAYER
 10
29.6160124217
 20
191.6050328227
 11
30.6160124217
 21
191.6050328227
  0
LINE
  5
28E
100
AcDbEntity
  8
0
100
AcDbLine
 62
7
  6
BYLAYER
 10
36.1160124217
 20
192.6050328227
 11
31.6160124217
 21
192.6050328227
  0
LINE
  5
28F
100
AcDbEntity
  8
0
100
AcDbLine
 62
7
  6
BYLAYER
 10
36.1160124217
 20
193.6050328227
 11
31.6160124217
 21
193.6050328227
  0
LINE
  5
290
100
AcDbEntity
  8
0
100
AcDbLine
 62
7
  6
BYLAYER
 10
152.1160124217
 20
249.8550328227
 11
152.1160124217
 21
224.0870836303
  0
LINE
  5
291
100
AcDbEntity
  8
0
100
AcDbLine
 62
7
  6
BYLAYER
 10
152.1160124217
 20
52.8550328227
 11
152.1160124217
 21
78.6229820151
  0
LINE
  5
292
100
AcDbEntity
  8
0
100
AcDbLine
 62
7
  6
BYLAYER
 10
24.6160124755
 20
186.3556549642
 11
24.0983912153
 21
186.2863089748
  0
LINE
  5
293
100
AcDbEntity
  8
0
100
AcDbLine
 62
7
  6
BYLAYER
 10
147.1160124217
 20
195.8550328227
 11
173.9686663831
 21
195.8550328227
  0
LINE
  5
294
100
AcDbEntity
  8
0
100
AcDbLine
 62
7
  6
BYLAYER
 10
178.1160124217
 20
196.7136045381
 11
174.651389509
 21
196.7136045381
  0
LINE
  5
295
100
AcDbEntity
  8
0
100
AcDbLine
 62
7
  6
BYLAYER
 10
48.9222746753
 20
202.6656929945
 11
54.3140580363
 21
202.6656929945
  0
LINE
  5
296
100
AcDbEntity
  8
0
100
AcDbLine
 62
7
  6
BYLAYER
 10
88.9182218563
 20
202.6656929945
 11
94.3156906415
 21
202.6656929945
  0
LINE
  5
297
100
AcDbEntity
  8
0
100
AcDbLine
 62
7
  6
BYLAYER
 10
128.9222746753
 20
202.6656929945
 11
134.3140580363
 21
202.6656929945
  0
LINE
  5
298
100
AcDbEntity
  8
0
100
AcDbLine
 62
7
  6
BYLAYER
 10
134.4576025978
 20
203.1050328227
 11
128.7776097838
 21
203.1050328227
  0
LINE
  5
299
100
AcDbEntity
  8
0
100
AcDbLine
 62
7
  6
BYLAYER
 10
94.4588106179
 20
203.1050328227
 11
88.7746109652
 21
203.1050328227
  0
LINE
  5
29A
100
AcDbEntity
  8
0
100
AcDbLine
 62
7
  6
BYLAYER
 10
54.4576025978
 20
203.1050328227
 11
48.7776097838
 21
203.1050328227
  0
LINE
  5
29B
100
AcDbEntity
  8
0
100
AcDbLine
 62
7
  6
BYLAYER
 10
177.760278846
 20
203.1900242619
 11
175.522669166
 21
203.1900242619
  0
LINE
  5
29C
100
AcDbEntity
  8
0
100
AcDbLine
 62
7
  6
BYLAYER
 10
22.6160124217
 20
203.3550328479
 11
36.1160124217
 21
203.3550328244
  0
LINE
  5
29D
100
AcDbEntity
  8
0
100
AcDbLine
 62
7
  6
BYLAYER
 10
134.8660124217
 20
204.1050328227
 11
128.3660124217
 21
204.1050328227
  0
LINE
  5
29E
100
AcDbEntity
  8
0
100
AcDbLine
 62
7
  6
BYLAYER
 10
94.8660124217
 20
204.1050328227
 11
88.3660124217
 21
204.1050328227
  0
LINE
  5
29F
100
AcDbEntity
  8
0
100
AcDbLine
 62
7
  6
BYLAYER
 10
54.8660124217
 20
204.1050328227
 11
48.3660124217
 21
204.1050328227
  0
LINE
  5
2A0
100
AcDbEntity
  8
0
100
AcDbLine
 62
7
  6
BYLAYER
 10
147.1160124217
 20
204.3550328227
 11
173.6160124217
 21
204.3550328227
  0
LINE
  5
2A1
100
AcDbEntity
  8
0
100
AcDbLine
 62
7
  6
BYLAYER
 10
29.6160124217
 20
187.6954009893
 11
24.6160124555
 21
186.3556550394
  0
LINE
  5
2A2
100
AcDbEntity
  8
0
100
AcDbLine
 62
7
  6
BYLAYER
 10
24.0983785537
 20
187.2522316306
 11
29.8748314669
 21
188.8000275239
  0
LINE
  5
2A3
100
AcDbEntity
  8
0
100
AcDbLine
 62
7
  6
BYLAYER
 10
24.6160125746
 20
188.4262062639
 11
29.6160124217
 21
189.7659533501
  0
LINE
  5
2A4
100
AcDbEntity
  8
0
100
AcDbLine
 62
7
  6
BYLAYER
 10
48.3660124217
 20
205.9689938534
 11
54.8660124217
 21
205.9689938534
  0
LINE
  5
2A5
100
AcDbEntity
  8
0
100
AcDbLine
 62
7
  6
BYLAYER
 10
88.3660124217
 20
205.9689938534
 11
94.8660124217
 21
205.9689938534
  0
LINE
  5
2A6
100
AcDbEntity
  8
0
100
AcDbLine
 62
7
  6
BYLAYER
 10
128.3660124217
 20
205.9689938534
 11
134.8660124217
 21
205.9689938534
  0
LINE
  5
2A7
100
AcDbEntity
  8
0
100
AcDbLine
 62
7
  6
BYLAYER
 10
48.3660124217
 20
206.3550328227
 11
54.8660124217
 21
206.3550328227
  0
LINE
  5
2A8
100
AcDbEntity
  8
0
100
AcDbLine
 62
7
  6
BYLAYER
 10
88.3660124217
 20
206.3550328227
 11
94.8660124217
 21
206.3550328227
  0
LINE
  5
2A9
100
AcDbEntity
  8
0
100
AcDbLine
 62
7
  6
BYLAYER
 10
128.3660124217
 20
206.3550328227
 11
134.8660124217
 21
206.3550328227
  0
LINE
  5
2AA
100
AcDbEntity
  8
0
100
AcDbLine
 62
7
  6
BYLAYER
 10
134.8660124217
 20
209.3550328227
 11
128.3660124217
 21
209.3550328227
  0
LINE
  5
2AB
100
AcDbEntity
  8
0
100
AcDbLine
 62
7
  6
BYLAYER
 10
94.8660124217
 20
209.3550328227
 11
88.3660124217
 21
209.3550328227
  0
LINE
  5
2AC
100
AcDbEntity
  8
0
100
AcDbLine
 62
7
  6
BYLAYER
 10
54.8660124217
 20
209.3550328227
 11
48.3660124217
 21
209.3550328227
  0
LINE
  5
2AD
100
AcDbEntity
  8
0
100
AcDbLine
 62
7
  6
BYLAYER
 10
36.1160124217
 20
211.3550328227
 11
24.6160124217
 21
211.3550328227
  0
LINE
  5
2AE
100
AcDbEntity
  8
0
100
AcDbLine
 62
7
  6
BYLAYER
 10
147.1160124217
 20
212.3550328227
 11
191.1160124217
 21
212.3550328227
  0
LINE
  5
2AF
100
AcDbEntity
  8
0
100
AcDbLine
 62
7
  6
BYLAYER
 10
173.6160124217
 20
98.3550328227
 11
173.6160124217
 21
106.8550328227
  0
LINE
  5
2B0
100
AcDbEntity
  8
0
100
AcDbLine
 62
7
  6
BYLAYER
 10
173.6160124217
 20
195.8550328227
 11
173.6160124217
 21
204.3550328227
  0
LINE
  5
2B1
100
AcDbEntity
  8
0
100
AcDbLine
 62
7
  6
BYLAYER
 10
173.9686663831
 20
195.8550328227
 11
173.9686663831
 21
106.8550328227
  0
LINE
  5
2B2
100
AcDbEntity
  8
0
100
AcDbLine
 62
7
  6
BYLAYER
 10
36.1160124217
 20
219.3550328227
 11
86.1160124217
 21
219.3550328227
  0
LINE
  5
2B3
100
AcDbEntity
  8
0
100
AcDbLine
 62
7
  6
BYLAYER
 10
97.1160124217
 20
219.3550328227
 11
147.1160124217
 21
219.3550328227
  0
LINE
  5
2B4
100
AcDbEntity
  8
0
100
AcDbLine
 62
7
  6
BYLAYER
 10
147.1160124217
 20
219.8550328227
 11
97.6160124217
 21
219.8550328227
  0
LINE
  5
2B5
100
AcDbEntity
  8
0
100
AcDbLine
 62
7
  6
BYLAYER
 10
85.6160124217
 20
219.8550328227
 11
36.1160124217
 21
219.8550328227
  0
LINE
  5
2B6
100
AcDbEntity
  8
0
100
AcDbLine
 62
7
  6
BYLAYER
 10
178.1160124217
 20
90.3550328227
 11
178.1160124217
 21
212.3550328227
  0
LINE
  5
2B7
100
AcDbEntity
  8
0
100
AcDbLine
 62
7
  6
BYLAYER
 10
188.8160124217
 20
90.3550328227
 11
188.8160124217
 21
141.3550328227
  0
LINE
  5
2B8
100
AcDbEntity
  8
0
100
AcDbLine
 62
7
  6
BYLAYER
 10
188.8160124217
 20
161.3550328227
 11
188.8160124217
 21
212.3550328227
  0
LINE
  5
2B9
100
AcDbEntity
  8
0
100
AcDbLine
 62
7
  6
BYLAYER
 10
191.1160124217
 20
90.3550328227
 11
191.1160124217
 21
212.3550328227
  0
LINE
  5
2BA
100
AcDbEntity
  8
0
100
AcDbLine
 62
7
  6
BYLAYER
 10
104.1160124217
 20
249.8550328227
 11
79.1160124217
 21
249.8550328227
  0
LINE
  5
2BB
100
AcDbEntity
  8
0
100
AcDbLine
 62
7
  6
BYLAYER
 10
56.1160124217
 20
249.8550328227
 11
31.1160124217
 21
249.8550328227
  0
LINE
  5
2BC
100
AcDbEntity
  8
0
100
AcDbLine
 62
7
  6
BYLAYER
 10
127.1160124217
 20
249.8550328227
 11
152.1160124217
 21
249.8550328227
  0
CIRCLE
  5
2BD
100
AcDbEntity
  8
0
100
AcDbCircle
 62
7
  6
BYLAYER
 10
43.6160124217
 20
65.3550328227
 40
5.5
  0
ARC
  5
2BE
100
AcDbEntity
  8
0
100
AcDbCircle
 62
7
  6
BYLAYER
 10
51.6160124217
 20
98.3550328227
 40
3.25
100
AcDbArc
 50
0.0
 51
180.0
  0
ARC
  5
2BF
100
AcDbEntity
  8
0
100
AcDbCircle
 62
7
  6
BYLAYER
 10
51.6160124217
 20
91.3550328227
 40
3.25
100
AcDbArc
 50
180.0
 51
360.0
  0
ARC
  5
2C0
100
AcDbEntity
  8
0
100
AcDbCircle
 62
7
  6
BYLAYER
 10
34.1160124217
 20
78.6229820151
 40
3.0
100
AcDbArc
 50
120.0000000005
 51
180.0
  0
ARC
  5
2C1
100
AcDbEntity
  8
0
100
AcDbCircle
 62
7
  6
BYLAYER
 10
59.1160124217
 20
69.9627279773
 40
3.0
100
AcDbArc
 50
150.0000000001
 51
180.0
  0
ARC
  5
2C2
100
AcDbEntity
  8
0
100
AcDbCircle
 62
7
  6
BYLAYER
 10
82.1160124217
 20
79.5511852454
 40
3.0
100
AcDbArc
 50
150.0000000002
 51
180.0
  0
ARC
  5
2C3
100
AcDbEntity
  8
0
100
AcDbCircle
 62
7
  6
BYLAYER
 10
24.6160124217
 20
93.3550328227
 40
2.0
100
AcDbArc
 50
180.0
 51
270.0
  0
ARC
  5
2C4
100
AcDbEntity
  8
0
100
AcDbCircle
 62
7
  6
BYLAYER
 10
24.6160124217
 20
117.3896867986
 40
2.0
100
AcDbArc
 50
180.0
 51
254.9998312153
  0
ARC
  5
2C5
100
AcDbEntity
  8
0
100
AcDbCircle
 62
7
  6
BYLAYER
 10
31.6160124217
 20
111.1050328227
 40
2.0
100
AcDbArc
 50
180.0
 51
270.0
  0
ARC
  5
2C6
100
AcDbEntity
  8
0
100
AcDbCircle
 62
7
  6
BYLAYER
 10
29.6160124217
 20
112.9441122953
 40
1.0
100
AcDbArc
 50
0.0
 51
75.0
  0
ARC
  5
2C7
100
AcDbEntity
  8
0
100
AcDbCircle
 62
7
  6
BYLAYER
 10
31.6160124217
 20
111.1050328227
 40
1.0
100
AcDbArc
 50
180.0000000002
 51
269.9999999991
  0
CIRCLE
  5
2C8
100
AcDbEntity
  8
0
100
AcDbCircle
 62
7
  6
BYLAYER
 10
43.6160124217
 20
237.3550328227
 40
5.5
  0
ARC
  5
2C9
100
AcDbEntity
  8
0
100
AcDbCircle
 62
7
  6
BYLAYER
 10
51.6160124217
 20
204.3550328227
 40
3.25
100
AcDbArc
 50
180.0
 51
360.0
  0
ARC
  5
2CA
100
AcDbEntity
  8
0
100
AcDbCircle
 62
7
  6
BYLAYER
 10
51.6160124217
 20
211.3550328227
 40
3.25
100
AcDbArc
 50
0.0
 51
180.0
  0
ARC
  5
2CB
100
AcDbEntity
  8
0
100
AcDbCircle
 62
7
  6
BYLAYER
 10
59.1160124217
 20
232.7473376681
 40
3.0
100
AcDbArc
 50
180.0
 51
209.9999999999
  0
ARC
  5
2CC
100
AcDbEntity
  8
0
100
AcDbCircle
 62
7
  6
BYLAYER
 10
34.1160124217
 20
224.0870836303
 40
3.0
100
AcDbArc
 50
180.0
 51
239.9999999995
  0
ARC
  5
2CD
100
AcDbEntity
  8
0
100
AcDbCircle
 62
7
  6
BYLAYER
 10
82.1160124217
 20
223.1588804
 40
3.0
100
AcDbArc
 50
180.0
 51
209.9999999991
  0
ARC
  5
2CE
100
AcDbEntity
  8
0
100
AcDbCircle
 62
7
  6
BYLAYER
 10
24.6160124217
 20
185.3203788467
 40
2.0
100
AcDbArc
 50
104.9999402003
 51
180.0
  0
ARC
  5
2CF
100
AcDbEntity
  8
0
100
AcDbCircle
 62
7
  6
BYLAYER
 10
24.6160124217
 20
209.3550328227
 40
2.0
100
AcDbArc
 50
90.0
 51
180.0
  0
ARC
  5
2D0
100
AcDbEntity
  8
0
100
AcDbCircle
 62
7
  6
BYLAYER
 10
31.6160124217
 20
191.6050328227
 40
2.0
100
AcDbArc
 50
90.0
 51
180.0
  0
ARC
  5
2D1
100
AcDbEntity
  8
0
100
AcDbCircle
 62
7
  6
BYLAYER
 10
29.6160124217
 20
189.7659533501
 40
1.0
100
AcDbArc
 50
285.0
 51
0.0000001059
  0
ARC
  5
2D2
100
AcDbEntity
  8
0
100
AcDbCircle
 62
7
  6
BYLAYER
 10
31.6160124217
 20
191.6050328227
 40
1.0
100
AcDbArc
 50
90.0
 51
180.0
  0
CIRCLE
  5
2D3
100
AcDbEntity
  8
0
100
AcDbCircle
 62
7
  6
BYLAYER
 10
139.6160124217
 20
65.3550328227
 40
5.5
  0
CIRCLE
  5
2D4
100
AcDbEntity
  8
0
100
AcDbCircle
 62
7
  6
BYLAYER
 10
91.6160124217
 20
65.3550328227
 40
4.5
  0
ARC
  5
2D5
100
AcDbEntity
  8
0
100
AcDbCircle
 62
7
  6
BYLAYER
 10
91.6160124217
 20
98.3550328227
 40
3.25
100
AcDbArc
 50
0.0
 51
180.0
  0
ARC
  5
2D6
100
AcDbEntity
  8
0
100
AcDbCircle
 62
7
  6
BYLAYER
 10
131.6160124217
 20
98.3550328227
 40
3.25
100
AcDbArc
 50
0.0
 51
180.0
  0
ARC
  5
2D7
100
AcDbEntity
  8
0
100
AcDbCircle
 62
7
  6
BYLAYER
 10
131.6160124217
 20
91.3550328227
 40
3.25
100
AcDbArc
 50
180.0
 51
360.0
  0
ARC
  5
2D8
100
AcDbEntity
  8
0
100
AcDbCircle
 62
7
  6
BYLAYER
 10
124.1160124217
 20
69.9627279773
 40
3.0
100
AcDbArc
 50
0.0
 51
29.9999999999
  0
ARC
  5
2D9
100
AcDbEntity
  8
0
100
AcDbCircle
 62
7
  6
BYLAYER
 10
149.1160124217
 20
78.6229820151
 40
3.0
100
AcDbArc
 50
0.0
 51
59.9999999995
  0
ARC
  5
2DA
100
AcDbEntity
  8
0
100
AcDbCircle
 62
7
  6
BYLAYER
 10
101.1160124217
 20
79.5511852454
 40
3.0
100
AcDbArc
 50
0.0
 51
29.9999999991
  0
CIRCLE
  5
2DB
100
AcDbEntity
  8
0
100
AcDbCircle
 62
7
  6
BYLAYER
 10
139.6160124217
 20
237.3550328227
 40
5.5
  0
CIRCLE
  5
2DC
100
AcDbEntity
  8
0
100
AcDbCircle
 62
7
  6
BYLAYER
 10
91.6160124217
 20
237.3550328227
 40
4.5
  0
ARC
  5
2DD
100
AcDbEntity
  8
0
100
AcDbCircle
 62
7
  6
BYLAYER
 10
131.6160124217
 20
204.3550328227
 40
3.25
100
AcDbArc
 50
180.0
 51
360.0
  0
ARC
  5
2DE
100
AcDbEntity
  8
0
100
AcDbCircle
 62
7
  6
BYLAYER
 10
131.6160124217
 20
211.3550328227
 40
3.25
100
AcDbArc
 50
0.0
 51
180.0
  0
ARC
  5
2DF
100
AcDbEntity
  8
0
100
AcDbCircle
 62
7
  6
BYLAYER
 10
91.6160124217
 20
204.3550328227
 40
3.25
100
AcDbArc
 50
180.0
 51
360.0
  0
ARC
  5
2E0
100
AcDbEntity
  8
0
100
AcDbCircle
 62
7
  6
BYLAYER
 10
149.1160124217
 20
224.0870836303
 40
3.0
100
AcDbArc
 50
300.0000000005
 51
360.0
  0
ARC
  5
2E1
100
AcDbEntity
  8
0
100
AcDbCircle
 62
7
  6
BYLAYER
 10
124.1160124217
 20
232.7473376681
 40
3.0
100
AcDbArc
 50
330.0000000001
 51
360.0
  0
ARC
  5
2E2
100
AcDbEntity
  8
0
100
AcDbCircle
 62
7
  6
BYLAYER
 10
101.1160124217
 20
223.1588804
 40
3.0
100
AcDbArc
 50
330.0
 51
360.0
  0
SPLINE
  5
2E3
100
AcDbEntity
  8
0
100
AcDbSpline
 62
7
  6
BYLAYER
 70
0
 71
3
 72
18
 73
14
 74
0
 42
0.0000001
 43
0.0000001
 44
0.0000000001
 40
0.0
 40
0.0
 40
0.0
 40
0.0
 40
0.1829729403
 40
0.3614519154
 40
0.5291218197
 40
0.6803234324
 40
0.8095425968
 40
0.8638676323
 40
0.9101266445
 40
0.9474239408
 40
0.9751072725
 40
0.9927230593
 40
1.0
 40
1.0
 40
1.0
 40
1.0
 10
29.6160124217
 20
187.6954009893
 30
0.0
 10
29.6329490413
 20
187.7625572163
 30
0.0
 10
29.6639888852
 20
187.8958320121
 30
0.0
 10
29.7051599249
 20
188.0918410784
 30
0.0
 10
29.7423346118
 20
188.276395049
 30
0.0
 10
29.7765584175
 20
188.4425083427
 30
0.0
 10
29.8054256987
 20
188.5659494362
 30
0.0
 10
29.8272884545
 20
188.6500755115
 30
0.0
 10
29.8410202275
 20
188.7005861767
 30
0.0
 10
29.8528671809
 20
188.7405696172
 30
0.0
 10
29.8616770242
 20
188.7715780367
 30
0.0
 10
29.8691176583
 20
188.7881872728
 30
0.0
 10
29.8721711167
 20
188.7993149305
 30
0.0
 10
29.8748317922
 20
188.800027611
 30
0.0
  0
SPLINE
  5
2E4
100
AcDbEntity
  8
0
100
AcDbSpline
 62
7
  6
BYLAYER
 70
0
 71
3
 72
10
 73
6
 74
0
 42
0.0000001
 43
0.0000001
 44
0.0000000001
 40
0.0
 40
0.0
 40
0.0
 40
0.0
 40
0.331877997
 40
0.6213731769
 40
1.0
 40
1.0
 40
1.0
 40
1.0
 10
24.0984258303
 20
187.2521830899
 30
0.0
 10
24.1338202626
 20
187.2616547269
 30
0.0
 10
24.1727786028
 20
187.3351457689
 30
0.0
 10
24.1899572869
 20
187.4400829349
 30
0.0
 10
24.1939202319
 20
187.5150540741
 30
0.0
 10
24.19391769
 20
187.5568550542
 30
0.0
  0
SPLINE
  5
2E5
100
AcDbEntity
  8
0
100
AcDbSpline
 62
7
  6
BYLAYER
 70
0
 71
3
 72
9
 73
5
 74
0
 42
0.0000001
 43
0.0000001
 44
0.0000000001
 40
0.0
 40
0.0
 40
0.0
 40
0.0
 40
0.477178157
 40
1.0
 40
1.0
 40
1.0
 40
1.0
 10
24.19391769
 20
187.5568550542
 30
0.0
 10
24.1939112165
 20
187.6633089367
 30
0.0
 10
24.1713380075
 20
187.8862273939
 30
0.0
 10
24.1266466768
 20
188.104998397
 30
0.0
 10
24.0983580902
 20
188.2181524569
 30
0.0
  0
SPLINE
  5
2E6
100
AcDbEntity
  8
0
100
AcDbSpline
 62
7
  6
BYLAYER
 70
0
 71
3
 72
9
 73
5
 74
0
 42
0.0000001
 43
0.0000001
 44
0.0000000001
 40
0.0
 40
0.0
 40
0.0
 40
0.0
 40
0.4913931283
 40
1.0
 40
1.0
 40
1.0
 40
1.0
 10
22.6160124217
 20
185.3203787202
 30
0.0
 10
22.6160844909
 20
185.7704575497
 30
0.0
 10
22.7482934125
 20
186.6879241523
 30
0.0
 10
23.2058070587
 20
187.5320072042
 30
0.0
 10
23.543631886
 20
187.8527660653
 30
0.0
  0
SPLINE
  5
2E7
100
AcDbEntity
  8
0
100
AcDbSpline
 62
7
  6
BYLAYER
 70
0
 71
3
 72
8
 73
4
 74
0
 42
0.0000001
 43
0.0000001
 44
0.0000000001
 40
0.0
 40
0.0
 40
0.0
 40
0.0
 40
1.0
 40
1.0
 40
1.0
 40
1.0
 10
23.543631886
 20
187.8527660653
 30
0.0
 10
23.6047222422
 20
187.9107703075
 30
0.0
 10
23.66938672
 20
187.9652850038
 30
0.0
 10
23.7372995752
 20
188.0151284369
 30
0.0
  0
SPLINE
  5
2E8
100
AcDbEntity
  8
0
100
AcDbSpline
 62
7
  6
BYLAYER
 70
0
 71
3
 72
9
 73
5
 74
0
 42
0.0000001
 43
0.0000001
 44
0.0000000001
 40
0.0
 40
0.0
 40
0.0
 40
0.0
 40
0.2472751006
 40
1.0
 40
1.0
 40
1.0
 40
1.0
 10
23.7372995752
 20
188.0151284369
 30
0.0
 10
23.764864232
 20
188.0353590269
 30
0.0
 10
23.8785306053
 20
188.1140950721
 30
0.0
 10
24.0017739769
 20
188.1793976802
 30
0.0
 10
24.0983718045
 20
188.2181547028
 30
0.0
  0
SPLINE
  5
2E9
100
AcDbEntity
  8
0
100
AcDbSpline
 62
7
  6
BYLAYER
 70
0
 71
3
 72
18
 73
14
 74
0
 42
0.0000001
 43
0.0000001
 44
0.0000000001
 40
0.0
 40
0.0
 40
0.0
 40
0.0
 40
0.0070883248
 40
0.0246333554
 40
0.0523163663
 40
0.0896628188
 40
0.1359525056
 40
0.1902667017
 40
0.3193216639
 40
0.4704238474
 40
0.6382110999
 40
0.8169038262
 40
1.0
 40
1.0
 40
1.0
 40
1.0
 10
29.8748314668
 20
113.9100381215
 30
0.0
 10
29.872239965
 20
113.9107325124
 30
0.0
 10
29.8695405299
 20
113.9219416321
 30
0.0
 10
29.8619722162
 20
113.9383235373
 30
0.0
 10
29.8531885218
 20
113.9693791238
 30
0.0
 10
29.8411105773
 20
114.0093014589
 30
0.0
 10
29.8272140801
 20
114.0597994036
 30
0.0
 10
29.8051818895
 20
114.1438172899
 30
0.0
 10
29.7766471258
 20
114.2672285001
 30
0.0
 10
29.7426989496
 20
114.4333270695
 30
0.0
 10
29.705262885
 20
114.6179082856
 30
0.0
 10
29.6634471784
 20
114.8139452913
 30
0.0
 10
29.6325513496
 20
114.9473654803
 30
0.0
 10
29.616012422
 20
115.0146646548
 30
0.0
  0
SPLINE
  5
2EA
100
AcDbEntity
  8
0
100
AcDbSpline
 62
7
  6
BYLAYER
 70
0
 71
3
 72
10
 73
6
 74
0
 42
0.0000001
 43
0.0000001
 44
0.0000000001
 40
0.0
 40
0.0
 40
0.0
 40
0.0
 40
0.3334819423
 40
0.6230283134
 40
1.0
 40
1.0
 40
1.0
 40
1.0
 10
24.0983189468
 20
115.4578431111
 30
0.0
 10
24.1338806585
 20
115.4483163584
 30
0.0
 10
24.1728111181
 20
115.3744951518
 30
0.0
 10
24.1899102555
 20
115.2695736357
 30
0.0
 10
24.1938547864
 20
115.194784383
 30
0.0
 10
24.1938632656
 20
115.1531675299
 30
0.0
  0
SPLINE
  5
2EB
100
AcDbEntity
  8
0
100
AcDbSpline
 62
7
  6
BYLAYER
 70
0
 71
3
 72
9
 73
5
 74
0
 42
0.0000001
 43
0.0000001
 44
0.0000000001
 40
0.0
 40
0.0
 40
0.0
 40
0.0
 40
0.4788939539
 40
1.0
 40
1.0
 40
1.0
 40
1.0
 10
24.1938632656
 20
115.1531675299
 30
0.0
 10
24.1938850313
 20
115.0463394645
 30
0.0
 10
24.171230116
 20
114.8234376136
 30
0.0
 10
24.126533111
 20
114.6046928223
 30
0.0
 10
24.0983398825
 20
114.4919191196
 30
0.0
  0
SPLINE
  5
2EC
100
AcDbEntity
  8
0
100
AcDbSpline
 62
7
  6
BYLAYER
 70
0
 71
3
 72
9
 73
5
 74
0
 42
0.0000001
 43
0.0000001
 44
0.0000000001
 40
0.0
 40
0.0
 40
0.0
 40
0.0
 40
0.2533026796
 40
1.0
 40
1.0
 40
1.0
 40
1.0
 10
24.0983651406
 20
114.4919116969
 30
0.0
 10
24.0658595298
 20
114.504953587
 30
0.0
 10
23.9393657652
 20
114.5609781488
 30
0.0
 10
23.8205872384
 20
114.6338122378
 30
0.0
 10
23.7373508123
 20
114.6948984061
 30
0.0
  0
SPLINE
  5
2ED
100
AcDbEntity
  8
0
100
AcDbSpline
 62
7
  6
BYLAYER
 70
0
 71
3
 72
8
 73
4
 74
0
 42
0.0000001
 43
0.0000001
 44
0.0000000001
 40
0.0
 40
0.0
 40
0.0
 40
0.0
 40
1.0
 40
1.0
 40
1.0
 40
1.0
 10
23.7373508123
 20
114.6948984061
 30
0.0
 10
23.669422861
 20
114.7447498769
 30
0.0
 10
23.6047445376
 20
114.7992747262
 30
0.0
 10
23.5436416995
 20
114.8572904042
 30
0.0
  0
SPLINE
  5
2EE
100
AcDbEntity
  8
0
100
AcDbSpline
 62
7
  6
BYLAYER
 70
0
 71
3
 72
9
 73
5
 74
0
 42
0.0000001
 43
0.0000001
 44
0.0000000001
 40
0.0
 40
0.0
 40
0.0
 40
0.0
 40
0.508606888
 40
1.0
 40
1.0
 40
1.0
 40
1.0
 10
23.5436416995
 20
114.8572904042
 30
0.0
 10
23.2058141197
 20
115.1780495823
 30
0.0
 10
22.7482944252
 20
116.0221346277
 30
0.0
 10
22.6160838958
 20
116.9396059844
 30
0.0
 10
22.6160124217
 20
117.3896869241
 30
0.0
  0
SPLINE
  5
2EF
100
AcDbEntity
  8
0
100
AcDbSpline
 62
7
  6
BYLAYER
 70
0
 71
3
 72
13
 73
9
 74
0
 42
0.0000001
 43
0.0000001
 44
0.0000000001
 40
0.0
 40
0.0
 40
0.0
 40
0.0
 40
0.3348628216
 40
0.6118205077
 40
0.7267427809
 40
0.82712465
 40
0.9160768617
 40
1.0
 40
1.0
 40
1.0
 40
1.0
 10
24.0983947453
 20
116.4237573717
 30
0.0
 10
23.888311208
 20
116.4516482986
 30
0.0
 10
23.5080238031
 20
116.5356554972
 30
0.0
 10
23.0837944931
 20
116.7282710195
 30
0.0
 10
22.8384843122
 20
116.9227587429
 30
0.0
 10
22.7121023322
 20
117.0699864481
 30
0.0
 10
22.6335055047
 20
117.2264102216
 30
0.0
 10
22.6160124217
 20
117.3365737009
 30
0.0
 10
22.6160124217
 20
117.3896866967
 30
0.0
  0
SPLINE
  5
2F0
100
AcDbEntity
  8
0
100
AcDbSpline
 62
7
  6
BYLAYER
 70
0
 71
3
 72
12
 73
8
 74
0
 42
0.0000001
 43
0.0000001
 44
0.0000000001
 40
0.0
 40
0.0
 40
0.0
 40
0.0
 40
0.1098752165
 40
0.2057211593
 40
0.3310711048
 40
0.6502679564
 40
1.0
 40
1.0
 40
1.0
 40
1.0
 10
24.098323451
 20
115.4579557302
 30
0.0
 10
24.0629402704
 20
115.4674485582
 30
0.0
 10
24.024059407
 20
115.5409204572
 30
0.0
 10
24.006795757
 20
115.6459687164
 30
0.0
 10
23.9979447588
 20
115.8281955066
 30
0.0
 10
24.0258903605
 20
116.0915283474
 30
0.0
 10
24.0702476661
 20
116.3106242996
 30
0.0
 10
24.0985326714
 20
116.4237490108
 30
0.0
  0
SPLINE
  5
2F1
100
AcDbEntity
  8
0
100
AcDbSpline
 62
7
  6
BYLAYER
 70
0
 71
3
 72
13
 73
9
 74
0
 42
0.0000001
 43
0.0000001
 44
0.0000000001
 40
0.0
 40
0.0
 40
0.0
 40
0.0
 40
0.3358732544
 40
0.6139552327
 40
0.7284931011
 40
0.828022199
 40
0.9163906304
 40
1.0
 40
1.0
 40
1.0
 40
1.0
 10
24.0983912153
 20
186.2863089748
 30
0.0
 10
23.8888340031
 20
186.254441338
 30
0.0
 10
23.5089595965
 20
186.1671330947
 30
0.0
 10
23.0877572422
 20
185.9703862499
 30
0.0
 10
22.8400738467
 20
185.780949279
 30
0.0
 10
22.7121195032
 20
185.6371788577
 30
0.0
 10
22.6333894581
 20
185.4824497611
 30
0.0
 10
22.6160124217
 20
185.3731440332
 30
0.0
 10
22.6160124217
 20
185.3203789495
 30
0.0
  0
SPLINE
  5
2F2
100
AcDbEntity
  8
0
100
AcDbSpline
 62
7
  6
BYLAYER
 70
0
 71
3
 72
12
 73
8
 74
0
 42
0.0000001
 43
0.0000001
 44
0.0000000001
 40
0.0
 40
0.0
 40
0.0
 40
0.0
 40
0.3623866962
 40
0.6691379058
 40
0.7896988489
 40
0.8845272122
 40
1.0
 40
1.0
 40
1.0
 40
1.0
 10
24.0983608079
 20
186.2863049787
 30
0.0
 10
24.06906952
 20
186.4035083507
 30
0.0
 10
24.0249246571
 20
186.6227906693
 30
0.0
 10
23.9983501269
 20
186.8845238812
 30
0.0
 10
24.0063272017
 20
187.0606722032
 30
0.0
 10
24.0230486368
 20
187.1654111828
 30
0.0
 10
24.0611763979
 20
187.2422696397
 30
0.0
 10
24.098359859
 20
187.2522321022
 30
0.0
  0
ELLIPSE
  5
2F3
100
AcDbEntity
  8
0
100
AcDbEllipse
 62
7
  6
BYLAYER
 10
175.0266282674
 20
98.3550328227
 30
0.0
 11
0.0
 21
8.0
 31
0.0
 40
0.1763269807
 41
1.5707963268
 42
3.1415926536
  0
ELLIPSE
  5
2F4
100
AcDbEntity
  8
0
100
AcDbEllipse
 62
7
  6
BYLAYER
 10
176.6135710938
 20
193.1050328227
 30
0.0
 11
-0.0
 21
12.0
 31
0.0
 40
0.1763269807
 41
-0.5727460368
 42
3.9311817724
  0
ELLIPSE
  5
2F5
100
AcDbEntity
  8
0
100
AcDbEllipse
 62
7
  6
BYLAYER
 10
175.0266282674
 20
204.3550328227
 30
0.0
 11
0.0
 21
8.0
 31
0.0
 40
0.1763269807
 41
-0.0
 42
1.5707963268
  0
ELLIPSE
  5
2F6
100
AcDbEntity
  8
0
100
AcDbEllipse
 62
7
  6
BYLAYER
 10
176.6135710938
 20
109.6050328227
 30
0.0
 11
0.0
 21
9.0
 31
0.0
 40
0.1763269807
 41
-1.2429934467
 42
4.3845861003
  0
ELLIPSE
  5
2F7
100
AcDbEntity
  8
0
100
AcDbEllipse
 62
7
  6
BYLAYER
 10
178.9939853333
 20
203.4050328227
 30
0.0
 11
-0.0
 21
7.0
 31
0.0
 40
0.1763269807
 41
-4.6816686399
 42
-3.9329654374
  0
ENDSEC
  0
SECTION
  2
OBJECTS
  0
DICTIONARY
  5
C
100
AcDbDictionary
280
0
281
1
  3
ACAD_GROUP
350
D
  3
ACAD_MLINESTYLE
350
17
  3
ACAD_LAYOUT
350
1A
  3
ACAD_PLOTSETTINGS
350
19
  3
ACAD_PLOTSTYLENAME
350
E
  0
DICTIONARY
  5
D
102
{ACAD_REACTORS
330
C
102
}
100
AcDbDictionary
280
0
281
1
  0
ACDBDICTIONARYWDFLT
  5
E
102
{ACAD_REACTORS
330
C
102
}
100
AcDbDictionary
281
1
  3
Normal
350
F
100
AcDbDictionaryWithDefault
340
F
  0
DICTIONARY
  5
17
102
{ACAD_REACTORS
330
C
102
}
100
AcDbDictionary
280
0
281
1
  3
Standard
350
18
  0
DICTIONARY
  5
19
102
{ACAD_REACTORS
330
C
102
}
100
AcDbDictionary
281
1
  0
DICTIONARY
  5
1A
102
{ACAD_REACTORS
330
C
102
}
100
AcDbDictionary
281
1
  3
Model
350
2F8
  3
Layout1
350
2F9
  0
ACDBPLACEHOLDER
  5
F
102
{ACAD_REACTORS
330
E
102
}
  0
MLINESTYLE
  5
18
102
{ACAD_REACTORS
330
17
102
}
100
AcDbMlineStyle
  2
STANDARD
 70
0
  3

 62
256
 51
90.0
 52
90.0
 71
2
 49
0.5
 62
256
  6
BYLAYER
 49
-0.5
 62
256
  6
BYLAYER
  0
LAYOUT
  5
2F8
102
{ACAD_REACTORS
330
1A
102
}
100
AcDbPlotSettings
  1

  2
none_device
  4

  6

 40
0.0
 41
0.0
 42
0.0
 43
0.0
 44
210.0
 45
297.0
 46
0.0
 47
0.0
 48
0.0
 49
0.0
140
0.0
141
0.0
142
1.0
143
1.0
 70
1024
 72
1
 73
0
 74
0
  7

 75
0
147
1.0
148
0.0
149
0.0
100
AcDbLayout
  1
Model
 70
0
 71
0
 10
0.0
 20
0.0
 11
210.0
 21
297.0
 12
0.0
 22
0.0
 32
0.0
 14
0.0
 24
0.0
 34
0.0
 15
0.0
 25
0.0
 35
0.0
146
0.0
 13
0.0
 23
0.0
 33
0.0
 16
1.0
 26
0.0
 36
0.0
 17
0.0
 27
1.0
 37
0.0
 76
0
330
210
345
0
346
0
  0
LAYOUT
  5
2F9
102
{ACAD_REACTORS
330
1A
102
}
100
AcDbPlotSettings
  1

  2
none_device
  4

  6

 40
0.0
 41
0.0
 42
0.0
 43
0.0
 44
210.0
 45
297.0
 46
0.0
 47
0.0
 48
0.0
 49
0.0
140
0.0
141
0.0
142
1.0
143
1.0
 70
0
 72
1
 73
0
 74
0
  7

 75
0
147
1.0
148
0.0
149
0.0
100
AcDbLayout
  1
Layout1
 70
0
 71
1
 10
0.0
 20
0.0
 11
210.0
 21
297.0
 12
0.0
 22
0.0
 32
0.0
 14
0.0
 24
0.0
 34
0.0
 15
0.0
 25
0.0
 35
0.0
146
0.0
 13
0.0
 23
0.0
 33
0.0
 16
1.0
 26
0.0
 36
0.0
 17
0.0
 27
1.0
 37
0.0
 76
0
330
211
345
0
346
0
  0
ENDSEC
  0
EOF
