999
DXF file: C:\Users\sesa63760\Dev\_Creo\CAD\MCADPD0004504_3D-CAD\drw0001_6.dxf
999
Pro/ENGINEER 2019471 by Parametric Technology Corporation
  0
SECTION
  2
HEADER
  9
$ACADVER
  1
AC1024
  9
$DWGCODEPAGE
  3
ANSI_1252
  9
$EXTMAX
 10
216.1518511669
 20
305.7004752217
 30
0.0
  9
$EXTMIN
 10
0.0
 20
0.0
 30
0.0
  9
$LIMMIN
 10
0.0
 20
0.0
  9
$LIMMAX
 10
216.1518511669
 20
305.7004752217
  9
$VIEWCTR
 10
108.0759255834
 20
152.8502376108
  9
$VIEWSIZE
 40
305.7004752217
  9
$CLAYER
  8
0
  9
$LTSCALE
 40
19.9271420885
  9
$CELTYPE
  6
BYLAYER
  9
$DIMSCALE
 40
1.0
  9
$DIMASZ
 40
2.5732363234
  9
$DIMEXO
 40
1.0
  9
$DIMDLI
 40
13.7678436248
  9
$DIMEXE
 40
1.0
  9
$DIMCEN
 40
3.260805069
  9
$DIMLFAC
 40
1.0
  9
$DIMBLK
  1
_FILLED
  9
$DIMALT
 70
0
  9
$DIMALTF
 40
0.0393700787
  9
$DIMTXT
 40
3.6025308528
  9
$DIMTOL
 70
1
  9
$DIMLIM
 70
0
  9
$DIMTFAC
 40
1.0
  9
$DIMTP
 40
0.01
  9
$DIMTM
 40
0.01
  9
$DIMGAP
 40
0.625
  9
$DIMDSEP
 70
46
  9
$AUNITS
 70
0
  9
$PDMODE
 70
3
  9
$PDSIZE
 40
0.3125
  9
$HANDSEED
  5
2EE
  9
$TILEMODE
 70
1
  9
$MEASUREMENT
 70
1
  9
$INSUNITS
 70
4
  0
ENDSEC
  0
SECTION
  2
CLASSES
  0
CLASS
  1
ACDBDICTIONARYWDFLT
  2
AcDbDictionaryWithDefault
  3
AutoCAD 2000
 90
0
 91
1
280
0
281
0
  0
CLASS
  1
ACDBPLACEHOLDER
  2
AcDbPlaceHolder
  3
AutoCAD 2000
 90
0
 91
1
280
0
281
0
  0
CLASS
  1
LAYOUT
  2
AcDbLayout
  3
AutoCAD 2000
 90
0
 91
0
280
0
281
0
  0
ENDSEC
  0
SECTION
  2
TABLES
  0
TABLE
  2
VPORT
  5
8
100
AcDbSymbolTable
 70
2
  0
VPORT
  5
1F4
100
AcDbSymbolTableRecord
100
AcDbViewportTableRecord
  2
*ACTIVE
 70
0
 10
0.0
 20
0.0
 11
1.0
 21
1.0
 12
108.0759255834
 22
152.8502376108
 13
0.0
 23
0.0
 14
1.0
 24
1.0
 15
0.0
 25
0.0
 16
0.0
 26
0.0
 36
1.0
 17
0.0
 27
0.0
 37
0.0
 40
305.7004752217
 41
0.7070707071
 42
50.0
 43
0.0
 44
0.0
 50
0.0
 51
0.0
 71
0
 72
100
 73
1
 74
1
 75
0
 76
0
 77
0
 78
0
  0
ENDTAB
  0
TABLE
  2
LTYPE
  5
5
100
AcDbSymbolTable
 70
6
  0
LTYPE
  5
14
100
AcDbSymbolTableRecord
100
AcDbLinetypeTableRecord
  2
BYBLOCK
 70
0
  3

 72
65
 73
0
 40
0.0
  0
LTYPE
  5
15
100
AcDbSymbolTableRecord
100
AcDbLinetypeTableRecord
  2
BYLAYER
 70
0
  3

 72
65
 73
0
 40
0.0
  0
LTYPE
  5
16
100
AcDbSymbolTableRecord
100
AcDbLinetypeTableRecord
  2
CONTINUOUS
 70
64
  3
Solid line
 72
65
 73
0
 40
0.0
  0
LTYPE
  5
1F5
100
AcDbSymbolTableRecord
100
AcDbLinetypeTableRecord
  2
CENTER
 70
64
  3
____ _ ____ _ ____ _ ____ _ ____ _ ____ _ ____
 72
65
 73
4
 40
0.6
 49
0.375
 74
0
 49
-0.075
 74
0
 49
0.075
 74
0
 49
-0.075
 74
0
  0
LTYPE
  5
1F6
100
AcDbSymbolTableRecord
100
AcDbLinetypeTableRecord
  2
HIDDEN
 70
64
  3
- - - - - - - - - - - - - - - - - - - -
 72
65
 73
2
 40
0.2
 49
0.1
 74
0
 49
-0.1
 74
0
  0
LTYPE
  5
1F7
100
AcDbSymbolTableRecord
100
AcDbLinetypeTableRecord
  2
PHANTOM
 70
64
  3
_____ _ _ _____ _ _ _____ _ _ _____
 72
65
 73
6
 40
0.8
 49
0.45
 74
0
 49
-0.05
 74
0
 49
0.1
 74
0
 49
-0.05
 74
0
 49
0.1
 74
0
 49
-0.05
 74
0
  0
LTYPE
  5
1F8
100
AcDbSymbolTableRecord
100
AcDbLinetypeTableRecord
  2
DOT
 70
64
  3
. . . . . . . . . . . . . . . . . . . .
 72
65
 73
2
 40
0.2
 49
0.1
 74
0
 49
-0.1
 74
0
  0
LTYPE
  5
1F9
100
AcDbSymbolTableRecord
100
AcDbLinetypeTableRecord
  2
DASHED
 70
64
  3
- - - - - - - - - - - - - - - - - - - -
 72
65
 73
2
 40
0.2
 49
0.1
 74
0
 49
-0.1
 74
0
  0
ENDTAB
  0
TABLE
  2
LAYER
  5
2
100
AcDbSymbolTable
 70
36
  0
LAYER
  5
10
100
AcDbSymbolTableRecord
100
AcDbLayerTableRecord
  2
0
 70
0
 62
7
  6
CONTINUOUS
370
-3
390
F
  0
LAYER
  5
1FA
100
AcDbSymbolTableRecord
100
AcDbLayerTableRecord
  2
DEFAULT_1
 70
0
 62
7
  6
CENTER
370
-3
390
F
  0
LAYER
  5
1FB
100
AcDbSymbolTableRecord
100
AcDbLayerTableRecord
  2
DEFAULT_2
 70
0
 62
7
  6
HIDDEN
370
-3
390
F
  0
LAYER
  5
1FC
100
AcDbSymbolTableRecord
100
AcDbLayerTableRecord
  2
DEFAULT_3
 70
0
 62
7
  6
PHANTOM
370
-3
390
F
  0
LAYER
  5
1FD
100
AcDbSymbolTableRecord
100
AcDbLayerTableRecord
  2
00_COMPONENTS
 70
0
 62
7
  6
CONTINUOUS
370
-3
390
F
  0
LAYER
  5
1FE
100
AcDbSymbolTableRecord
100
AcDbLayerTableRecord
  2
01_1_DEFAULT_DATUMS
 70
0
 62
7
  6
CONTINUOUS
370
-3
390
F
  0
LAYER
  5
1FF
100
AcDbSymbolTableRecord
100
AcDbLayerTableRecord
  2
01_PLANES
 70
0
 62
7
  6
CONTINUOUS
370
-3
390
F
  0
LAYER
  5
200
100
AcDbSymbolTableRecord
100
AcDbLayerTableRecord
  2
02_COORD_SYS
 70
0
 62
7
  6
CONTINUOUS
370
-3
390
F
  0
LAYER
  5
201
100
AcDbSymbolTableRecord
100
AcDbLayerTableRecord
  2
03_AXES
 70
0
 62
7
  6
CONTINUOUS
370
-3
390
F
  0
LAYER
  5
202
100
AcDbSymbolTableRecord
100
AcDbLayerTableRecord
  2
04_POINTS
 70
0
 62
7
  6
CONTINUOUS
370
-3
390
F
  0
LAYER
  5
203
100
AcDbSymbolTableRecord
100
AcDbLayerTableRecord
  2
05_CURVES
 70
0
 62
7
  6
CONTINUOUS
370
-3
390
F
  0
LAYER
  5
204
100
AcDbSymbolTableRecord
100
AcDbLayerTableRecord
  2
06_SURFS
 70
0
 62
7
  6
CONTINUOUS
370
-3
390
F
  0
LAYER
  5
205
100
AcDbSymbolTableRecord
100
AcDbLayerTableRecord
  2
07_COSMETICS
 70
0
 62
7
  6
CONTINUOUS
370
-3
390
F
  0
LAYER
  5
206
100
AcDbSymbolTableRecord
100
AcDbLayerTableRecord
  2
10_NOTES
 70
0
 62
7
  6
CONTINUOUS
370
-3
390
F
  0
LAYER
  5
207
100
AcDbSymbolTableRecord
100
AcDbLayerTableRecord
  2
11_NOTES_PUB
 70
0
 62
7
  6
CONTINUOUS
370
-3
390
F
  0
LAYER
  5
208
100
AcDbSymbolTableRecord
100
AcDbLayerTableRecord
  2
13_REF_GTOL
 70
0
 62
7
  6
CONTINUOUS
370
-3
390
F
  0
LAYER
  5
209
100
AcDbSymbolTableRecord
100
AcDbLayerTableRecord
  2
16_MISC
 70
0
 62
7
  6
CONTINUOUS
370
-3
390
F
  0
LAYER
  5
20A
100
AcDbSymbolTableRecord
100
AcDbLayerTableRecord
  2
17_NO_PRINT
 70
0
 62
7
  6
CONTINUOUS
370
-3
390
F
  0
LAYER
  5
20B
100
AcDbSymbolTableRecord
100
AcDbLayerTableRecord
  2
18_DATUM_CAMS_JOINTS
 70
0
 62
7
  6
CONTINUOUS
370
-3
390
F
  0
LAYER
  5
20C
100
AcDbSymbolTableRecord
100
AcDbLayerTableRecord
  2
19_DATUM_FUNCTIONAL
 70
0
 62
7
  6
CONTINUOUS
370
-3
390
F
  0
LAYER
  5
20D
100
AcDbSymbolTableRecord
100
AcDbLayerTableRecord
  2
20_DATUM_KINEMATIC_SCHEME
 70
0
 62
7
  6
CONTINUOUS
370
-3
390
F
  0
ENDTAB
  0
TABLE
  2
STYLE
  5
3
100
AcDbSymbolTable
 70
1
  0
STYLE
  5
11
100
AcDbSymbolTableRecord
100
AcDbTextStyleTableRecord
  2
STANDARD
 70
0
 40
0.0
 41
1.0
 50
0.0
 71
0
 42
0.2
  3
ARIAL.TTF
  4

  0
STYLE
  5
20E
100
AcDbSymbolTableRecord
100
AcDbTextStyleTableRecord
  2
TEXTSTYLE_1
 70
0
 40
0.0
 41
0.8
 50
0.0
 71
0
 42
0.2
  3
gdt
  4

  0
ENDTAB
  0
TABLE
  2
VIEW
  5
6
100
AcDbSymbolTable
 70
0
  0
ENDTAB
  0
TABLE
  2
UCS
  5
7
100
AcDbSymbolTable
 70
0
  0
ENDTAB
  0
TABLE
  2
APPID
  5
9
100
AcDbSymbolTable
 70
1
  0
APPID
  5
20F
100
AcDbSymbolTableRecord
100
AcDbRegAppTableRecord
  2
ACAD
 70
0
  0
ENDTAB
  0
TABLE
  2
BLOCK_RECORD
  5
1
100
AcDbSymbolTable
 70
0
  0
BLOCK_RECORD
  5
210
100
AcDbSymbolTableRecord
100
AcDbBlockTableRecord
  2
*Model_Space
  0
BLOCK_RECORD
  5
211
100
AcDbSymbolTableRecord
100
AcDbBlockTableRecord
  2
*Paper_Space
  0
BLOCK_RECORD
  5
212
100
AcDbSymbolTableRecord
100
AcDbBlockTableRecord
  2
_FILLED
  0
ENDTAB
  0
TABLE
  2
DIMSTYLE
  5
A
100
AcDbSymbolTable
 70
1
100
AcDbDimStyleTable
 71
0
  0
DIMSTYLE
105
213
100
AcDbSymbolTableRecord
100
AcDbDimStyleTableRecord
  2
STANDARD
 70
0
  3

  4

 40
1.0
 41
2.5732363234
 42
1.0
 43
0.38
 44
1.0
 45
0.0
 46
0.0
 47
0.01
 48
0.01
140
3.6025308528
141
0.09
142
0.0
143
25.4
144
1.0
145
0.0
146
1.0
147
0.625
 71
1
 72
0
 73
0
 74
0
 75
0
 76
0
 77
1
 78
8
 79
2
170
0
171
1
172
0
173
0
174
0
175
0
176
0
177
0
178
0
270
2
179
2
271
2
272
2
273
2
274
2
275
0
280
0
281
0
282
0
283
1
284
8
285
0
286
0
287
3
288
0
340
11
278
46
341
212
342
212
343
212
344
212
  0
ENDTAB
  0
ENDSEC
  0
SECTION
  2
BLOCKS
  0
BLOCK
  5
20
100
AcDbEntity
  8
0
100
AcDbBlockBegin
  2
*Model_Space
 70
0
 10
0.0
 20
0.0
 30
0.0
  3
*Model_Space
  1

  0
ENDBLK
  5
21
100
AcDbEntity
  8
0
100
AcDbBlockEnd
  0
BLOCK
  5
1C
100
AcDbEntity
  8
0
100
AcDbBlockBegin
  2
*Paper_Space
 70
0
 10
0.0
 20
0.0
 30
0.0
  3
*Paper_Space
  1

  0
ENDBLK
  5
1D
100
AcDbEntity
  8
0
100
AcDbBlockEnd
  0
BLOCK
  5
214
100
AcDbEntity
  8
0
100
AcDbBlockBegin
  2
_FILLED
 70
64
 10
0.0
 20
0.0
  3
_FILLED
  1

  0
SOLID
  5
215
100
AcDbEntity
  8
0
  6
BYBLOCK
 62
0
100
AcDbTrace
 10
0.0
 20
0.0
 11
-1.0
 21
0.25
 12
-1.0
 22
-0.25
 13
-1.0
 23
-0.25
  0
ENDBLK
  5
216
100
AcDbEntity
  8
0
  6
BYBLOCK
 62
0
100
AcDbBlockEnd
  0
ENDSEC
  0
SECTION
  2
ENTITIES
  0
LINE
  5
217
100
AcDbEntity
  8
0
100
AcDbLine
 62
7
  6
BYLAYER
 10
24.4456452459
 20
214.8402376108
 11
24.4456452459
 21
90.8602376108
  0
LINE
  5
218
100
AcDbEntity
  8
0
100
AcDbLine
 62
7
  6
BYLAYER
 10
26.4456452459
 20
186.3402376108
 11
26.4456452459
 21
178.3402376108
  0
LINE
  5
219
100
AcDbEntity
  8
0
100
AcDbLine
 62
7
  6
BYLAYER
 10
27.4456452459
 20
214.8402376108
 11
27.4456452459
 21
90.8602376108
  0
LINE
  5
21A
100
AcDbEntity
  8
0
100
AcDbLine
 62
7
  6
BYLAYER
 10
31.4456452459
 20
90.8602376108
 11
31.4456452459
 21
214.8402376108
  0
LINE
  5
21B
100
AcDbEntity
  8
0
100
AcDbLine
 62
7
  6
BYLAYER
 10
91.4456452459
 20
71.8502376108
 11
88.4456452459
 21
71.8502376108
  0
LINE
  5
21C
100
AcDbEntity
  8
0
100
AcDbLine
 62
7
  6
BYLAYER
 10
195.4456452459
 20
84.3502376108
 11
191.4456452459
 21
84.3502376108
  0
LINE
  5
21D
100
AcDbEntity
  8
0
100
AcDbLine
 62
7
  6
BYLAYER
 10
91.4456452459
 20
87.8502376108
 11
88.4456452459
 21
87.8502376108
  0
LINE
  5
21E
100
AcDbEntity
  8
0
100
AcDbLine
 62
7
  6
BYLAYER
 10
24.4456534205
 20
90.8602376108
 11
31.4456452459
 21
90.8602376108
  0
LINE
  5
21F
100
AcDbEntity
  8
0
100
AcDbLine
 62
7
  6
BYLAYER
 10
116.4456452459
 20
91.3602376108
 11
31.4456452459
 21
91.3602376108
  0
LINE
  5
220
100
AcDbEntity
  8
0
100
AcDbLine
 62
7
  6
BYLAYER
 10
82.4456452459
 20
91.8502376108
 11
134.4456452459
 21
91.8502376108
  0
LINE
  5
221
100
AcDbEntity
  8
0
100
AcDbLine
 62
7
  6
BYLAYER
 10
27.4456452459
 20
93.8602376108
 11
31.4456452459
 21
93.8602376108
  0
LINE
  5
222
100
AcDbEntity
  8
0
100
AcDbLine
 62
7
  6
BYLAYER
 10
31.4456452459
 20
94.3602376108
 11
82.4456452459
 21
94.3602376108
  0
LINE
  5
223
100
AcDbEntity
  8
0
100
AcDbLine
 62
7
  6
BYLAYER
 10
81.4956452459
 20
203.8547893437
 11
82.4456452459
 21
205.5002376108
  0
LINE
  5
224
100
AcDbEntity
  8
0
100
AcDbLine
 62
7
  6
BYLAYER
 10
109.244421135
 20
202.573041302
 11
108.6705824059
 21
202.3957377413
  0
LINE
  5
225
100
AcDbEntity
  8
0
100
AcDbLine
 62
7
  6
BYLAYER
 10
76.4956452459
 20
101.845685878
 11
81.4956452459
 21
101.845685878
  0
LINE
  5
226
100
AcDbEntity
  8
0
100
AcDbLine
 62
7
  6
BYLAYER
 10
128.0856452459
 20
105.3502376108
 11
117.4392137199
 21
105.3502376108
  0
LINE
  5
227
100
AcDbEntity
  8
0
100
AcDbLine
 62
7
  6
BYLAYER
 10
113.2356452459
 20
100.7802376108
 11
112.4370296127
 21
100.8853773536
  0
LINE
  5
228
100
AcDbEntity
  8
0
100
AcDbLine
 62
7
  6
BYLAYER
 10
108.6705824059
 20
103.3047374804
 11
109.244421135
 21
103.1274339196
  0
LINE
  5
229
100
AcDbEntity
  8
0
100
AcDbLine
 62
7
  6
BYLAYER
 10
82.4456452459
 20
100.2002376108
 11
81.4956452459
 21
101.845685878
  0
LINE
  5
22A
100
AcDbEntity
  8
0
100
AcDbLine
 62
7
  6
BYLAYER
 10
81.4956452459
 20
183.3547893436
 11
82.4956452459
 21
184.3547893436
  0
LINE
  5
22B
100
AcDbEntity
  8
0
100
AcDbLine
 62
7
  6
BYLAYER
 10
106.1609631501
 20
203.425555515
 11
108.1156452459
 21
205.3802376109
  0
LINE
  5
22C
100
AcDbEntity
  8
0
100
AcDbLine
 62
7
  6
BYLAYER
 10
111.6511871562
 20
200.1662752809
 11
112.2250258853
 21
200.3435788416
  0
LINE
  5
22D
100
AcDbEntity
  8
0
100
AcDbLine
 62
7
  6
BYLAYER
 10
111.4738835955
 20
106.10803867
 11
110.888272898
 21
105.9746686932
  0
LINE
  5
22E
100
AcDbEntity
  8
0
100
AcDbLine
 62
7
  6
BYLAYER
 10
108.4841407213
 20
109.1002376108
 11
109.9456452459
 21
109.1002376108
  0
LINE
  5
22F
100
AcDbEntity
  8
0
100
AcDbLine
 62
7
  6
BYLAYER
 10
74.9956452459
 20
111.345685878
 11
76.4956452459
 21
111.345685878
  0
LINE
  5
230
100
AcDbEntity
  8
0
100
AcDbLine
 62
7
  6
BYLAYER
 10
113.4968745064
 20
111.3502376108
 11
113.9456452459
 21
111.3502376108
  0
LINE
  5
231
100
AcDbEntity
  8
0
100
AcDbLine
 62
7
  6
BYLAYER
 10
76.4956452459
 20
111.445685878
 11
79.3956452459
 21
111.445685878
  0
LINE
  5
232
100
AcDbEntity
  8
0
100
AcDbLine
 62
7
  6
BYLAYER
 10
74.9956452459
 20
113.345685878
 11
81.4956452459
 21
113.345685878
  0
LINE
  5
233
100
AcDbEntity
  8
0
100
AcDbLine
 62
7
  6
BYLAYER
 10
82.4956452459
 20
114.345685878
 11
76.4956452459
 21
114.345685878
  0
LINE
  5
234
100
AcDbEntity
  8
0
100
AcDbLine
 62
7
  6
BYLAYER
 10
110.0073353932
 20
105.9746686932
 11
109.4217246958
 21
106.10803867
  0
LINE
  5
235
100
AcDbEntity
  8
0
100
AcDbLine
 62
7
  6
BYLAYER
 10
112.2250258854
 20
105.3568963801
 11
111.6511871562
 21
105.5341999409
  0
LINE
  5
236
100
AcDbEntity
  8
0
100
AcDbLine
 62
7
  6
BYLAYER
 10
82.4956452459
 20
121.345685878
 11
81.4956452459
 21
122.345685878
  0
LINE
  5
237
100
AcDbEntity
  8
0
100
AcDbLine
 62
7
  6
BYLAYER
 10
108.1156452459
 20
100.3202376108
 11
106.1609631501
 21
102.2749197067
  0
LINE
  5
238
100
AcDbEntity
  8
0
100
AcDbLine
 62
7
  6
BYLAYER
 10
74.9956452459
 20
183.3547893436
 11
74.9956452459
 21
181.3547893436
  0
LINE
  5
239
100
AcDbEntity
  8
0
100
AcDbLine
 62
7
  6
BYLAYER
 10
74.9956452459
 20
113.345685878
 11
74.9956452459
 21
111.345685878
  0
LINE
  5
23A
100
AcDbEntity
  8
0
100
AcDbLine
 62
7
  6
BYLAYER
 10
76.4956452459
 20
197.3547893436
 11
76.4956452459
 21
192.3547893436
  0
LINE
  5
23B
100
AcDbEntity
  8
0
100
AcDbLine
 62
7
  6
BYLAYER
 10
76.4956452459
 20
191.3547893436
 11
76.4956452459
 21
184.3547893436
  0
LINE
  5
23C
100
AcDbEntity
  8
0
100
AcDbLine
 62
7
  6
BYLAYER
 10
76.4956452459
 20
133.845685878
 11
76.4956452459
 21
122.345685878
  0
LINE
  5
23D
100
AcDbEntity
  8
0
100
AcDbLine
 62
7
  6
BYLAYER
 10
76.4956452459
 20
121.345685878
 11
76.4956452459
 21
114.345685878
  0
LINE
  5
23E
100
AcDbEntity
  8
0
100
AcDbLine
 62
7
  6
BYLAYER
 10
76.4956452459
 20
101.845685878
 11
76.4956452459
 21
113.345685878
  0
LINE
  5
23F
100
AcDbEntity
  8
0
100
AcDbLine
 62
7
  6
BYLAYER
 10
76.4956452459
 20
171.8547893436
 11
76.4956452459
 21
183.3547893436
  0
LINE
  5
240
100
AcDbEntity
  8
0
100
AcDbLine
 62
7
  6
BYLAYER
 10
77.4956452459
 20
191.3547893436
 11
77.4956452459
 21
184.3547893436
  0
LINE
  5
241
100
AcDbEntity
  8
0
100
AcDbLine
 62
7
  6
BYLAYER
 10
79.3956452459
 20
178.3547893436
 11
79.3956452459
 21
171.8547893436
  0
LINE
  5
242
100
AcDbEntity
  8
0
100
AcDbLine
 62
7
  6
BYLAYER
 10
79.3956452459
 20
111.445685878
 11
79.3956452459
 21
101.845685878
  0
LINE
  5
243
100
AcDbEntity
  8
0
100
AcDbLine
 62
7
  6
BYLAYER
 10
79.3956452459
 20
124.845685878
 11
79.3956452459
 21
133.845685878
  0
LINE
  5
244
100
AcDbEntity
  8
0
100
AcDbLine
 62
7
  6
BYLAYER
 10
79.3956452459
 20
194.8547893436
 11
79.3956452459
 21
197.3547893436
  0
LINE
  5
245
100
AcDbEntity
  8
0
100
AcDbLine
 62
7
  6
BYLAYER
 10
108.8039523826
 20
201.8101270438
 11
108.3956452459
 21
201.3696582914
  0
LINE
  5
246
100
AcDbEntity
  8
0
100
AcDbLine
 62
7
  6
BYLAYER
 10
112.0916559086
 20
200.9291895391
 11
112.4999630453
 21
201.3696582915
  0
LINE
  5
247
100
AcDbEntity
  8
0
100
AcDbLine
 62
7
  6
BYLAYER
 10
110.4478041456
 20
199.3174993917
 11
110.888272898
 21
199.7258065285
  0
LINE
  5
248
100
AcDbEntity
  8
0
100
AcDbLine
 62
7
  6
BYLAYER
 10
118.7494928232
 20
193.3502376108
 11
123.9456452459
 21
196.3502376108
  0
LINE
  5
249
100
AcDbEntity
  8
0
100
AcDbLine
 62
7
  6
BYLAYER
 10
191.4456452459
 20
115.6002376108
 11
142.4456452459
 21
115.6002376108
  0
LINE
  5
24A
100
AcDbEntity
  8
0
100
AcDbLine
 62
7
  6
BYLAYER
 10
191.4456452459
 20
117.7502376108
 11
140.4856452459
 21
117.7502376108
  0
LINE
  5
24B
100
AcDbEntity
  8
0
100
AcDbLine
 62
7
  6
BYLAYER
 10
113.9456452459
 20
119.3502376108
 11
112.6319367469
 21
119.3502376108
  0
LINE
  5
24C
100
AcDbEntity
  8
0
100
AcDbLine
 62
7
  6
BYLAYER
 10
132.8256452459
 20
119.9502376108
 11
180.0956452459
 21
119.9502376108
  0
LINE
  5
24D
100
AcDbEntity
  8
0
100
AcDbLine
 62
7
  6
BYLAYER
 10
182.5956452459
 20
119.9502376108
 11
192.7456452459
 21
119.9502376108
  0
LINE
  5
24E
100
AcDbEntity
  8
0
100
AcDbLine
 62
7
  6
BYLAYER
 10
82.4956452459
 20
121.345685878
 11
76.4956452459
 21
121.345685878
  0
LINE
  5
24F
100
AcDbEntity
  8
0
100
AcDbLine
 62
7
  6
BYLAYER
 10
76.4956452459
 20
122.345685878
 11
81.4956452459
 21
122.345685878
  0
LINE
  5
250
100
AcDbEntity
  8
0
100
AcDbLine
 62
7
  6
BYLAYER
 10
114.5280799256
 20
122.3502075399
 11
116.8053290114
 21
122.3499995419
  0
LINE
  5
251
100
AcDbEntity
  8
0
100
AcDbLine
 62
7
  6
BYLAYER
 10
110.888272898
 20
105.9746686932
 11
110.4478041456
 21
106.3829758299
  0
LINE
  5
252
100
AcDbEntity
  8
0
100
AcDbLine
 62
7
  6
BYLAYER
 10
108.3956452459
 20
104.3308169302
 11
108.8039523826
 21
103.8903481779
  0
LINE
  5
253
100
AcDbEntity
  8
0
100
AcDbLine
 62
7
  6
BYLAYER
 10
112.4999630453
 20
104.3308169303
 11
112.0916559086
 21
104.7712856826
  0
LINE
  5
254
100
AcDbEntity
  8
0
100
AcDbLine
 62
7
  6
BYLAYER
 10
81.4956452459
 20
101.845685878
 11
81.4956452459
 21
113.345685878
  0
LINE
  5
255
100
AcDbEntity
  8
0
100
AcDbLine
 62
7
  6
BYLAYER
 10
81.4956452459
 20
122.345685878
 11
81.4956452459
 21
133.845685878
  0
LINE
  5
256
100
AcDbEntity
  8
0
100
AcDbLine
 62
7
  6
BYLAYER
 10
81.4956452459
 20
171.8547893436
 11
81.4956452459
 21
183.3547893436
  0
LINE
  5
257
100
AcDbEntity
  8
0
100
AcDbLine
 62
7
  6
BYLAYER
 10
81.4956452459
 20
192.3547893436
 11
81.4956452459
 21
203.8547893437
  0
LINE
  5
258
100
AcDbEntity
  8
0
100
AcDbLine
 62
7
  6
BYLAYER
 10
82.4456452459
 20
91.8502376108
 11
82.4456452459
 21
100.2002376108
  0
LINE
  5
259
100
AcDbEntity
  8
0
100
AcDbLine
 62
7
  6
BYLAYER
 10
82.4456452459
 20
135.4911341452
 11
82.4456452459
 21
170.2093410765
  0
LINE
  5
25A
100
AcDbEntity
  8
0
100
AcDbLine
 62
7
  6
BYLAYER
 10
82.4456452459
 20
205.5002376108
 11
82.4456452459
 21
213.8502376108
  0
LINE
  5
25B
100
AcDbEntity
  8
0
100
AcDbLine
 62
7
  6
BYLAYER
 10
82.4956452459
 20
114.345685878
 11
82.4956452459
 21
121.345685878
  0
LINE
  5
25C
100
AcDbEntity
  8
0
100
AcDbLine
 62
7
  6
BYLAYER
 10
82.4956452459
 20
184.3547893436
 11
82.4956452459
 21
191.3547893436
  0
LINE
  5
25D
100
AcDbEntity
  8
0
100
AcDbLine
 62
7
  6
BYLAYER
 10
84.6456452459
 20
213.8502376108
 11
84.6456452459
 21
91.8502376108
  0
LINE
  5
25E
100
AcDbEntity
  8
0
100
AcDbLine
 62
7
  6
BYLAYER
 10
111.4738835955
 20
203.1468800312
 11
112.4370296127
 21
204.8150978681
  0
LINE
  5
25F
100
AcDbEntity
  8
0
100
AcDbLine
 62
7
  6
BYLAYER
 10
79.3956452459
 20
124.845685878
 11
81.4956452459
 21
124.845685878
  0
LINE
  5
260
100
AcDbEntity
  8
0
100
AcDbLine
 62
7
  6
BYLAYER
 10
112.4370296127
 20
100.8853773536
 11
111.4738835955
 21
102.5535951905
  0
LINE
  5
261
100
AcDbEntity
  8
0
100
AcDbLine
 62
7
  6
BYLAYER
 10
88.4456452459
 20
91.3602376108
 11
88.4456452459
 21
71.8502376108
  0
LINE
  5
262
100
AcDbEntity
  8
0
100
AcDbLine
 62
7
  6
BYLAYER
 10
88.4456452459
 20
214.3402376108
 11
88.4456452459
 21
233.8502376108
  0
LINE
  5
263
100
AcDbEntity
  8
0
100
AcDbLine
 62
7
  6
BYLAYER
 10
91.4456452459
 20
71.8502376108
 11
91.4456452459
 21
91.3602376108
  0
LINE
  5
264
100
AcDbEntity
  8
0
100
AcDbLine
 62
7
  6
BYLAYER
 10
91.4456452459
 20
214.3402376108
 11
91.4456452459
 21
233.8502376108
  0
LINE
  5
265
100
AcDbEntity
  8
0
100
AcDbLine
 62
7
  6
BYLAYER
 10
95.2456452459
 20
213.8502376108
 11
95.2456452459
 21
162.8502376108
  0
LINE
  5
266
100
AcDbEntity
  8
0
100
AcDbLine
 62
7
  6
BYLAYER
 10
95.2456452459
 20
142.8502376108
 11
95.2456452459
 21
91.8502376108
  0
LINE
  5
267
100
AcDbEntity
  8
0
100
AcDbLine
 62
7
  6
BYLAYER
 10
81.4956452459
 20
133.845685878
 11
82.4456452459
 21
135.4911341452
  0
LINE
  5
268
100
AcDbEntity
  8
0
100
AcDbLine
 62
7
  6
BYLAYER
 10
129.1417976686
 20
187.3502376108
 11
123.9456452459
 21
184.3502376108
  0
LINE
  5
269
100
AcDbEntity
  8
0
100
AcDbLine
 62
7
  6
BYLAYER
 10
134.6456452459
 20
186.6002376108
 11
142.4456452459
 21
191.1035697105
  0
LINE
  5
26A
100
AcDbEntity
  8
0
100
AcDbLine
 62
7
  6
BYLAYER
 10
180.0956452459
 20
132.0502376108
 11
182.5956452459
 21
132.0502376108
  0
LINE
  5
26B
100
AcDbEntity
  8
0
100
AcDbLine
 62
7
  6
BYLAYER
 10
76.4956452459
 20
133.845685878
 11
81.4956452459
 21
133.845685878
  0
LINE
  5
26C
100
AcDbEntity
  8
0
100
AcDbLine
 62
7
  6
BYLAYER
 10
142.4456452459
 20
114.5969055112
 11
137.3795130794
 21
117.5218382813
  0
LINE
  5
26D
100
AcDbEntity
  8
0
100
AcDbLine
 62
7
  6
BYLAYER
 10
82.4456452459
 20
170.2093410765
 11
81.4956452459
 21
171.8547893436
  0
LINE
  5
26E
100
AcDbEntity
  8
0
100
AcDbLine
 62
7
  6
BYLAYER
 10
108.8039523826
 20
200.9291895391
 11
108.6705824059
 21
200.3435788416
  0
LINE
  5
26F
100
AcDbEntity
  8
0
100
AcDbLine
 62
7
  6
BYLAYER
 10
112.0916559086
 20
201.8101270438
 11
112.2250258854
 21
202.3957377413
  0
LINE
  5
270
100
AcDbEntity
  8
0
100
AcDbLine
 62
7
  6
BYLAYER
 10
111.4738835955
 20
199.5924365517
 11
111.6511871562
 21
200.1662752809
  0
LINE
  5
271
100
AcDbEntity
  8
0
100
AcDbLine
 62
7
  6
BYLAYER
 10
95.2456452459
 20
142.8502376108
 11
84.6456452459
 21
142.8502376108
  0
LINE
  5
272
100
AcDbEntity
  8
0
100
AcDbLine
 62
7
  6
BYLAYER
 10
111.6511871562
 20
105.5341999409
 11
111.4738835955
 21
106.10803867
  0
LINE
  5
273
100
AcDbEntity
  8
0
100
AcDbLine
 62
7
  6
BYLAYER
 10
108.6705824059
 20
105.3568963801
 11
108.8039523826
 21
104.7712856826
  0
LINE
  5
274
100
AcDbEntity
  8
0
100
AcDbLine
 62
7
  6
BYLAYER
 10
112.2250258854
 20
103.3047374804
 11
112.0916559086
 21
103.8903481779
  0
LINE
  5
275
100
AcDbEntity
  8
0
100
AcDbLine
 62
7
  6
BYLAYER
 10
109.244421135
 20
103.1274339196
 11
109.3101747952
 21
102.3892234813
  0
LINE
  5
276
100
AcDbEntity
  8
0
100
AcDbLine
 62
7
  6
BYLAYER
 10
105.9456452459
 20
103.6502376108
 11
105.9456452459
 21
105.0502376108
  0
LINE
  5
277
100
AcDbEntity
  8
0
100
AcDbLine
 62
7
  6
BYLAYER
 10
105.9456452459
 20
200.6502376108
 11
105.9456452459
 21
202.0502376108
  0
LINE
  5
278
100
AcDbEntity
  8
0
100
AcDbLine
 62
7
  6
BYLAYER
 10
109.9456452459
 20
109.1002376108
 11
109.9456452459
 21
109.5230526489
  0
LINE
  5
279
100
AcDbEntity
  8
0
100
AcDbLine
 62
7
  6
BYLAYER
 10
109.9456452459
 20
196.1774222861
 11
109.9456452459
 21
196.6002376108
  0
LINE
  5
27A
100
AcDbEntity
  8
0
100
AcDbLine
 62
7
  6
BYLAYER
 10
109.3101747952
 20
203.3112517404
 11
109.244421135
 21
202.573041302
  0
LINE
  5
27B
100
AcDbEntity
  8
0
100
AcDbLine
 62
7
  6
BYLAYER
 10
134.6456452459
 20
146.8502376108
 11
131.6456452459
 21
146.8502376108
  0
LINE
  5
27C
100
AcDbEntity
  8
0
100
AcDbLine
 62
7
  6
BYLAYER
 10
114.9456452459
 20
202.0502376108
 11
114.9456452459
 21
200.6502376108
  0
LINE
  5
27D
100
AcDbEntity
  8
0
100
AcDbLine
 62
7
  6
BYLAYER
 10
114.9456452459
 20
105.0502376108
 11
114.9456452459
 21
103.6502376108
  0
LINE
  5
27E
100
AcDbEntity
  8
0
100
AcDbLine
 62
7
  6
BYLAYER
 10
115.5456452459
 20
213.8502376108
 11
115.5456452459
 21
193.5813364951
  0
LINE
  5
27F
100
AcDbEntity
  8
0
100
AcDbLine
 62
7
  6
BYLAYER
 10
115.5456452459
 20
187.1191387266
 11
115.5456452459
 21
123.9199517251
  0
LINE
  5
280
100
AcDbEntity
  8
0
100
AcDbLine
 62
7
  6
BYLAYER
 10
115.5456452459
 20
109.8450264487
 11
115.5456452459
 21
91.8502376108
  0
LINE
  5
281
100
AcDbEntity
  8
0
100
AcDbLine
 62
7
  6
BYLAYER
 10
116.4456452459
 20
91.3602376108
 11
116.4456452459
 21
91.8502376108
  0
LINE
  5
282
100
AcDbEntity
  8
0
100
AcDbLine
 62
7
  6
BYLAYER
 10
116.4456452459
 20
213.8502376108
 11
116.4456452459
 21
214.3402376108
  0
LINE
  5
283
100
AcDbEntity
  8
0
100
AcDbLine
 62
7
  6
BYLAYER
 10
118.7494928232
 20
187.3502376108
 11
118.7494928232
 21
193.3502376108
  0
LINE
  5
284
100
AcDbEntity
  8
0
100
AcDbLine
 62
7
  6
BYLAYER
 10
113.9456452459
 20
111.3502376108
 11
113.9456452459
 21
119.3502376108
  0
LINE
  5
285
100
AcDbEntity
  8
0
100
AcDbLine
 62
7
  6
BYLAYER
 10
81.4956452459
 20
113.345685878
 11
82.4956452459
 21
114.345685878
  0
LINE
  5
286
100
AcDbEntity
  8
0
100
AcDbLine
 62
7
  6
BYLAYER
 10
131.6456452459
 20
158.8502376108
 11
134.6456452459
 21
158.8502376108
  0
LINE
  5
287
100
AcDbEntity
  8
0
100
AcDbLine
 62
7
  6
BYLAYER
 10
82.4956452459
 20
191.3547893436
 11
81.4956452459
 21
192.3547893436
  0
LINE
  5
288
100
AcDbEntity
  8
0
100
AcDbLine
 62
7
  6
BYLAYER
 10
108.8039523826
 20
103.8903481779
 11
108.6705824059
 21
103.3047374804
  0
LINE
  5
289
100
AcDbEntity
  8
0
100
AcDbLine
 62
7
  6
BYLAYER
 10
112.0916559086
 20
104.7712856826
 11
112.2250258854
 21
105.3568963801
  0
LINE
  5
28A
100
AcDbEntity
  8
0
100
AcDbLine
 62
7
  6
BYLAYER
 10
109.4217246958
 20
106.10803867
 11
109.244421135
 21
105.5341999409
  0
LINE
  5
28B
100
AcDbEntity
  8
0
100
AcDbLine
 62
7
  6
BYLAYER
 10
111.4738835955
 20
102.5535951905
 11
111.6511871562
 21
103.1274339196
  0
LINE
  5
28C
100
AcDbEntity
  8
0
100
AcDbLine
 62
7
  6
BYLAYER
 10
84.6456452459
 20
162.8502376108
 11
95.2456452459
 21
162.8502376108
  0
LINE
  5
28D
100
AcDbEntity
  8
0
100
AcDbLine
 62
7
  6
BYLAYER
 10
109.244421135
 20
200.1662752808
 11
109.4217246958
 21
199.5924365517
  0
LINE
  5
28E
100
AcDbEntity
  8
0
100
AcDbLine
 62
7
  6
BYLAYER
 10
111.6511871562
 20
202.573041302
 11
111.4738835955
 21
203.1468800312
  0
LINE
  5
28F
100
AcDbEntity
  8
0
100
AcDbLine
 62
7
  6
BYLAYER
 10
108.6705824059
 20
202.3957377413
 11
108.8039523826
 21
201.8101270438
  0
LINE
  5
290
100
AcDbEntity
  8
0
100
AcDbLine
 62
7
  6
BYLAYER
 10
112.2250258853
 20
200.3435788416
 11
112.0916559086
 21
200.9291895391
  0
LINE
  5
291
100
AcDbEntity
  8
0
100
AcDbLine
 62
7
  6
BYLAYER
 10
129.1417976686
 20
193.3502376108
 11
129.1417976686
 21
187.3502376108
  0
LINE
  5
292
100
AcDbEntity
  8
0
100
AcDbLine
 62
7
  6
BYLAYER
 10
131.6456452459
 20
146.8502376108
 11
131.6456452459
 21
158.8502376108
  0
LINE
  5
293
100
AcDbEntity
  8
0
100
AcDbLine
 62
7
  6
BYLAYER
 10
76.4956452459
 20
171.8547893436
 11
81.4956452459
 21
171.8547893436
  0
LINE
  5
294
100
AcDbEntity
  8
0
100
AcDbLine
 62
7
  6
BYLAYER
 10
182.5956452459
 20
173.6502376108
 11
180.0956452459
 21
173.6502376108
  0
LINE
  5
295
100
AcDbEntity
  8
0
100
AcDbLine
 62
7
  6
BYLAYER
 10
134.6456452459
 20
124.0102376108
 11
134.6456452459
 21
146.8502376108
  0
LINE
  5
296
100
AcDbEntity
  8
0
100
AcDbLine
 62
7
  6
BYLAYER
 10
134.6456452459
 20
158.8502376108
 11
134.6456452459
 21
186.6002376108
  0
LINE
  5
297
100
AcDbEntity
  8
0
100
AcDbLine
 62
7
  6
BYLAYER
 10
109.3101747952
 20
102.3892234813
 11
108.1156452459
 21
100.3202376108
  0
LINE
  5
298
100
AcDbEntity
  8
0
100
AcDbLine
 62
7
  6
BYLAYER
 10
108.8039523826
 20
104.7712856826
 11
108.3956452459
 21
104.3308169302
  0
LINE
  5
299
100
AcDbEntity
  8
0
100
AcDbLine
 62
7
  6
BYLAYER
 10
26.4456452459
 20
178.3402376108
 11
27.4456452459
 21
178.3402376108
  0
LINE
  5
29A
100
AcDbEntity
  8
0
100
AcDbLine
 62
7
  6
BYLAYER
 10
76.4956452459
 20
178.3547893436
 11
79.3956452459
 21
178.3547893436
  0
LINE
  5
29B
100
AcDbEntity
  8
0
100
AcDbLine
 62
7
  6
BYLAYER
 10
74.9956452459
 20
181.3547893436
 11
76.4956452459
 21
181.3547893436
  0
LINE
  5
29C
100
AcDbEntity
  8
0
100
AcDbLine
 62
7
  6
BYLAYER
 10
74.9956452459
 20
183.3547893436
 11
81.4956452459
 21
183.3547893436
  0
LINE
  5
29D
100
AcDbEntity
  8
0
100
AcDbLine
 62
7
  6
BYLAYER
 10
76.4956452459
 20
184.3547893436
 11
82.4956452459
 21
184.3547893436
  0
LINE
  5
29E
100
AcDbEntity
  8
0
100
AcDbLine
 62
7
  6
BYLAYER
 10
108.3956452459
 20
201.3696582914
 11
108.8039523826
 21
200.9291895391
  0
LINE
  5
29F
100
AcDbEntity
  8
0
100
AcDbLine
 62
7
  6
BYLAYER
 10
108.1156452459
 20
205.3802376109
 11
109.3101747952
 21
203.3112517404
  0
LINE
  5
2A0
100
AcDbEntity
  8
0
100
AcDbLine
 62
7
  6
BYLAYER
 10
142.4456452459
 20
99.8502376108
 11
142.4456452459
 21
115.6002376108
  0
LINE
  5
2A1
100
AcDbEntity
  8
0
100
AcDbLine
 62
7
  6
BYLAYER
 10
142.4456452459
 20
190.1002376108
 11
142.4456452459
 21
205.8502376108
  0
LINE
  5
2A2
100
AcDbEntity
  8
0
100
AcDbLine
 62
7
  6
BYLAYER
 10
112.0916559086
 20
103.8903481779
 11
112.4999630453
 21
104.3308169303
  0
LINE
  5
2A3
100
AcDbEntity
  8
0
100
AcDbLine
 62
7
  6
BYLAYER
 10
114.7303273418
 20
102.2749197067
 11
113.2356452459
 21
100.7802376108
  0
LINE
  5
2A4
100
AcDbEntity
  8
0
100
AcDbLine
 62
7
  6
BYLAYER
 10
110.4478041456
 20
106.3829758299
 11
110.0073353932
 21
105.9746686932
  0
LINE
  5
2A5
100
AcDbEntity
  8
0
100
AcDbLine
 62
7
  6
BYLAYER
 10
132.8961792278
 20
123.3432308824
 11
134.6456452459
 21
124.0102376108
  0
LINE
  5
2A6
100
AcDbEntity
  8
0
100
AcDbLine
 62
7
  6
BYLAYER
 10
192.7456452459
 20
185.7502376108
 11
182.5956452459
 21
185.7502376108
  0
LINE
  5
2A7
100
AcDbEntity
  8
0
100
AcDbLine
 62
7
  6
BYLAYER
 10
180.0956452459
 20
185.7502376108
 11
134.6456452459
 21
185.7502376108
  0
LINE
  5
2A8
100
AcDbEntity
  8
0
100
AcDbLine
 62
7
  6
BYLAYER
 10
26.4456452459
 20
186.3402376108
 11
27.4456452459
 21
186.3402376108
  0
LINE
  5
2A9
100
AcDbEntity
  8
0
100
AcDbLine
 62
7
  6
BYLAYER
 10
140.4856452459
 20
187.9502376108
 11
191.4456452459
 21
187.9502376108
  0
LINE
  5
2AA
100
AcDbEntity
  8
0
100
AcDbLine
 62
7
  6
BYLAYER
 10
142.4456452459
 20
190.1002376108
 11
191.4456452459
 21
190.1002376108
  0
LINE
  5
2AB
100
AcDbEntity
  8
0
100
AcDbLine
 62
7
  6
BYLAYER
 10
185.4456452459
 20
191.3502376108
 11
191.4456452459
 21
191.3502376108
  0
LINE
  5
2AC
100
AcDbEntity
  8
0
100
AcDbLine
 62
7
  6
BYLAYER
 10
82.4956452459
 20
191.3547893436
 11
76.4956452459
 21
191.3547893436
  0
LINE
  5
2AD
100
AcDbEntity
  8
0
100
AcDbLine
 62
7
  6
BYLAYER
 10
76.4956452459
 20
192.3547893436
 11
81.4956452459
 21
192.3547893436
  0
LINE
  5
2AE
100
AcDbEntity
  8
0
100
AcDbLine
 62
7
  6
BYLAYER
 10
123.9456452459
 20
184.3502376108
 11
118.7494928232
 21
187.3502376108
  0
LINE
  5
2AF
100
AcDbEntity
  8
0
100
AcDbLine
 62
7
  6
BYLAYER
 10
110.0073353933
 20
199.7258065284
 11
110.4478041456
 21
199.3174993917
  0
LINE
  5
2B0
100
AcDbEntity
  8
0
100
AcDbLine
 62
7
  6
BYLAYER
 10
113.2356452459
 20
204.9202376108
 11
114.7303273418
 21
203.4255555149
  0
LINE
  5
2B1
100
AcDbEntity
  8
0
100
AcDbLine
 62
7
  6
BYLAYER
 10
112.4999630453
 20
201.3696582915
 11
112.0916559086
 21
201.8101270438
  0
LINE
  5
2B2
100
AcDbEntity
  8
0
100
AcDbLine
 62
7
  6
BYLAYER
 10
140.4856452459
 20
117.7502376108
 11
139.2039225927
 21
116.4685149576
  0
LINE
  5
2B3
100
AcDbEntity
  8
0
100
AcDbLine
 62
7
  6
BYLAYER
 10
135.7076703951
 20
112.97226276
 11
131.1385273032
 21
108.4031196681
  0
LINE
  5
2B4
100
AcDbEntity
  8
0
100
AcDbLine
 62
7
  6
BYLAYER
 10
130.8927631886
 20
108.1573555536
 11
128.0856452459
 21
105.3502376108
  0
LINE
  5
2B5
100
AcDbEntity
  8
0
100
AcDbLine
 62
7
  6
BYLAYER
 10
137.3795130794
 20
117.5218382813
 11
135.8849444075
 21
116.5556983235
  0
LINE
  5
2B6
100
AcDbEntity
  8
0
100
AcDbLine
 62
7
  6
BYLAYER
 10
109.244421135
 20
105.5341999409
 11
108.6705824059
 21
105.3568963801
  0
LINE
  5
2B7
100
AcDbEntity
  8
0
100
AcDbLine
 62
7
  6
BYLAYER
 10
111.6511871562
 20
103.1274339196
 11
112.2250258854
 21
103.3047374804
  0
LINE
  5
2B8
100
AcDbEntity
  8
0
100
AcDbLine
 62
7
  6
BYLAYER
 10
109.4217246958
 20
199.5924365517
 11
110.0073353933
 21
199.7258065284
  0
LINE
  5
2B9
100
AcDbEntity
  8
0
100
AcDbLine
 62
7
  6
BYLAYER
 10
79.3956452459
 20
194.8547893436
 11
81.4956452459
 21
194.8547893436
  0
LINE
  5
2BA
100
AcDbEntity
  8
0
100
AcDbLine
 62
7
  6
BYLAYER
 10
109.9456452459
 20
196.6002376108
 11
108.4841407213
 21
196.6002376108
  0
LINE
  5
2BB
100
AcDbEntity
  8
0
100
AcDbLine
 62
7
  6
BYLAYER
 10
76.4956452459
 20
197.3547893436
 11
81.4956452459
 21
197.3547893436
  0
LINE
  5
2BC
100
AcDbEntity
  8
0
100
AcDbLine
 62
7
  6
BYLAYER
 10
110.888272898
 20
199.7258065285
 11
111.4738835955
 21
199.5924365517
  0
LINE
  5
2BD
100
AcDbEntity
  8
0
100
AcDbLine
 62
7
  6
BYLAYER
 10
108.6705824059
 20
200.3435788416
 11
109.244421135
 21
200.1662752808
  0
LINE
  5
2BE
100
AcDbEntity
  8
0
100
AcDbLine
 62
7
  6
BYLAYER
 10
112.2250258854
 20
202.3957377413
 11
111.6511871562
 21
202.573041302
  0
LINE
  5
2BF
100
AcDbEntity
  8
0
100
AcDbLine
 62
7
  6
BYLAYER
 10
123.9456452459
 20
196.3502376108
 11
129.1417976686
 21
193.3502376108
  0
LINE
  5
2C0
100
AcDbEntity
  8
0
100
AcDbLine
 62
7
  6
BYLAYER
 10
139.2039225927
 20
189.2319602641
 11
140.4856452459
 21
187.9502376108
  0
LINE
  5
2C1
100
AcDbEntity
  8
0
100
AcDbLine
 62
7
  6
BYLAYER
 10
112.4370296127
 20
204.8150978681
 11
113.2356452459
 21
204.9202376108
  0
LINE
  5
2C2
100
AcDbEntity
  8
0
100
AcDbLine
 62
7
  6
BYLAYER
 10
185.4456452459
 20
208.3502376108
 11
191.4456452459
 21
208.3502376108
  0
LINE
  5
2C3
100
AcDbEntity
  8
0
100
AcDbLine
 62
7
  6
BYLAYER
 10
195.4456452459
 20
186.7302376108
 11
194.9456452459
 21
185.864212207
  0
LINE
  5
2C4
100
AcDbEntity
  8
0
100
AcDbLine
 62
7
  6
BYLAYER
 10
82.4456452459
 20
211.3402376108
 11
31.4456452459
 21
211.3402376108
  0
LINE
  5
2C5
100
AcDbEntity
  8
0
100
AcDbLine
 62
7
  6
BYLAYER
 10
31.4456452459
 20
211.8402376108
 11
27.4456452459
 21
211.8402376108
  0
LINE
  5
2C6
100
AcDbEntity
  8
0
100
AcDbLine
 62
7
  6
BYLAYER
 10
82.4456452459
 20
213.8502376108
 11
134.4456452459
 21
213.8502376108
  0
LINE
  5
2C7
100
AcDbEntity
  8
0
100
AcDbLine
 62
7
  6
BYLAYER
 10
31.4456452459
 20
214.3402376108
 11
116.4456452459
 21
214.3402376108
  0
LINE
  5
2C8
100
AcDbEntity
  8
0
100
AcDbLine
 62
7
  6
BYLAYER
 10
24.4456534205
 20
214.8402376108
 11
31.4456452459
 21
214.8402376108
  0
LINE
  5
2C9
100
AcDbEntity
  8
0
100
AcDbLine
 62
7
  6
BYLAYER
 10
194.9456452459
 20
119.8362630146
 11
195.4456452459
 21
118.9702376108
  0
LINE
  5
2CA
100
AcDbEntity
  8
0
100
AcDbLine
 62
7
  6
BYLAYER
 10
180.0956452459
 20
119.9502376108
 11
180.0956452459
 21
132.0502376108
  0
LINE
  5
2CB
100
AcDbEntity
  8
0
100
AcDbLine
 62
7
  6
BYLAYER
 10
180.0956452459
 20
173.6502376108
 11
180.0956452459
 21
185.7502376108
  0
LINE
  5
2CC
100
AcDbEntity
  8
0
100
AcDbLine
 62
7
  6
BYLAYER
 10
91.4456452459
 20
217.8502376108
 11
88.4456452459
 21
217.8502376108
  0
LINE
  5
2CD
100
AcDbEntity
  8
0
100
AcDbLine
 62
7
  6
BYLAYER
 10
191.4456452459
 20
221.3502376108
 11
195.4456452459
 21
221.3502376108
  0
LINE
  5
2CE
100
AcDbEntity
  8
0
100
AcDbLine
 62
7
  6
BYLAYER
 10
182.5956452459
 20
185.7502376108
 11
182.5956452459
 21
173.6502376108
  0
LINE
  5
2CF
100
AcDbEntity
  8
0
100
AcDbLine
 62
7
  6
BYLAYER
 10
182.5956452459
 20
132.0502376108
 11
182.5956452459
 21
119.9502376108
  0
LINE
  5
2D0
100
AcDbEntity
  8
0
100
AcDbLine
 62
7
  6
BYLAYER
 10
185.4456452459
 20
208.3502376108
 11
185.4456452459
 21
191.3502376108
  0
LINE
  5
2D1
100
AcDbEntity
  8
0
100
AcDbLine
 62
7
  6
BYLAYER
 10
191.4456452459
 20
84.3502376108
 11
191.4456452459
 21
117.7502376108
  0
LINE
  5
2D2
100
AcDbEntity
  8
0
100
AcDbLine
 62
7
  6
BYLAYER
 10
191.4456452459
 20
187.9502376108
 11
191.4456452459
 21
221.3502376108
  0
LINE
  5
2D3
100
AcDbEntity
  8
0
100
AcDbLine
 62
7
  6
BYLAYER
 10
192.7456452459
 20
119.9502376108
 11
192.7456452459
 21
185.7502376108
  0
LINE
  5
2D4
100
AcDbEntity
  8
0
100
AcDbLine
 62
7
  6
BYLAYER
 10
194.9456452459
 20
185.864212207
 11
194.9456452459
 21
119.8362630146
  0
LINE
  5
2D5
100
AcDbEntity
  8
0
100
AcDbLine
 62
7
  6
BYLAYER
 10
195.4456452459
 20
221.3502376108
 11
195.4456452459
 21
186.7302376108
  0
LINE
  5
2D6
100
AcDbEntity
  8
0
100
AcDbLine
 62
7
  6
BYLAYER
 10
195.4456452459
 20
118.9702376108
 11
195.4456452459
 21
84.3502376108
  0
LINE
  5
2D7
100
AcDbEntity
  8
0
100
AcDbLine
 62
7
  6
BYLAYER
 10
91.4456452459
 20
233.8502376108
 11
88.4456452459
 21
233.8502376108
  0
ARC
  5
2D8
100
AcDbEntity
  8
0
100
AcDbCircle
 62
7
  6
BYLAYER
 10
123.9456452459
 20
115.3502376108
 40
12.0
100
AcDbArc
 50
237.1840693559
 51
5.7653754138
  0
ARC
  5
2D9
100
AcDbEntity
  8
0
100
AcDbCircle
 62
7
  6
BYLAYER
 10
123.9456452459
 20
115.3502376108
 40
12.0
100
AcDbArc
 50
41.7654464628
 51
197.5005112566
  0
ARC
  5
2DA
100
AcDbEntity
  8
0
100
AcDbCircle
 62
7
  6
BYLAYER
 10
123.2735694369
 20
113.4940343825
 40
11.0
100
AcDbArc
 50
15.0741284682
 51
125.1117800189
  0
ARC
  5
2DB
100
AcDbEntity
  8
0
100
AcDbCircle
 62
7
  6
BYLAYER
 10
123.9466696392
 20
115.3498254363
 40
10.0
100
AcDbArc
 50
27.3897672216
 51
192.1598606879
  0
ARC
  5
2DC
100
AcDbEntity
  8
0
100
AcDbCircle
 62
7
  6
BYLAYER
 10
123.9456452459
 20
115.3502376108
 40
10.0
100
AcDbArc
 50
242.5223566452
 51
5.7653754138
  0
ARC
  5
2DD
100
AcDbEntity
  8
0
100
AcDbCircle
 62
7
  6
BYLAYER
 10
110.4456452459
 20
105.0502376108
 40
9.0
100
AcDbArc
 50
9.1300975311
 51
65.5521421688
  0
CIRCLE
  5
2DE
100
AcDbEntity
  8
0
100
AcDbCircle
 62
7
  6
BYLAYER
 10
123.9456452459
 20
190.3502376108
 40
9.0
  0
ARC
  5
2DF
100
AcDbEntity
  8
0
100
AcDbCircle
 62
7
  6
BYLAYER
 10
134.4456452459
 20
205.8502376108
 40
8.0
100
AcDbArc
 50
0.0
 51
90.0
  0
ARC
  5
2E0
100
AcDbEntity
  8
0
100
AcDbCircle
 62
7
  6
BYLAYER
 10
134.4456452459
 20
99.8502376108
 40
8.0
100
AcDbArc
 50
270.0
 51
360.0
  0
ARC
  5
2E1
100
AcDbEntity
  8
0
100
AcDbCircle
 62
7
  6
BYLAYER
 10
84.121160699
 20
152.8502376108
 40
7.85
100
AcDbArc
 50
102.3241071794
 51
257.6758928206
  0
ARC
  5
2E2
100
AcDbEntity
  8
0
100
AcDbCircle
 62
7
  6
BYLAYER
 10
110.4456452459
 20
105.0502376108
 40
7.0
100
AcDbArc
 50
1.7601458531
 51
72.9244347594
  0
ARC
  5
2E3
100
AcDbEntity
  8
0
100
AcDbCircle
 62
7
  6
BYLAYER
 10
110.4456452459
 20
104.3408365341
 40
4.5
100
AcDbArc
 50
239.9040011414
 51
307.7875803292
  0
ARC
  5
2E4
100
AcDbEntity
  8
0
100
AcDbCircle
 62
7
  6
BYLAYER
 10
110.4456452459
 20
200.6502376108
 40
4.5
100
AcDbArc
 50
180.0
 51
360.0
  0
ARC
  5
2E5
100
AcDbEntity
  8
0
100
AcDbCircle
 62
7
  6
BYLAYER
 10
110.4456452459
 20
202.0502376108
 40
4.5
100
AcDbArc
 50
0.0
 51
180.0
  0
ARC
  5
2E6
100
AcDbEntity
  8
0
100
AcDbCircle
 62
7
  6
BYLAYER
 10
110.4456452459
 20
105.0502376108
 40
4.5
100
AcDbArc
 50
0.0
 51
180.0
  0
ARC
  5
2E7
100
AcDbEntity
  8
0
100
AcDbCircle
 62
7
  6
BYLAYER
 10
110.4456452459
 20
103.6502376108
 40
4.5
100
AcDbArc
 50
180.0
 51
360.0
  0
SPLINE
  5
2E8
100
AcDbEntity
  8
0
100
AcDbSpline
 62
7
  6
BYLAYER
 70
0
 71
3
 72
16
 73
12
 74
0
 42
0.0000001
 43
0.0000001
 44
0.0000000001
 40
0.0
 40
0.0
 40
0.0
 40
0.0
 40
0.0107716444
 40
0.0278768377
 40
0.0531284104
 40
0.0868394147
 40
0.1792034444
 40
0.3023306456
 40
0.4518902611
 40
0.6224152293
 40
1.0
 40
1.0
 40
1.0
 40
1.0
 10
26.9077013558
 20
96.8603786821
 30
0.0
 10
26.9241208388
 20
96.8603880582
 30
0.0
 10
26.9638383607
 20
96.8860477123
 30
0.0
 10
27.0036691827
 20
96.9565451399
 30
0.0
 10
27.0465665625
 20
97.0647538361
 30
0.0
 10
27.1079842959
 20
97.2872721826
 30
0.0
 10
27.1759615409
 20
97.661579902
 30
0.0
 10
27.2448115086
 20
98.213822365
 30
0.0
 10
27.3026203235
 20
98.8871134895
 30
0.0
 10
27.3628029739
 20
99.9489588551
 30
0.0
 10
27.3795766466
 20
100.7846757448
 30
0.0
 10
27.3795766466
 20
101.3602376108
 30
0.0
  0
SPLINE
  5
2E9
100
AcDbEntity
  8
0
100
AcDbSpline
 62
7
  6
BYLAYER
 70
0
 71
3
 72
16
 73
12
 74
0
 42
0.0000001
 43
0.0000001
 44
0.0000000001
 40
0.0
 40
0.0
 40
0.0
 40
0.0
 40
0.3776073366
 40
0.5481229495
 40
0.6977077192
 40
0.8208313085
 40
0.9131710726
 40
0.9468804067
 40
0.9721304096
 40
0.9892322489
 40
1.0
 40
1.0
 40
1.0
 40
1.0
 10
27.3795766466
 20
101.3602376108
 30
0.0
 10
27.3795766466
 20
101.935834602
 30
0.0
 10
27.362824428
 20
102.7715738506
 30
0.0
 10
27.3025887872
 20
103.8334762499
 30
0.0
 10
27.2448037218
 20
104.5067877761
 30
0.0
 10
27.1759615388
 20
105.0590303929
 30
0.0
 10
27.1079442833
 20
105.433282766
 30
0.0
 10
27.0465479193
 20
105.6557654249
 30
0.0
 10
27.0036583252
 20
105.7639629128
 30
0.0
 10
26.9638437859
 20
105.8344611584
 30
0.0
 10
26.9241148761
 20
105.8600905562
 30
0.0
 10
26.9077013046
 20
105.8600870159
 30
0.0
  0
SPLINE
  5
2EA
100
AcDbEntity
  8
0
100
AcDbSpline
 62
7
  6
BYLAYER
 70
0
 71
3
 72
16
 73
12
 74
0
 42
0.0000001
 43
0.0000001
 44
0.0000000001
 40
0.0
 40
0.0
 40
0.0
 40
0.0
 40
0.3779244383
 40
0.5485789813
 40
0.6982647815
 40
0.8213815898
 40
0.9135886242
 40
0.9471931221
 40
0.9723210779
 40
0.9893004485
 40
1.0
 40
1.0
 40
1.0
 40
1.0
 10
26.4774473465
 20
101.3602376108
 30
0.0
 10
26.4774473465
 20
100.7848839872
 30
0.0
 10
26.491201379
 20
99.9495601346
 30
0.0
 10
26.5421999526
 20
98.8876869942
 30
0.0
 10
26.5920689625
 20
98.2142660876
 30
0.0
 10
26.6530363573
 20
97.6618723572
 30
0.0
 10
26.7149809355
 20
97.2874641666
 30
0.0
 10
26.772532835
 20
97.0647947942
 30
0.0
 10
26.8134995731
 20
96.9566240356
 30
0.0
 10
26.8519852661
 20
96.8859469646
 30
0.0
 10
26.89141232
 20
96.8603693804
 30
0.0
 10
26.9077013558
 20
96.8603786821
 30
0.0
  0
SPLINE
  5
2EB
100
AcDbEntity
  8
0
100
AcDbSpline
 62
7
  6
BYLAYER
 70
0
 71
3
 72
16
 73
12
 74
0
 42
0.0000001
 43
0.0000001
 44
0.0000000001
 40
0.0
 40
0.0
 40
0.0
 40
0.0
 40
0.0107017954
 40
0.027677447
 40
0.0527964337
 40
0.0863963851
 40
0.1786311524
 40
0.3017496515
 40
0.4513971707
 40
0.6220675993
 40
1.0
 40
1.0
 40
1.0
 40
1.0
 10
26.9077013046
 20
105.8600870159
 30
0.0
 10
26.8914089037
 20
105.8600835018
 30
0.0
 10
26.8520005464
 20
105.8344973558
 30
0.0
 10
26.8134944811
 20
105.7638535044
 30
0.0
 10
26.7725244705
 20
105.6557093262
 30
0.0
 10
26.7149600693
 20
105.4330224129
 30
0.0
 10
26.6530643808
 20
105.058566955
 30
0.0
 10
26.5920760466
 20
104.5061936076
 30
0.0
 10
26.5421669271
 20
103.8328082316
 30
0.0
 10
26.4912281434
 20
102.7709577125
 30
0.0
 10
26.4774473465
 20
101.9356014759
 30
0.0
 10
26.4774473465
 20
101.3602376108
 30
0.0
  0
ENDSEC
  0
SECTION
  2
OBJECTS
  0
DICTIONARY
  5
C
100
AcDbDictionary
280
0
281
1
  3
ACAD_GROUP
350
D
  3
ACAD_MLINESTYLE
350
17
  3
ACAD_LAYOUT
350
1A
  3
ACAD_PLOTSETTINGS
350
19
  3
ACAD_PLOTSTYLENAME
350
E
  0
DICTIONARY
  5
D
102
{ACAD_REACTORS
330
C
102
}
100
AcDbDictionary
280
0
281
1
  0
ACDBDICTIONARYWDFLT
  5
E
102
{ACAD_REACTORS
330
C
102
}
100
AcDbDictionary
281
1
  3
Normal
350
F
100
AcDbDictionaryWithDefault
340
F
  0
DICTIONARY
  5
17
102
{ACAD_REACTORS
330
C
102
}
100
AcDbDictionary
280
0
281
1
  3
Standard
350
18
  0
DICTIONARY
  5
19
102
{ACAD_REACTORS
330
C
102
}
100
AcDbDictionary
281
1
  0
DICTIONARY
  5
1A
102
{ACAD_REACTORS
330
C
102
}
100
AcDbDictionary
281
1
  3
Model
350
2EC
  3
Layout1
350
2ED
  0
ACDBPLACEHOLDER
  5
F
102
{ACAD_REACTORS
330
E
102
}
  0
MLINESTYLE
  5
18
102
{ACAD_REACTORS
330
17
102
}
100
AcDbMlineStyle
  2
STANDARD
 70
0
  3

 62
256
 51
90.0
 52
90.0
 71
2
 49
0.5
 62
256
  6
BYLAYER
 49
-0.5
 62
256
  6
BYLAYER
  0
LAYOUT
  5
2EC
102
{ACAD_REACTORS
330
1A
102
}
100
AcDbPlotSettings
  1

  2
none_device
  4

  6

 40
0.0
 41
0.0
 42
0.0
 43
0.0
 44
210.0
 45
297.0
 46
0.0
 47
0.0
 48
0.0
 49
0.0
140
0.0
141
0.0
142
1.0
143
1.0
 70
1024
 72
1
 73
0
 74
0
  7

 75
0
147
1.0
148
0.0
149
0.0
100
AcDbLayout
  1
Model
 70
0
 71
0
 10
0.0
 20
0.0
 11
210.0
 21
297.0
 12
0.0
 22
0.0
 32
0.0
 14
0.0
 24
0.0
 34
0.0
 15
0.0
 25
0.0
 35
0.0
146
0.0
 13
0.0
 23
0.0
 33
0.0
 16
1.0
 26
0.0
 36
0.0
 17
0.0
 27
1.0
 37
0.0
 76
0
330
210
345
0
346
0
  0
LAYOUT
  5
2ED
102
{ACAD_REACTORS
330
1A
102
}
100
AcDbPlotSettings
  1

  2
none_device
  4

  6

 40
0.0
 41
0.0
 42
0.0
 43
0.0
 44
210.0
 45
297.0
 46
0.0
 47
0.0
 48
0.0
 49
0.0
140
0.0
141
0.0
142
1.0
143
1.0
 70
0
 72
1
 73
0
 74
0
  7

 75
0
147
1.0
148
0.0
149
0.0
100
AcDbLayout
  1
Layout1
 70
0
 71
1
 10
0.0
 20
0.0
 11
210.0
 21
297.0
 12
0.0
 22
0.0
 32
0.0
 14
0.0
 24
0.0
 34
0.0
 15
0.0
 25
0.0
 35
0.0
146
0.0
 13
0.0
 23
0.0
 33
0.0
 16
1.0
 26
0.0
 36
0.0
 17
0.0
 27
1.0
 37
0.0
 76
0
330
211
345
0
346
0
  0
ENDSEC
  0
EOF
