999
DXF file: C:\Users\sesa63760\Dev\_Creo\CAD\MCADID0001238_3D-CAD\drw0001_4.dxf
999
Pro/ENGINEER 2019471 by Parametric Technology Corporation
  0
SECTION
  2
HEADER
  9
$ACADVER
  1
AC1024
  9
$DWGCODEPAGE
  3
ANSI_1252
  9
$EXTMAX
 10
145.9131835597
 20
206.3629310345
 30
0.0
  9
$EXTMIN
 10
0.0
 20
0.0
 30
0.0
  9
$LIMMIN
 10
0.0
 20
0.0
  9
$LIMMAX
 10
145.9131835597
 20
206.3629310345
  9
$VIEWCTR
 10
72.9565917799
 20
103.1814655172
  9
$VIEWSIZE
 40
206.3629310345
  9
$CLAYER
  8
0
  9
$LTSCALE
 40
13.4518058748
  9
$CELTYPE
  6
BYLAYER
  9
$DIMSCALE
 40
1.0
  9
$DIMASZ
 40
1.737061709
  9
$DIMEXO
 40
1.0
  9
$DIMDLI
 40
9.2939749681
  9
$DIMEXE
 40
1.0
  9
$DIMCEN
 40
2.2012045977
  9
$DIMLFAC
 40
1.0
  9
$DIMBLK
  1
_FILLED
  9
$DIMALT
 70
0
  9
$DIMALTF
 40
0.0393700787
  9
$DIMTXT
 40
2.4318863927
  9
$DIMTOL
 70
1
  9
$DIMLIM
 70
0
  9
$DIMTFAC
 40
1.0
  9
$DIMTP
 40
0.01
  9
$DIMTM
 40
0.01
  9
$DIMGAP
 40
0.625
  9
$DIMDSEP
 70
46
  9
$AUNITS
 70
0
  9
$PDMODE
 70
3
  9
$PDSIZE
 40
0.3125
  9
$HANDSEED
  5
335
  9
$TILEMODE
 70
1
  9
$MEASUREMENT
 70
1
  9
$INSUNITS
 70
4
  0
ENDSEC
  0
SECTION
  2
CLASSES
  0
CLASS
  1
ACDBDICTIONARYWDFLT
  2
AcDbDictionaryWithDefault
  3
AutoCAD 2000
 90
0
 91
1
280
0
281
0
  0
CLASS
  1
ACDBPLACEHOLDER
  2
AcDbPlaceHolder
  3
AutoCAD 2000
 90
0
 91
1
280
0
281
0
  0
CLASS
  1
LAYOUT
  2
AcDbLayout
  3
AutoCAD 2000
 90
0
 91
0
280
0
281
0
  0
ENDSEC
  0
SECTION
  2
TABLES
  0
TABLE
  2
VPORT
  5
8
100
AcDbSymbolTable
 70
2
  0
VPORT
  5
1F4
100
AcDbSymbolTableRecord
100
AcDbViewportTableRecord
  2
*ACTIVE
 70
0
 10
0.0
 20
0.0
 11
1.0
 21
1.0
 12
72.9565917799
 22
103.1814655172
 13
0.0
 23
0.0
 14
1.0
 24
1.0
 15
0.0
 25
0.0
 16
0.0
 26
0.0
 36
1.0
 17
0.0
 27
0.0
 37
0.0
 40
206.3629310345
 41
0.7070707071
 42
50.0
 43
0.0
 44
0.0
 50
0.0
 51
0.0
 71
0
 72
100
 73
1
 74
1
 75
0
 76
0
 77
0
 78
0
  0
ENDTAB
  0
TABLE
  2
LTYPE
  5
5
100
AcDbSymbolTable
 70
6
  0
LTYPE
  5
14
100
AcDbSymbolTableRecord
100
AcDbLinetypeTableRecord
  2
BYBLOCK
 70
0
  3

 72
65
 73
0
 40
0.0
  0
LTYPE
  5
15
100
AcDbSymbolTableRecord
100
AcDbLinetypeTableRecord
  2
BYLAYER
 70
0
  3

 72
65
 73
0
 40
0.0
  0
LTYPE
  5
16
100
AcDbSymbolTableRecord
100
AcDbLinetypeTableRecord
  2
CONTINUOUS
 70
64
  3
Solid line
 72
65
 73
0
 40
0.0
  0
LTYPE
  5
1F5
100
AcDbSymbolTableRecord
100
AcDbLinetypeTableRecord
  2
CENTER
 70
64
  3
____ _ ____ _ ____ _ ____ _ ____ _ ____ _ ____
 72
65
 73
4
 40
0.6
 49
0.375
 74
0
 49
-0.075
 74
0
 49
0.075
 74
0
 49
-0.075
 74
0
  0
LTYPE
  5
1F6
100
AcDbSymbolTableRecord
100
AcDbLinetypeTableRecord
  2
HIDDEN
 70
64
  3
- - - - - - - - - - - - - - - - - - - -
 72
65
 73
2
 40
0.2
 49
0.1
 74
0
 49
-0.1
 74
0
  0
LTYPE
  5
1F7
100
AcDbSymbolTableRecord
100
AcDbLinetypeTableRecord
  2
PHANTOM
 70
64
  3
_____ _ _ _____ _ _ _____ _ _ _____
 72
65
 73
6
 40
0.8
 49
0.45
 74
0
 49
-0.05
 74
0
 49
0.1
 74
0
 49
-0.05
 74
0
 49
0.1
 74
0
 49
-0.05
 74
0
  0
LTYPE
  5
1F8
100
AcDbSymbolTableRecord
100
AcDbLinetypeTableRecord
  2
DOT
 70
64
  3
. . . . . . . . . . . . . . . . . . . .
 72
65
 73
2
 40
0.2
 49
0.1
 74
0
 49
-0.1
 74
0
  0
LTYPE
  5
1F9
100
AcDbSymbolTableRecord
100
AcDbLinetypeTableRecord
  2
DASHED
 70
64
  3
- - - - - - - - - - - - - - - - - - - -
 72
65
 73
2
 40
0.2
 49
0.1
 74
0
 49
-0.1
 74
0
  0
ENDTAB
  0
TABLE
  2
LAYER
  5
2
100
AcDbSymbolTable
 70
36
  0
LAYER
  5
10
100
AcDbSymbolTableRecord
100
AcDbLayerTableRecord
  2
0
 70
0
 62
7
  6
CONTINUOUS
370
-3
390
F
  0
LAYER
  5
1FA
100
AcDbSymbolTableRecord
100
AcDbLayerTableRecord
  2
DEFAULT_1
 70
0
 62
7
  6
CENTER
370
-3
390
F
  0
LAYER
  5
1FB
100
AcDbSymbolTableRecord
100
AcDbLayerTableRecord
  2
DEFAULT_2
 70
0
 62
8
  6
HIDDEN
370
-3
390
F
  0
LAYER
  5
1FC
100
AcDbSymbolTableRecord
100
AcDbLayerTableRecord
  2
DEFAULT_3
 70
0
 62
7
  6
PHANTOM
370
-3
390
F
  0
LAYER
  5
1FD
100
AcDbSymbolTableRecord
100
AcDbLayerTableRecord
  2
00_COMPONENTS
 70
0
 62
7
  6
CONTINUOUS
370
-3
390
F
  0
LAYER
  5
1FE
100
AcDbSymbolTableRecord
100
AcDbLayerTableRecord
  2
01_1_DEFAULT_DATUMS
 70
0
 62
7
  6
CONTINUOUS
370
-3
390
F
  0
LAYER
  5
1FF
100
AcDbSymbolTableRecord
100
AcDbLayerTableRecord
  2
01_PLANES
 70
0
 62
7
  6
CONTINUOUS
370
-3
390
F
  0
LAYER
  5
200
100
AcDbSymbolTableRecord
100
AcDbLayerTableRecord
  2
02_COORD_SYS
 70
0
 62
7
  6
CONTINUOUS
370
-3
390
F
  0
LAYER
  5
201
100
AcDbSymbolTableRecord
100
AcDbLayerTableRecord
  2
03_AXES
 70
0
 62
7
  6
CONTINUOUS
370
-3
390
F
  0
LAYER
  5
202
100
AcDbSymbolTableRecord
100
AcDbLayerTableRecord
  2
04_POINTS
 70
0
 62
7
  6
CONTINUOUS
370
-3
390
F
  0
LAYER
  5
203
100
AcDbSymbolTableRecord
100
AcDbLayerTableRecord
  2
05_CURVES
 70
0
 62
7
  6
CONTINUOUS
370
-3
390
F
  0
LAYER
  5
204
100
AcDbSymbolTableRecord
100
AcDbLayerTableRecord
  2
06_SURFS
 70
0
 62
7
  6
CONTINUOUS
370
-3
390
F
  0
LAYER
  5
205
100
AcDbSymbolTableRecord
100
AcDbLayerTableRecord
  2
07_COSMETICS
 70
0
 62
7
  6
CONTINUOUS
370
-3
390
F
  0
LAYER
  5
206
100
AcDbSymbolTableRecord
100
AcDbLayerTableRecord
  2
10_NOTES
 70
0
 62
7
  6
CONTINUOUS
370
-3
390
F
  0
LAYER
  5
207
100
AcDbSymbolTableRecord
100
AcDbLayerTableRecord
  2
11_NOTES_PUB
 70
0
 62
7
  6
CONTINUOUS
370
-3
390
F
  0
LAYER
  5
208
100
AcDbSymbolTableRecord
100
AcDbLayerTableRecord
  2
13_REF_GTOL
 70
0
 62
7
  6
CONTINUOUS
370
-3
390
F
  0
LAYER
  5
209
100
AcDbSymbolTableRecord
100
AcDbLayerTableRecord
  2
16_MISC
 70
0
 62
7
  6
CONTINUOUS
370
-3
390
F
  0
LAYER
  5
20A
100
AcDbSymbolTableRecord
100
AcDbLayerTableRecord
  2
17_NO_PRINT
 70
0
 62
7
  6
CONTINUOUS
370
-3
390
F
  0
LAYER
  5
20B
100
AcDbSymbolTableRecord
100
AcDbLayerTableRecord
  2
18_DATUM_CAMS_JOINTS
 70
0
 62
7
  6
CONTINUOUS
370
-3
390
F
  0
LAYER
  5
20C
100
AcDbSymbolTableRecord
100
AcDbLayerTableRecord
  2
19_DATUM_FUNCTIONAL
 70
0
 62
7
  6
CONTINUOUS
370
-3
390
F
  0
LAYER
  5
20D
100
AcDbSymbolTableRecord
100
AcDbLayerTableRecord
  2
20_DATUM_KINEMATIC_SCHEME
 70
0
 62
7
  6
CONTINUOUS
370
-3
390
F
  0
ENDTAB
  0
TABLE
  2
STYLE
  5
3
100
AcDbSymbolTable
 70
1
  0
STYLE
  5
11
100
AcDbSymbolTableRecord
100
AcDbTextStyleTableRecord
  2
STANDARD
 70
0
 40
0.0
 41
0.8
 50
0.0
 71
0
 42
0.2
  3
txt
  4

  0
STYLE
  5
20E
100
AcDbSymbolTableRecord
100
AcDbTextStyleTableRecord
  2
TEXTSTYLE_1
 70
0
 40
0.0
 41
0.8
 50
0.0
 71
0
 42
0.2
  3
gdt
  4

  0
ENDTAB
  0
TABLE
  2
VIEW
  5
6
100
AcDbSymbolTable
 70
0
  0
ENDTAB
  0
TABLE
  2
UCS
  5
7
100
AcDbSymbolTable
 70
0
  0
ENDTAB
  0
TABLE
  2
APPID
  5
9
100
AcDbSymbolTable
 70
1
  0
APPID
  5
20F
100
AcDbSymbolTableRecord
100
AcDbRegAppTableRecord
  2
ACAD
 70
0
  0
ENDTAB
  0
TABLE
  2
BLOCK_RECORD
  5
1
100
AcDbSymbolTable
 70
0
  0
BLOCK_RECORD
  5
210
100
AcDbSymbolTableRecord
100
AcDbBlockTableRecord
  2
*Model_Space
  0
BLOCK_RECORD
  5
211
100
AcDbSymbolTableRecord
100
AcDbBlockTableRecord
  2
*Paper_Space
  0
BLOCK_RECORD
  5
212
100
AcDbSymbolTableRecord
100
AcDbBlockTableRecord
  2
_FILLED
  0
ENDTAB
  0
TABLE
  2
DIMSTYLE
  5
A
100
AcDbSymbolTable
 70
1
100
AcDbDimStyleTable
 71
0
  0
DIMSTYLE
105
213
100
AcDbSymbolTableRecord
100
AcDbDimStyleTableRecord
  2
STANDARD
 70
0
  3

  4

 40
1.0
 41
1.737061709
 42
1.0
 43
0.38
 44
1.0
 45
0.0
 46
0.0
 47
0.01
 48
0.01
140
2.4318863927
141
0.09
142
0.0
143
25.4
144
1.0
145
0.0
146
1.0
147
0.625
 71
1
 72
0
 73
0
 74
0
 75
0
 76
0
 77
1
 78
8
 79
2
170
0
171
1
172
0
173
0
174
0
175
0
176
0
177
0
178
0
270
2
179
2
271
2
272
2
273
2
274
2
275
0
280
0
281
0
282
0
283
1
284
8
285
0
286
0
287
3
288
0
340
11
278
46
341
212
342
212
343
212
344
212
  0
ENDTAB
  0
ENDSEC
  0
SECTION
  2
BLOCKS
  0
BLOCK
  5
20
100
AcDbEntity
  8
0
100
AcDbBlockBegin
  2
*Model_Space
 70
0
 10
0.0
 20
0.0
 30
0.0
  3
*Model_Space
  1

  0
ENDBLK
  5
21
100
AcDbEntity
  8
0
100
AcDbBlockEnd
  0
BLOCK
  5
1C
100
AcDbEntity
  8
0
100
AcDbBlockBegin
  2
*Paper_Space
 70
0
 10
0.0
 20
0.0
 30
0.0
  3
*Paper_Space
  1

  0
ENDBLK
  5
1D
100
AcDbEntity
  8
0
100
AcDbBlockEnd
  0
BLOCK
  5
214
100
AcDbEntity
  8
0
100
AcDbBlockBegin
  2
_FILLED
 70
64
 10
0.0
 20
0.0
  3
_FILLED
  1

  0
SOLID
  5
215
100
AcDbEntity
  8
0
  6
BYBLOCK
 62
0
100
AcDbTrace
 10
0.0
 20
0.0
 11
-1.0
 21
0.25
 12
-1.0
 22
-0.25
 13
-1.0
 23
-0.25
  0
ENDBLK
  5
216
100
AcDbEntity
  8
0
  6
BYBLOCK
 62
0
100
AcDbBlockEnd
  0
ENDSEC
  0
SECTION
  2
ENTITIES
  0
LINE
  5
217
100
AcDbEntity
  8
0
100
AcDbLine
 62
7
  6
CONTINUOUS
 10
16.2509883316
 20
91.6702084902
 11
16.2509883316
 21
113.4297915098
  0
LINE
  5
218
100
AcDbEntity
  8
0
100
AcDbLine
 62
7
  6
CONTINUOUS
 10
17.2509883316
 20
108.797668918
 11
17.2509883316
 21
101.8005167952
  0
LINE
  5
219
100
AcDbEntity
  8
0
100
AcDbLine
 62
7
  6
CONTINUOUS
 10
22.7509883316
 20
113.7127246754
 11
22.7509883316
 21
91.3872753246
  0
LINE
  5
21A
100
AcDbEntity
  8
0
100
AcDbLine
 62
7
  6
CONTINUOUS
 10
27.7509883316
 20
113.8
 11
27.7509883316
 21
91.3
  0
LINE
  5
21B
100
AcDbEntity
  8
0
100
AcDbLine
 62
7
  6
CONTINUOUS
 10
27.8509883316
 20
91.2413505532
 11
27.8509883316
 21
91.3
  0
LINE
  5
21C
100
AcDbEntity
  8
0
100
AcDbLine
 62
7
  6
CONTINUOUS
 10
27.8509883316
 20
113.8
 11
27.8509883316
 21
113.8586494468
  0
LINE
  5
21D
100
AcDbEntity
  8
0
100
AcDbLine
 62
7
  6
CONTINUOUS
 10
32.0209883316
 20
112.94
 11
32.0236101868
 21
92.16
  0
LINE
  5
21E
100
AcDbEntity
  8
0
100
AcDbLine
 62
7
  6
CONTINUOUS
 10
34.0070732576
 20
112.94
 11
34.0096951128
 21
92.16
  0
LINE
  5
21F
100
AcDbEntity
  8
0
100
AcDbLine
 62
7
  6
CONTINUOUS
 10
34.9489023204
 20
92.16
 11
34.9489023204
 21
112.16
  0
LINE
  5
220
100
AcDbEntity
  8
0
100
AcDbLine
 62
7
  6
CONTINUOUS
 10
27.8509883316
 20
113.8586494468
 11
27.7810926427
 21
113.8
  0
LINE
  5
221
100
AcDbEntity
  8
0
100
AcDbLine
 62
7
  6
CONTINUOUS
 10
27.7810926427
 20
91.3
 11
27.8509883316
 21
91.2413505532
  0
LINE
  5
222
100
AcDbEntity
  8
0
100
AcDbLine
 62
7
  6
CONTINUOUS
 10
43.2887222536
 20
92.16
 11
43.2887222536
 21
112.16
  0
LINE
  5
223
100
AcDbEntity
  8
0
100
AcDbLine
 62
7
  6
CONTINUOUS
 10
43.7080575376
 20
107.9
 11
43.7080575376
 21
106.42
  0
LINE
  5
224
100
AcDbEntity
  8
0
100
AcDbLine
 62
7
  6
CONTINUOUS
 10
43.7080575376
 20
102.9
 11
43.7080575376
 21
101.42
  0
LINE
  5
225
100
AcDbEntity
  8
0
100
AcDbLine
 62
7
  6
CONTINUOUS
 10
43.7080575376
 20
97.9
 11
43.7080575376
 21
96.42
  0
LINE
  5
226
100
AcDbEntity
  8
0
100
AcDbLine
 62
7
  6
CONTINUOUS
 10
44.7307325684
 20
96.42
 11
44.7307325684
 21
97.9
  0
LINE
  5
227
100
AcDbEntity
  8
0
100
AcDbLine
 62
7
  6
CONTINUOUS
 10
44.7307325684
 20
101.42
 11
44.7307325684
 21
102.9
  0
LINE
  5
228
100
AcDbEntity
  8
0
100
AcDbLine
 62
7
  6
CONTINUOUS
 10
44.7307325684
 20
106.42
 11
44.7307325684
 21
107.9
  0
LINE
  5
229
100
AcDbEntity
  8
0
100
AcDbLine
 62
7
  6
CONTINUOUS
 10
44.9492899782
 20
96.42
 11
44.9492899782
 21
97.9
  0
LINE
  5
22A
100
AcDbEntity
  8
0
100
AcDbLine
 62
7
  6
CONTINUOUS
 10
44.9492899782
 20
101.42
 11
44.9492899782
 21
102.9
  0
LINE
  5
22B
100
AcDbEntity
  8
0
100
AcDbLine
 62
7
  6
CONTINUOUS
 10
44.9492899782
 20
106.42
 11
44.9492899782
 21
107.9
  0
LINE
  5
22C
100
AcDbEntity
  8
0
100
AcDbLine
 62
7
  6
CONTINUOUS
 10
45.3345753774
 20
110.81
 11
45.3345753774
 21
108.51
  0
LINE
  5
22D
100
AcDbEntity
  8
0
100
AcDbLine
 62
7
  6
CONTINUOUS
 10
45.3345753774
 20
105.81
 11
45.3345753774
 21
103.51
  0
LINE
  5
22E
100
AcDbEntity
  8
0
100
AcDbLine
 62
7
  6
CONTINUOUS
 10
45.3345753774
 20
100.81
 11
45.3345753774
 21
98.51
  0
LINE
  5
22F
100
AcDbEntity
  8
0
100
AcDbLine
 62
7
  6
CONTINUOUS
 10
45.3345753774
 20
95.81
 11
45.3345753774
 21
93.51
  0
LINE
  5
230
100
AcDbEntity
  8
0
100
AcDbLine
 62
7
  6
CONTINUOUS
 10
45.5531327871
 20
93.51
 11
45.5531327871
 21
95.81
  0
LINE
  5
231
100
AcDbEntity
  8
0
100
AcDbLine
 62
7
  6
CONTINUOUS
 10
45.5531327871
 20
98.51
 11
45.5531327871
 21
100.81
  0
LINE
  5
232
100
AcDbEntity
  8
0
100
AcDbLine
 62
7
  6
CONTINUOUS
 10
45.5531327871
 20
103.51
 11
45.5531327871
 21
105.81
  0
LINE
  5
233
100
AcDbEntity
  8
0
100
AcDbLine
 62
7
  6
CONTINUOUS
 10
45.5531327871
 20
108.51
 11
45.5531327871
 21
110.81
  0
LINE
  5
234
100
AcDbEntity
  8
0
100
AcDbLine
 62
7
  6
CONTINUOUS
 10
49.5787515132
 20
107.61
 11
49.5787515132
 21
106.71
  0
LINE
  5
235
100
AcDbEntity
  8
0
100
AcDbLine
 62
7
  6
CONTINUOUS
 10
49.5787515132
 20
102.61
 11
49.5787515132
 21
101.71
  0
LINE
  5
236
100
AcDbEntity
  8
0
100
AcDbLine
 62
7
  6
CONTINUOUS
 10
49.5787515132
 20
97.61
 11
49.5787515132
 21
96.71
  0
LINE
  5
237
100
AcDbEntity
  8
0
100
AcDbLine
 62
7
  6
CONTINUOUS
 10
49.5787515132
 20
92.61
 11
49.5787515132
 21
92.16
  0
LINE
  5
238
100
AcDbEntity
  8
0
100
AcDbLine
 62
7
  6
CONTINUOUS
 10
49.5787515132
 20
111.71
 11
49.5787515132
 21
112.16
  0
LINE
  5
239
100
AcDbEntity
  8
0
100
AcDbLine
 62
7
  6
CONTINUOUS
 10
49.5997182774
 20
111.56
 11
49.5997182774
 21
107.76
  0
LINE
  5
23A
100
AcDbEntity
  8
0
100
AcDbLine
 62
7
  6
CONTINUOUS
 10
49.5997182774
 20
106.56
 11
49.5997182774
 21
102.76
  0
LINE
  5
23B
100
AcDbEntity
  8
0
100
AcDbLine
 62
7
  6
CONTINUOUS
 10
49.5997182774
 20
101.56
 11
49.5997182774
 21
97.76
  0
LINE
  5
23C
100
AcDbEntity
  8
0
100
AcDbLine
 62
7
  6
CONTINUOUS
 10
49.5997182774
 20
96.56
 11
49.5997182774
 21
92.76
  0
LINE
  5
23D
100
AcDbEntity
  8
0
100
AcDbLine
 62
7
  6
CONTINUOUS
 10
50.4229420175
 20
107.61
 11
50.4229420175
 21
106.71
  0
LINE
  5
23E
100
AcDbEntity
  8
0
100
AcDbLine
 62
7
  6
CONTINUOUS
 10
50.4229420175
 20
102.61
 11
50.4229420175
 21
101.71
  0
LINE
  5
23F
100
AcDbEntity
  8
0
100
AcDbLine
 62
7
  6
CONTINUOUS
 10
50.4229420175
 20
97.61
 11
50.4229420175
 21
96.71
  0
LINE
  5
240
100
AcDbEntity
  8
0
100
AcDbLine
 62
7
  6
CONTINUOUS
 10
50.4229420175
 20
92.16
 11
50.4229420175
 21
92.61
  0
LINE
  5
241
100
AcDbEntity
  8
0
100
AcDbLine
 62
7
  6
CONTINUOUS
 10
50.4229420175
 20
111.71
 11
50.4229420175
 21
112.16
  0
LINE
  5
242
100
AcDbEntity
  8
0
100
AcDbLine
 62
7
  6
CONTINUOUS
 10
50.6617643957
 20
111.56
 11
50.6617643957
 21
107.76
  0
LINE
  5
243
100
AcDbEntity
  8
0
100
AcDbLine
 62
7
  6
CONTINUOUS
 10
50.6617643957
 20
106.56
 11
50.6617643957
 21
102.76
  0
LINE
  5
244
100
AcDbEntity
  8
0
100
AcDbLine
 62
7
  6
CONTINUOUS
 10
50.6617643957
 20
101.56
 11
50.6617643957
 21
97.76
  0
LINE
  5
245
100
AcDbEntity
  8
0
100
AcDbLine
 62
7
  6
CONTINUOUS
 10
50.6617643957
 20
96.56
 11
50.6617643957
 21
92.76
  0
LINE
  5
246
100
AcDbEntity
  8
0
100
AcDbLine
 62
7
  6
CONTINUOUS
 10
51.3031412353
 20
92.76
 11
51.3031412353
 21
96.56
  0
LINE
  5
247
100
AcDbEntity
  8
0
100
AcDbLine
 62
7
  6
CONTINUOUS
 10
51.3031412353
 20
97.76
 11
51.3031412353
 21
101.56
  0
LINE
  5
248
100
AcDbEntity
  8
0
100
AcDbLine
 62
7
  6
CONTINUOUS
 10
51.3031412353
 20
102.76
 11
51.3031412353
 21
106.56
  0
LINE
  5
249
100
AcDbEntity
  8
0
100
AcDbLine
 62
7
  6
CONTINUOUS
 10
51.3031412353
 20
107.76
 11
51.3031412353
 21
111.56
  0
LINE
  5
24A
100
AcDbEntity
  8
0
100
AcDbLine
 62
7
  6
CONTINUOUS
 10
51.5548367797
 20
92.76
 11
51.5548367797
 21
96.56
  0
LINE
  5
24B
100
AcDbEntity
  8
0
100
AcDbLine
 62
7
  6
CONTINUOUS
 10
51.5548367797
 20
97.76
 11
51.5548367797
 21
101.56
  0
LINE
  5
24C
100
AcDbEntity
  8
0
100
AcDbLine
 62
7
  6
CONTINUOUS
 10
51.5548367797
 20
102.76
 11
51.5548367797
 21
106.56
  0
LINE
  5
24D
100
AcDbEntity
  8
0
100
AcDbLine
 62
7
  6
CONTINUOUS
 10
51.5548367797
 20
107.76
 11
51.5548367797
 21
111.56
  0
LINE
  5
24E
100
AcDbEntity
  8
0
100
AcDbLine
 62
7
  6
CONTINUOUS
 10
52.0434162864
 20
111.56
 11
52.0434162864
 21
107.76
  0
LINE
  5
24F
100
AcDbEntity
  8
0
100
AcDbLine
 62
7
  6
CONTINUOUS
 10
52.0434162864
 20
106.56
 11
52.0434162864
 21
102.76
  0
LINE
  5
250
100
AcDbEntity
  8
0
100
AcDbLine
 62
7
  6
CONTINUOUS
 10
52.0434162864
 20
101.56
 11
52.0434162864
 21
97.76
  0
LINE
  5
251
100
AcDbEntity
  8
0
100
AcDbLine
 62
7
  6
CONTINUOUS
 10
52.0434162864
 20
96.56
 11
52.0434162864
 21
92.76
  0
LINE
  5
252
100
AcDbEntity
  8
0
100
AcDbLine
 62
7
  6
CONTINUOUS
 10
52.2495665145
 20
107.61
 11
52.2495665145
 21
106.71
  0
LINE
  5
253
100
AcDbEntity
  8
0
100
AcDbLine
 62
7
  6
CONTINUOUS
 10
52.2495665145
 20
102.61
 11
52.2495665145
 21
101.71
  0
LINE
  5
254
100
AcDbEntity
  8
0
100
AcDbLine
 62
7
  6
CONTINUOUS
 10
52.2495665145
 20
97.61
 11
52.2495665145
 21
96.71
  0
LINE
  5
255
100
AcDbEntity
  8
0
100
AcDbLine
 62
7
  6
CONTINUOUS
 10
52.2495665145
 20
92.61
 11
52.2495665145
 21
92.16
  0
LINE
  5
256
100
AcDbEntity
  8
0
100
AcDbLine
 62
7
  6
CONTINUOUS
 10
52.2495665145
 20
111.71
 11
52.2495665145
 21
112.16
  0
LINE
  5
257
100
AcDbEntity
  8
0
100
AcDbLine
 62
7
  6
CONTINUOUS
 10
52.5022059378
 20
92.76
 11
52.5022059378
 21
96.56
  0
LINE
  5
258
100
AcDbEntity
  8
0
100
AcDbLine
 62
7
  6
CONTINUOUS
 10
52.5022059378
 20
97.76
 11
52.5022059378
 21
101.56
  0
LINE
  5
259
100
AcDbEntity
  8
0
100
AcDbLine
 62
7
  6
CONTINUOUS
 10
52.5022059378
 20
102.76
 11
52.5022059378
 21
106.56
  0
LINE
  5
25A
100
AcDbEntity
  8
0
100
AcDbLine
 62
7
  6
CONTINUOUS
 10
52.5022059378
 20
107.76
 11
52.5022059378
 21
111.56
  0
LINE
  5
25B
100
AcDbEntity
  8
0
100
AcDbLine
 62
7
  6
CONTINUOUS
 10
55.8687807728
 20
112.16
 11
55.8687807728
 21
92.16
  0
LINE
  5
25C
100
AcDbEntity
  8
0
100
AcDbLine
 62
7
  6
CONTINUOUS
 10
56.5489023204
 20
92.16
 11
56.5489023204
 21
112.16
  0
LINE
  5
25D
100
AcDbEntity
  8
0
100
AcDbLine
 62
7
  6
CONTINUOUS
 10
22.7509883316
 20
91.3872753246
 11
27.7509883316
 21
91.3
  0
LINE
  5
25E
100
AcDbEntity
  8
0
100
AcDbLine
 62
7
  6
CONTINUOUS
 10
16.2509883316
 20
91.6702084902
 11
22.7509883316
 21
91.5
  0
LINE
  5
25F
100
AcDbEntity
  8
0
100
AcDbLine
 62
7
  6
CONTINUOUS
 10
64.8887222536
 20
92.16
 11
64.8887222536
 21
112.16
  0
LINE
  5
260
100
AcDbEntity
  8
0
100
AcDbLine
 62
7
  6
CONTINUOUS
 10
65.3080575376
 20
107.9
 11
65.3080575376
 21
106.42
  0
LINE
  5
261
100
AcDbEntity
  8
0
100
AcDbLine
 62
7
  6
CONTINUOUS
 10
65.3080575376
 20
102.9
 11
65.3080575376
 21
101.42
  0
LINE
  5
262
100
AcDbEntity
  8
0
100
AcDbLine
 62
7
  6
CONTINUOUS
 10
65.3080575376
 20
97.9
 11
65.3080575376
 21
96.42
  0
LINE
  5
263
100
AcDbEntity
  8
0
100
AcDbLine
 62
7
  6
CONTINUOUS
 10
66.3307325684
 20
96.42
 11
66.3307325684
 21
97.9
  0
LINE
  5
264
100
AcDbEntity
  8
0
100
AcDbLine
 62
7
  6
CONTINUOUS
 10
66.3307325684
 20
101.42
 11
66.3307325684
 21
102.9
  0
LINE
  5
265
100
AcDbEntity
  8
0
100
AcDbLine
 62
7
  6
CONTINUOUS
 10
66.3307325684
 20
106.42
 11
66.3307325684
 21
107.9
  0
LINE
  5
266
100
AcDbEntity
  8
0
100
AcDbLine
 62
7
  6
CONTINUOUS
 10
66.5492899782
 20
96.42
 11
66.5492899782
 21
97.9
  0
LINE
  5
267
100
AcDbEntity
  8
0
100
AcDbLine
 62
7
  6
CONTINUOUS
 10
66.5492899782
 20
101.42
 11
66.5492899782
 21
102.9
  0
LINE
  5
268
100
AcDbEntity
  8
0
100
AcDbLine
 62
7
  6
CONTINUOUS
 10
66.5492899782
 20
106.42
 11
66.5492899782
 21
107.9
  0
LINE
  5
269
100
AcDbEntity
  8
0
100
AcDbLine
 62
7
  6
CONTINUOUS
 10
66.9345753774
 20
110.81
 11
66.9345753774
 21
108.51
  0
LINE
  5
26A
100
AcDbEntity
  8
0
100
AcDbLine
 62
7
  6
CONTINUOUS
 10
66.9345753774
 20
105.81
 11
66.9345753774
 21
103.51
  0
LINE
  5
26B
100
AcDbEntity
  8
0
100
AcDbLine
 62
7
  6
CONTINUOUS
 10
66.9345753774
 20
100.81
 11
66.9345753774
 21
98.51
  0
LINE
  5
26C
100
AcDbEntity
  8
0
100
AcDbLine
 62
7
  6
CONTINUOUS
 10
66.9345753774
 20
95.81
 11
66.9345753774
 21
93.51
  0
LINE
  5
26D
100
AcDbEntity
  8
0
100
AcDbLine
 62
7
  6
CONTINUOUS
 10
67.1531327871
 20
93.51
 11
67.1531327871
 21
95.81
  0
LINE
  5
26E
100
AcDbEntity
  8
0
100
AcDbLine
 62
7
  6
CONTINUOUS
 10
67.1531327871
 20
98.51
 11
67.1531327871
 21
100.81
  0
LINE
  5
26F
100
AcDbEntity
  8
0
100
AcDbLine
 62
7
  6
CONTINUOUS
 10
67.1531327871
 20
103.51
 11
67.1531327871
 21
105.81
  0
LINE
  5
270
100
AcDbEntity
  8
0
100
AcDbLine
 62
7
  6
CONTINUOUS
 10
67.1531327871
 20
108.51
 11
67.1531327871
 21
110.81
  0
LINE
  5
271
100
AcDbEntity
  8
0
100
AcDbLine
 62
7
  6
CONTINUOUS
 10
127.8509883316
 20
95.2482544935
 11
132.3509883316
 21
95.3268022857
  0
LINE
  5
272
100
AcDbEntity
  8
0
100
AcDbLine
 62
7
  6
CONTINUOUS
 10
27.7509883316
 20
91.3
 11
133.4509883316
 21
91.3
  0
LINE
  5
273
100
AcDbEntity
  8
0
100
AcDbLine
 62
7
  6
CONTINUOUS
 10
32.0236101868
 20
92.16
 11
77.4687807728
 21
92.16
  0
LINE
  5
274
100
AcDbEntity
  8
0
100
AcDbLine
 62
7
  6
CONTINUOUS
 10
49.5787515132
 20
92.61
 11
52.2495665145
 21
92.61
  0
LINE
  5
275
100
AcDbEntity
  8
0
100
AcDbLine
 62
7
  6
CONTINUOUS
 10
71.1787515132
 20
92.61
 11
73.8495665145
 21
92.61
  0
LINE
  5
276
100
AcDbEntity
  8
0
100
AcDbLine
 62
7
  6
CONTINUOUS
 10
74.1020810816
 20
92.76
 11
71.1997182774
 21
92.76
  0
LINE
  5
277
100
AcDbEntity
  8
0
100
AcDbLine
 62
7
  6
CONTINUOUS
 10
52.5020810816
 20
92.76
 11
49.5997182774
 21
92.76
  0
LINE
  5
278
100
AcDbEntity
  8
0
100
AcDbLine
 62
7
  6
CONTINUOUS
 10
131.4509883316
 20
93.3
 11
127.9509883316
 21
93.3
  0
LINE
  5
279
100
AcDbEntity
  8
0
100
AcDbLine
 62
7
  6
CONTINUOUS
 10
44.6725286907
 20
93.51
 11
45.5531327871
 21
93.51
  0
LINE
  5
27A
100
AcDbEntity
  8
0
100
AcDbLine
 62
7
  6
CONTINUOUS
 10
66.2725286907
 20
93.51
 11
67.1531327871
 21
93.51
  0
LINE
  5
27B
100
AcDbEntity
  8
0
100
AcDbLine
 62
7
  6
CONTINUOUS
 10
71.1787515132
 20
107.61
 11
71.1787515132
 21
106.71
  0
LINE
  5
27C
100
AcDbEntity
  8
0
100
AcDbLine
 62
7
  6
CONTINUOUS
 10
71.1787515132
 20
102.61
 11
71.1787515132
 21
101.71
  0
LINE
  5
27D
100
AcDbEntity
  8
0
100
AcDbLine
 62
7
  6
CONTINUOUS
 10
71.1787515132
 20
97.61
 11
71.1787515132
 21
96.71
  0
LINE
  5
27E
100
AcDbEntity
  8
0
100
AcDbLine
 62
7
  6
CONTINUOUS
 10
71.1787515132
 20
92.61
 11
71.1787515132
 21
92.16
  0
LINE
  5
27F
100
AcDbEntity
  8
0
100
AcDbLine
 62
7
  6
CONTINUOUS
 10
71.1787515132
 20
111.71
 11
71.1787515132
 21
112.16
  0
LINE
  5
280
100
AcDbEntity
  8
0
100
AcDbLine
 62
7
  6
CONTINUOUS
 10
71.1997182774
 20
111.56
 11
71.1997182774
 21
107.76
  0
LINE
  5
281
100
AcDbEntity
  8
0
100
AcDbLine
 62
7
  6
CONTINUOUS
 10
71.1997182774
 20
106.56
 11
71.1997182774
 21
102.76
  0
LINE
  5
282
100
AcDbEntity
  8
0
100
AcDbLine
 62
7
  6
CONTINUOUS
 10
71.1997182774
 20
101.56
 11
71.1997182774
 21
97.76
  0
LINE
  5
283
100
AcDbEntity
  8
0
100
AcDbLine
 62
7
  6
CONTINUOUS
 10
71.1997182774
 20
96.56
 11
71.1997182774
 21
92.76
  0
LINE
  5
284
100
AcDbEntity
  8
0
100
AcDbLine
 62
7
  6
CONTINUOUS
 10
22.7509883316
 20
95.5000000007
 11
16.2509883316
 21
95.4999971366
  0
LINE
  5
285
100
AcDbEntity
  8
0
100
AcDbLine
 62
7
  6
CONTINUOUS
 10
67.1531327871
 20
95.81
 11
66.2725286907
 21
95.81
  0
LINE
  5
286
100
AcDbEntity
  8
0
100
AcDbLine
 62
7
  6
CONTINUOUS
 10
45.5531327871
 20
95.81
 11
44.6725286907
 21
95.81
  0
LINE
  5
287
100
AcDbEntity
  8
0
100
AcDbLine
 62
7
  6
CONTINUOUS
 10
43.7080575376
 20
96.42
 11
44.9492899782
 21
96.42
  0
LINE
  5
288
100
AcDbEntity
  8
0
100
AcDbLine
 62
7
  6
CONTINUOUS
 10
65.3080575376
 20
96.42
 11
66.5492899782
 21
96.42
  0
LINE
  5
289
100
AcDbEntity
  8
0
100
AcDbLine
 62
7
  6
CONTINUOUS
 10
49.5997182774
 20
96.56
 11
52.5020810816
 21
96.56
  0
LINE
  5
28A
100
AcDbEntity
  8
0
100
AcDbLine
 62
7
  6
CONTINUOUS
 10
71.1997182774
 20
96.56
 11
74.1020810816
 21
96.56
  0
LINE
  5
28B
100
AcDbEntity
  8
0
100
AcDbLine
 62
7
  6
CONTINUOUS
 10
73.8495665145
 20
96.71
 11
71.1787515132
 21
96.71
  0
LINE
  5
28C
100
AcDbEntity
  8
0
100
AcDbLine
 62
7
  6
CONTINUOUS
 10
52.2495665145
 20
96.71
 11
49.5787515132
 21
96.71
  0
LINE
  5
28D
100
AcDbEntity
  8
0
100
AcDbLine
 62
7
  6
CONTINUOUS
 10
132.3509883316
 20
96.75
 11
133.4509883316
 21
96.75
  0
LINE
  5
28E
100
AcDbEntity
  8
0
100
AcDbLine
 62
7
  6
CONTINUOUS
 10
49.5787515132
 20
97.61
 11
52.2495665145
 21
97.61
  0
LINE
  5
28F
100
AcDbEntity
  8
0
100
AcDbLine
 62
7
  6
CONTINUOUS
 10
71.1787515132
 20
97.61
 11
73.8495665145
 21
97.61
  0
LINE
  5
290
100
AcDbEntity
  8
0
100
AcDbLine
 62
7
  6
CONTINUOUS
 10
74.1020810816
 20
97.76
 11
71.1997182774
 21
97.76
  0
LINE
  5
291
100
AcDbEntity
  8
0
100
AcDbLine
 62
7
  6
CONTINUOUS
 10
52.5020810816
 20
97.76
 11
49.5997182774
 21
97.76
  0
LINE
  5
292
100
AcDbEntity
  8
0
100
AcDbLine
 62
7
  6
CONTINUOUS
 10
66.5492899782
 20
97.9
 11
65.3080575376
 21
97.9
  0
LINE
  5
293
100
AcDbEntity
  8
0
100
AcDbLine
 62
7
  6
CONTINUOUS
 10
44.9492899782
 20
97.9
 11
43.7080575376
 21
97.9
  0
LINE
  5
294
100
AcDbEntity
  8
0
100
AcDbLine
 62
7
  6
CONTINUOUS
 10
44.6725286907
 20
98.51
 11
45.5531327871
 21
98.51
  0
LINE
  5
295
100
AcDbEntity
  8
0
100
AcDbLine
 62
7
  6
CONTINUOUS
 10
66.2725286907
 20
98.51
 11
67.1531327871
 21
98.51
  0
LINE
  5
296
100
AcDbEntity
  8
0
100
AcDbLine
 62
7
  6
CONTINUOUS
 10
72.0229420175
 20
107.61
 11
72.0229420175
 21
106.71
  0
LINE
  5
297
100
AcDbEntity
  8
0
100
AcDbLine
 62
7
  6
CONTINUOUS
 10
72.0229420175
 20
102.61
 11
72.0229420175
 21
101.71
  0
LINE
  5
298
100
AcDbEntity
  8
0
100
AcDbLine
 62
7
  6
CONTINUOUS
 10
72.0229420175
 20
97.61
 11
72.0229420175
 21
96.71
  0
LINE
  5
299
100
AcDbEntity
  8
0
100
AcDbLine
 62
7
  6
CONTINUOUS
 10
72.0229420175
 20
92.16
 11
72.0229420175
 21
92.61
  0
LINE
  5
29A
100
AcDbEntity
  8
0
100
AcDbLine
 62
7
  6
CONTINUOUS
 10
72.0229420175
 20
111.71
 11
72.0229420175
 21
112.16
  0
LINE
  5
29B
100
AcDbEntity
  8
0
100
AcDbLine
 62
7
  6
CONTINUOUS
 10
72.2617643957
 20
111.56
 11
72.2617643957
 21
107.76
  0
LINE
  5
29C
100
AcDbEntity
  8
0
100
AcDbLine
 62
7
  6
CONTINUOUS
 10
72.2617643957
 20
106.56
 11
72.2617643957
 21
102.76
  0
LINE
  5
29D
100
AcDbEntity
  8
0
100
AcDbLine
 62
7
  6
CONTINUOUS
 10
72.2617643957
 20
101.56
 11
72.2617643957
 21
97.76
  0
LINE
  5
29E
100
AcDbEntity
  8
0
100
AcDbLine
 62
7
  6
CONTINUOUS
 10
72.2617643957
 20
96.56
 11
72.2617643957
 21
92.76
  0
LINE
  5
29F
100
AcDbEntity
  8
0
100
AcDbLine
 62
7
  6
CONTINUOUS
 10
72.9031412353
 20
92.76
 11
72.9031412353
 21
96.56
  0
LINE
  5
2A0
100
AcDbEntity
  8
0
100
AcDbLine
 62
7
  6
CONTINUOUS
 10
72.9031412353
 20
97.76
 11
72.9031412353
 21
101.56
  0
LINE
  5
2A1
100
AcDbEntity
  8
0
100
AcDbLine
 62
7
  6
CONTINUOUS
 10
72.9031412353
 20
102.76
 11
72.9031412353
 21
106.56
  0
LINE
  5
2A2
100
AcDbEntity
  8
0
100
AcDbLine
 62
7
  6
CONTINUOUS
 10
72.9031412353
 20
107.76
 11
72.9031412353
 21
111.56
  0
LINE
  5
2A3
100
AcDbEntity
  8
0
100
AcDbLine
 62
7
  6
CONTINUOUS
 10
73.1548367797
 20
92.76
 11
73.1548367797
 21
96.56
  0
LINE
  5
2A4
100
AcDbEntity
  8
0
100
AcDbLine
 62
7
  6
CONTINUOUS
 10
73.1548367797
 20
97.76
 11
73.1548367797
 21
101.56
  0
LINE
  5
2A5
100
AcDbEntity
  8
0
100
AcDbLine
 62
7
  6
CONTINUOUS
 10
73.1548367797
 20
102.76
 11
73.1548367797
 21
106.56
  0
LINE
  5
2A6
100
AcDbEntity
  8
0
100
AcDbLine
 62
7
  6
CONTINUOUS
 10
73.1548367797
 20
107.76
 11
73.1548367797
 21
111.56
  0
LINE
  5
2A7
100
AcDbEntity
  8
0
100
AcDbLine
 62
7
  6
CONTINUOUS
 10
73.6434162864
 20
111.56
 11
73.6434162864
 21
107.76
  0
LINE
  5
2A8
100
AcDbEntity
  8
0
100
AcDbLine
 62
7
  6
CONTINUOUS
 10
73.6434162864
 20
106.56
 11
73.6434162864
 21
102.76
  0
LINE
  5
2A9
100
AcDbEntity
  8
0
100
AcDbLine
 62
7
  6
CONTINUOUS
 10
73.6434162864
 20
101.56
 11
73.6434162864
 21
97.76
  0
LINE
  5
2AA
100
AcDbEntity
  8
0
100
AcDbLine
 62
7
  6
CONTINUOUS
 10
73.6434162864
 20
96.56
 11
73.6434162864
 21
92.76
  0
LINE
  5
2AB
100
AcDbEntity
  8
0
100
AcDbLine
 62
7
  6
CONTINUOUS
 10
73.8495665145
 20
107.61
 11
73.8495665145
 21
106.71
  0
LINE
  5
2AC
100
AcDbEntity
  8
0
100
AcDbLine
 62
7
  6
CONTINUOUS
 10
73.8495665145
 20
102.61
 11
73.8495665145
 21
101.71
  0
LINE
  5
2AD
100
AcDbEntity
  8
0
100
AcDbLine
 62
7
  6
CONTINUOUS
 10
73.8495665145
 20
97.61
 11
73.8495665145
 21
96.71
  0
LINE
  5
2AE
100
AcDbEntity
  8
0
100
AcDbLine
 62
7
  6
CONTINUOUS
 10
73.8495665145
 20
92.61
 11
73.8495665145
 21
92.16
  0
LINE
  5
2AF
100
AcDbEntity
  8
0
100
AcDbLine
 62
7
  6
CONTINUOUS
 10
73.8495665145
 20
111.71
 11
73.8495665145
 21
112.16
  0
LINE
  5
2B0
100
AcDbEntity
  8
0
100
AcDbLine
 62
7
  6
CONTINUOUS
 10
74.1022059378
 20
92.76
 11
74.1022059378
 21
96.56
  0
LINE
  5
2B1
100
AcDbEntity
  8
0
100
AcDbLine
 62
7
  6
CONTINUOUS
 10
74.1022059378
 20
97.76
 11
74.1022059378
 21
101.56
  0
LINE
  5
2B2
100
AcDbEntity
  8
0
100
AcDbLine
 62
7
  6
CONTINUOUS
 10
74.1022059378
 20
102.76
 11
74.1022059378
 21
106.56
  0
LINE
  5
2B3
100
AcDbEntity
  8
0
100
AcDbLine
 62
7
  6
CONTINUOUS
 10
74.1022059378
 20
107.76
 11
74.1022059378
 21
111.56
  0
LINE
  5
2B4
100
AcDbEntity
  8
0
100
AcDbLine
 62
7
  6
CONTINUOUS
 10
75.0350018198
 20
112.16
 11
75.0349034056
 21
112.94
  0
LINE
  5
2B5
100
AcDbEntity
  8
0
100
AcDbLine
 62
7
  6
CONTINUOUS
 10
67.1531327871
 20
100.81
 11
66.2725286907
 21
100.81
  0
LINE
  5
2B6
100
AcDbEntity
  8
0
100
AcDbLine
 62
7
  6
CONTINUOUS
 10
45.5531327871
 20
100.81
 11
44.6725286907
 21
100.81
  0
LINE
  5
2B7
100
AcDbEntity
  8
0
100
AcDbLine
 62
7
  6
CONTINUOUS
 10
43.7080575376
 20
101.42
 11
44.9492899782
 21
101.42
  0
LINE
  5
2B8
100
AcDbEntity
  8
0
100
AcDbLine
 62
7
  6
CONTINUOUS
 10
65.3080575376
 20
101.42
 11
66.5492899782
 21
101.42
  0
LINE
  5
2B9
100
AcDbEntity
  8
0
100
AcDbLine
 62
7
  6
CONTINUOUS
 10
49.5997182774
 20
101.56
 11
52.5020810816
 21
101.56
  0
LINE
  5
2BA
100
AcDbEntity
  8
0
100
AcDbLine
 62
7
  6
CONTINUOUS
 10
71.1997182774
 20
101.56
 11
74.1020810816
 21
101.56
  0
LINE
  5
2BB
100
AcDbEntity
  8
0
100
AcDbLine
 62
7
  6
CONTINUOUS
 10
73.8495665145
 20
101.71
 11
71.1787515132
 21
101.71
  0
LINE
  5
2BC
100
AcDbEntity
  8
0
100
AcDbLine
 62
7
  6
CONTINUOUS
 10
52.2495665145
 20
101.71
 11
49.5787515132
 21
101.71
  0
LINE
  5
2BD
100
AcDbEntity
  8
0
100
AcDbLine
 62
7
  6
CONTINUOUS
 10
16.2509883316
 20
101.8
 11
17.2509883316
 21
101.8
  0
LINE
  5
2BE
100
AcDbEntity
  8
0
100
AcDbLine
 62
7
  6
CONTINUOUS
 10
49.5787515132
 20
102.61
 11
52.2495665145
 21
102.61
  0
LINE
  5
2BF
100
AcDbEntity
  8
0
100
AcDbLine
 62
7
  6
CONTINUOUS
 10
71.1787515132
 20
102.61
 11
73.8495665145
 21
102.61
  0
LINE
  5
2C0
100
AcDbEntity
  8
0
100
AcDbLine
 62
7
  6
CONTINUOUS
 10
74.1020810816
 20
102.76
 11
71.1997182774
 21
102.76
  0
LINE
  5
2C1
100
AcDbEntity
  8
0
100
AcDbLine
 62
7
  6
CONTINUOUS
 10
52.5020810816
 20
102.76
 11
49.5997182774
 21
102.76
  0
LINE
  5
2C2
100
AcDbEntity
  8
0
100
AcDbLine
 62
7
  6
CONTINUOUS
 10
17.2509883316
 20
102.8
 11
16.2509883316
 21
102.8
  0
LINE
  5
2C3
100
AcDbEntity
  8
0
100
AcDbLine
 62
7
  6
CONTINUOUS
 10
66.5492899782
 20
102.9
 11
65.3080575376
 21
102.9
  0
LINE
  5
2C4
100
AcDbEntity
  8
0
100
AcDbLine
 62
7
  6
CONTINUOUS
 10
44.9492899782
 20
102.9
 11
43.7080575376
 21
102.9
  0
LINE
  5
2C5
100
AcDbEntity
  8
0
100
AcDbLine
 62
7
  6
CONTINUOUS
 10
77.0209883316
 20
112.16
 11
77.0209883316
 21
112.94
  0
LINE
  5
2C6
100
AcDbEntity
  8
0
100
AcDbLine
 62
7
  6
CONTINUOUS
 10
77.4687807728
 20
112.16
 11
77.4687807728
 21
92.16
  0
LINE
  5
2C7
100
AcDbEntity
  8
0
100
AcDbLine
 62
7
  6
CONTINUOUS
 10
44.6725286907
 20
103.51
 11
45.5531327871
 21
103.51
  0
LINE
  5
2C8
100
AcDbEntity
  8
0
100
AcDbLine
 62
7
  6
CONTINUOUS
 10
66.2725286907
 20
103.51
 11
67.1531327871
 21
103.51
  0
LINE
  5
2C9
100
AcDbEntity
  8
0
100
AcDbLine
 62
7
  6
CONTINUOUS
 10
67.1531327871
 20
105.81
 11
66.2725286907
 21
105.81
  0
LINE
  5
2CA
100
AcDbEntity
  8
0
100
AcDbLine
 62
7
  6
CONTINUOUS
 10
45.5531327871
 20
105.81
 11
44.6725286907
 21
105.81
  0
LINE
  5
2CB
100
AcDbEntity
  8
0
100
AcDbLine
 62
7
  6
CONTINUOUS
 10
43.7080575376
 20
106.42
 11
44.9492899782
 21
106.42
  0
LINE
  5
2CC
100
AcDbEntity
  8
0
100
AcDbLine
 62
7
  6
CONTINUOUS
 10
65.3080575376
 20
106.42
 11
66.5492899782
 21
106.42
  0
LINE
  5
2CD
100
AcDbEntity
  8
0
100
AcDbLine
 62
7
  6
CONTINUOUS
 10
49.5997182774
 20
106.56
 11
52.5020810816
 21
106.56
  0
LINE
  5
2CE
100
AcDbEntity
  8
0
100
AcDbLine
 62
7
  6
CONTINUOUS
 10
71.1997182774
 20
106.56
 11
74.1020810816
 21
106.56
  0
LINE
  5
2CF
100
AcDbEntity
  8
0
100
AcDbLine
 62
7
  6
CONTINUOUS
 10
73.8495665145
 20
106.71
 11
71.1787515132
 21
106.71
  0
LINE
  5
2D0
100
AcDbEntity
  8
0
100
AcDbLine
 62
7
  6
CONTINUOUS
 10
52.2495665145
 20
106.71
 11
49.5787515132
 21
106.71
  0
LINE
  5
2D1
100
AcDbEntity
  8
0
100
AcDbLine
 62
7
  6
CONTINUOUS
 10
22.7509883316
 20
109.643634339
 11
16.2509883316
 21
109.6426944355
  0
LINE
  5
2D2
100
AcDbEntity
  8
0
100
AcDbLine
 62
7
  6
CONTINUOUS
 10
49.5787515132
 20
107.61
 11
52.2495665145
 21
107.61
  0
LINE
  5
2D3
100
AcDbEntity
  8
0
100
AcDbLine
 62
7
  6
CONTINUOUS
 10
71.1787515132
 20
107.61
 11
73.8495665145
 21
107.61
  0
LINE
  5
2D4
100
AcDbEntity
  8
0
100
AcDbLine
 62
7
  6
CONTINUOUS
 10
74.1020810816
 20
107.76
 11
71.1997182774
 21
107.76
  0
LINE
  5
2D5
100
AcDbEntity
  8
0
100
AcDbLine
 62
7
  6
CONTINUOUS
 10
52.5020810816
 20
107.76
 11
49.5997182774
 21
107.76
  0
LINE
  5
2D6
100
AcDbEntity
  8
0
100
AcDbLine
 62
7
  6
CONTINUOUS
 10
16.2509883316
 20
107.8
 11
17.2509883316
 21
107.8
  0
LINE
  5
2D7
100
AcDbEntity
  8
0
100
AcDbLine
 62
7
  6
CONTINUOUS
 10
66.5492899782
 20
107.9
 11
65.3080575376
 21
107.9
  0
LINE
  5
2D8
100
AcDbEntity
  8
0
100
AcDbLine
 62
7
  6
CONTINUOUS
 10
44.9492899782
 20
107.9
 11
43.7080575376
 21
107.9
  0
LINE
  5
2D9
100
AcDbEntity
  8
0
100
AcDbLine
 62
7
  6
CONTINUOUS
 10
133.4509883316
 20
108.3
 11
132.3509883316
 21
108.3
  0
LINE
  5
2DA
100
AcDbEntity
  8
0
100
AcDbLine
 62
7
  6
CONTINUOUS
 10
44.6725286907
 20
108.51
 11
45.5531327871
 21
108.51
  0
LINE
  5
2DB
100
AcDbEntity
  8
0
100
AcDbLine
 62
7
  6
CONTINUOUS
 10
66.2725286907
 20
108.51
 11
67.1531327871
 21
108.51
  0
LINE
  5
2DC
100
AcDbEntity
  8
0
100
AcDbLine
 62
7
  6
CONTINUOUS
 10
16.2509883316
 20
108.7981856833
 11
17.2509883316
 21
108.7981856833
  0
LINE
  5
2DD
100
AcDbEntity
  8
0
100
AcDbLine
 62
7
  6
CONTINUOUS
 10
67.1531327871
 20
110.81
 11
66.2725286907
 21
110.81
  0
LINE
  5
2DE
100
AcDbEntity
  8
0
100
AcDbLine
 62
7
  6
CONTINUOUS
 10
45.5531327871
 20
110.81
 11
44.6725286907
 21
110.81
  0
LINE
  5
2DF
100
AcDbEntity
  8
0
100
AcDbLine
 62
7
  6
CONTINUOUS
 10
132.3509883316
 20
109.7731977143
 11
127.8509883316
 21
109.8517455065
  0
LINE
  5
2E0
100
AcDbEntity
  8
0
100
AcDbLine
 62
7
  6
CONTINUOUS
 10
22.7509883316
 20
113.6
 11
16.2509883316
 21
113.4297915098
  0
LINE
  5
2E1
100
AcDbEntity
  8
0
100
AcDbLine
 62
7
  6
CONTINUOUS
 10
22.7509883316
 20
113.7127246754
 11
27.7509883316
 21
113.8
  0
LINE
  5
2E2
100
AcDbEntity
  8
0
100
AcDbLine
 62
7
  6
CONTINUOUS
 10
49.5997182774
 20
111.56
 11
52.5020810816
 21
111.56
  0
LINE
  5
2E3
100
AcDbEntity
  8
0
100
AcDbLine
 62
7
  6
CONTINUOUS
 10
71.1997182774
 20
111.56
 11
74.1020810816
 21
111.56
  0
LINE
  5
2E4
100
AcDbEntity
  8
0
100
AcDbLine
 62
7
  6
CONTINUOUS
 10
73.8495665145
 20
111.71
 11
71.1787515132
 21
111.71
  0
LINE
  5
2E5
100
AcDbEntity
  8
0
100
AcDbLine
 62
7
  6
CONTINUOUS
 10
52.2495665145
 20
111.71
 11
49.5787515132
 21
111.71
  0
LINE
  5
2E6
100
AcDbEntity
  8
0
100
AcDbLine
 62
7
  6
CONTINUOUS
 10
127.9509883316
 20
111.8
 11
131.4509883316
 21
111.8
  0
LINE
  5
2E7
100
AcDbEntity
  8
0
100
AcDbLine
 62
7
  6
CONTINUOUS
 10
34.9489023204
 20
112.16
 11
55.8687807728
 21
112.16
  0
LINE
  5
2E8
100
AcDbEntity
  8
0
100
AcDbLine
 62
7
  6
CONTINUOUS
 10
56.5489023204
 20
112.16
 11
77.4687807728
 21
112.16
  0
LINE
  5
2E9
100
AcDbEntity
  8
0
100
AcDbLine
 62
7
  6
CONTINUOUS
 10
32.0209883316
 20
112.94
 11
77.0209883316
 21
112.94
  0
LINE
  5
2EA
100
AcDbEntity
  8
0
100
AcDbLine
 62
7
  6
CONTINUOUS
 10
27.7509883316
 20
113.8
 11
133.4509883316
 21
113.8
  0
LINE
  5
2EB
100
AcDbEntity
  8
0
100
AcDbLine
 62
7
  6
CONTINUOUS
 10
127.9509883316
 20
111.8
 11
127.9160782017
 21
113.8
  0
LINE
  5
2EC
100
AcDbEntity
  8
0
100
AcDbLine
 62
7
  6
CONTINUOUS
 10
127.8509883316
 20
109.8517455065
 11
127.8509883316
 21
95.2482544935
  0
LINE
  5
2ED
100
AcDbEntity
  8
0
100
AcDbLine
 62
7
  6
CONTINUOUS
 10
131.4509883316
 20
111.8
 11
131.4509883316
 21
109.7889072728
  0
LINE
  5
2EE
100
AcDbEntity
  8
0
100
AcDbLine
 62
7
  6
CONTINUOUS
 10
131.4509883316
 20
95.3110927272
 11
131.4509883316
 21
93.3
  0
LINE
  5
2EF
100
AcDbEntity
  8
0
100
AcDbLine
 62
7
  6
CONTINUOUS
 10
132.3509883316
 20
95.3268022857
 11
132.3509883316
 21
109.7731977143
  0
LINE
  5
2F0
100
AcDbEntity
  8
0
100
AcDbLine
 62
7
  6
CONTINUOUS
 10
133.4509883316
 20
113.8
 11
133.4509883316
 21
108.3
  0
LINE
  5
2F1
100
AcDbEntity
  8
0
100
AcDbLine
 62
7
  6
CONTINUOUS
 10
133.4509883316
 20
96.75
 11
133.4509883316
 21
91.3
  0
LINE
  5
2F2
100
AcDbEntity
  8
0
100
AcDbLine
 62
7
  6
CONTINUOUS
 10
127.9160782017
 20
91.3
 11
127.9509883316
 21
93.3
  0
ARC
  5
2F3
100
AcDbEntity
  8
0
100
AcDbCircle
 62
7
  6
CONTINUOUS
 10
51.0989493801
 20
99.4444303119
 40
1.8651245271
100
AcDbArc
 50
316.8785867262
 51
321.0231527571
  0
ARC
  5
2F4
100
AcDbEntity
  8
0
100
AcDbCircle
 62
7
  6
CONTINUOUS
 10
51.0989493801
 20
94.4444303119
 40
1.8651245271
100
AcDbArc
 50
316.8785867262
 51
321.0231527571
  0
ARC
  5
2F5
100
AcDbEntity
  8
0
100
AcDbCircle
 62
7
  6
CONTINUOUS
 10
51.0989493801
 20
104.4444303119
 40
1.8651245271
100
AcDbArc
 50
316.8785867262
 51
321.0231527571
  0
ARC
  5
2F6
100
AcDbEntity
  8
0
100
AcDbCircle
 62
7
  6
CONTINUOUS
 10
72.6989842219
 20
109.4443699044
 40
1.865057202
100
AcDbArc
 50
316.8775275691
 51
321.0171490091
  0
ARC
  5
2F7
100
AcDbEntity
  8
0
100
AcDbCircle
 62
7
  6
CONTINUOUS
 10
72.6989842219
 20
104.4443699044
 40
1.865057202
100
AcDbArc
 50
316.8775275691
 51
321.0171490091
  0
ARC
  5
2F8
100
AcDbEntity
  8
0
100
AcDbCircle
 62
7
  6
CONTINUOUS
 10
51.0989842219
 20
109.4443699044
 40
1.865057202
100
AcDbArc
 50
316.8775275692
 51
321.0171490091
  0
ARC
  5
2F9
100
AcDbEntity
  8
0
100
AcDbCircle
 62
7
  6
CONTINUOUS
 10
72.6989842219
 20
99.4443699044
 40
1.865057202
100
AcDbArc
 50
316.8775275692
 51
321.0171490091
  0
ARC
  5
2FA
100
AcDbEntity
  8
0
100
AcDbCircle
 62
7
  6
CONTINUOUS
 10
72.6989842219
 20
94.4443699044
 40
1.865057202
100
AcDbArc
 50
316.8775275691
 51
321.0171490091
  0
ARC
  5
2FB
100
AcDbEntity
  8
0
100
AcDbCircle
 62
7
  6
CONTINUOUS
 10
53.6500831822
 20
99.9907444698
 40
1.7033535911
100
AcDbArc
 50
128.4610292143
 51
131.385140375
  0
ARC
  5
2FC
100
AcDbEntity
  8
0
100
AcDbCircle
 62
7
  6
CONTINUOUS
 10
53.6500831822
 20
94.9907444698
 40
1.7033535911
100
AcDbArc
 50
128.4610292143
 51
131.385140375
  0
ARC
  5
2FD
100
AcDbEntity
  8
0
100
AcDbCircle
 62
7
  6
CONTINUOUS
 10
53.6500831822
 20
104.9907444698
 40
1.7033535911
100
AcDbArc
 50
128.4610292143
 51
131.385140375
  0
ARC
  5
2FE
100
AcDbEntity
  8
0
100
AcDbCircle
 62
7
  6
CONTINUOUS
 10
53.6500831822
 20
109.9907444699
 40
1.703353591
100
AcDbArc
 50
128.4610292143
 51
131.385140375
  0
ARC
  5
2FF
100
AcDbEntity
  8
0
100
AcDbCircle
 62
7
  6
CONTINUOUS
 10
75.2500831822
 20
99.9907444699
 40
1.703353591
100
AcDbArc
 50
128.4610292143
 51
131.385140375
  0
ARC
  5
300
100
AcDbEntity
  8
0
100
AcDbCircle
 62
7
  6
CONTINUOUS
 10
75.2500831822
 20
94.9907444698
 40
1.7033535911
100
AcDbArc
 50
128.4610292143
 51
131.385140375
  0
ARC
  5
301
100
AcDbEntity
  8
0
100
AcDbCircle
 62
7
  6
CONTINUOUS
 10
75.2500831822
 20
104.9907444698
 40
1.7033535911
100
AcDbArc
 50
128.4610292143
 51
131.385140375
  0
ARC
  5
302
100
AcDbEntity
  8
0
100
AcDbCircle
 62
7
  6
CONTINUOUS
 10
75.2500831822
 20
109.9907444698
 40
1.7033535911
100
AcDbArc
 50
128.4610292143
 51
131.3851403749
  0
ARC
  5
303
100
AcDbEntity
  8
0
100
AcDbCircle
 62
7
  6
CONTINUOUS
 10
53.6487498118
 20
99.3275773627
 40
1.7012126729
100
AcDbArc
 50
228.8897064081
 51
231.5261176158
  0
ARC
  5
304
100
AcDbEntity
  8
0
100
AcDbCircle
 62
7
  6
CONTINUOUS
 10
53.6487498118
 20
94.3275773627
 40
1.7012126729
100
AcDbArc
 50
228.8897064081
 51
231.5261176158
  0
ARC
  5
305
100
AcDbEntity
  8
0
100
AcDbCircle
 62
7
  6
CONTINUOUS
 10
53.6487498118
 20
104.3275773627
 40
1.7012126729
100
AcDbArc
 50
228.8897064081
 51
231.5261176158
  0
ARC
  5
306
100
AcDbEntity
  8
0
100
AcDbCircle
 62
7
  6
CONTINUOUS
 10
53.6487498118
 20
109.3275773627
 40
1.7012126729
100
AcDbArc
 50
228.8897064081
 51
231.5261176158
  0
ARC
  5
307
100
AcDbEntity
  8
0
100
AcDbCircle
 62
7
  6
CONTINUOUS
 10
75.2487498118
 20
99.3275773627
 40
1.7012126729
100
AcDbArc
 50
228.8897064081
 51
231.5261176158
  0
ARC
  5
308
100
AcDbEntity
  8
0
100
AcDbCircle
 62
7
  6
CONTINUOUS
 10
75.2487498118
 20
94.3275773627
 40
1.7012126729
100
AcDbArc
 50
228.8897064081
 51
231.5261176158
  0
ARC
  5
309
100
AcDbEntity
  8
0
100
AcDbCircle
 62
7
  6
CONTINUOUS
 10
75.2487498118
 20
104.3275773627
 40
1.7012126729
100
AcDbArc
 50
228.8897064081
 51
231.5261176157
  0
ARC
  5
30A
100
AcDbEntity
  8
0
100
AcDbCircle
 62
7
  6
CONTINUOUS
 10
75.2487498118
 20
109.3275773627
 40
1.7012126729
100
AcDbArc
 50
228.8897064081
 51
231.5261176158
  0
SPLINE
  5
30B
100
AcDbEntity
  8
0
100
AcDbSpline
 62
7
  6
CONTINUOUS
 70
0
 71
3
 72
9
 73
5
 74
0
 42
0.0000001
 43
0.0000001
 44
0.0000000001
 40
0.0
 40
0.0
 40
0.0
 40
0.0
 40
0.4918363705
 40
1.0
 40
1.0
 40
1.0
 40
1.0
 10
53.5205031826
 20
97.6599999998
 30
0.0
 10
53.3560387537
 20
97.6599999998
 30
0.0
 10
53.0192073591
 20
97.7202872254
 30
0.0
 10
52.7233670069
 20
97.8900020683
 30
0.0
 10
52.5903270283
 20
97.9957118403
 30
0.0
  0
SPLINE
  5
30C
100
AcDbEntity
  8
0
100
AcDbSpline
 62
7
  6
CONTINUOUS
 70
0
 71
3
 72
9
 73
5
 74
0
 42
0.0000001
 43
0.0000001
 44
0.0000000001
 40
0.0
 40
0.0
 40
0.0
 40
0.0
 40
0.5081745927
 40
1.0
 40
1.0
 40
1.0
 40
1.0
 10
52.59062759
 20
101.324523801
 30
0.0
 10
52.7236458562
 20
101.4301638639
 30
0.0
 10
53.0194013775
 20
101.5997591108
 30
0.0
 10
53.3561043863
 20
101.6600000002
 30
0.0
 10
53.5205031826
 20
101.6600000002
 30
0.0
  0
SPLINE
  5
30D
100
AcDbEntity
  8
0
100
AcDbSpline
 62
7
  6
CONTINUOUS
 70
0
 71
3
 72
9
 73
5
 74
0
 42
0.0000001
 43
0.0000001
 44
0.0000000001
 40
0.0
 40
0.0
 40
0.0
 40
0.0
 40
0.4918363705
 40
1.0
 40
1.0
 40
1.0
 40
1.0
 10
53.5205031826
 20
92.6599999998
 30
0.0
 10
53.3560387537
 20
92.6599999998
 30
0.0
 10
53.0192073591
 20
92.7202872254
 30
0.0
 10
52.7233670069
 20
92.8900020683
 30
0.0
 10
52.5903270283
 20
92.9957118403
 30
0.0
  0
SPLINE
  5
30E
100
AcDbEntity
  8
0
100
AcDbSpline
 62
7
  6
CONTINUOUS
 70
0
 71
3
 72
9
 73
5
 74
0
 42
0.0000001
 43
0.0000001
 44
0.0000000001
 40
0.0
 40
0.0
 40
0.0
 40
0.0
 40
0.5081745927
 40
1.0
 40
1.0
 40
1.0
 40
1.0
 10
52.59062759
 20
96.324523801
 30
0.0
 10
52.7236458562
 20
96.4301638639
 30
0.0
 10
53.0194013775
 20
96.5997591108
 30
0.0
 10
53.3561043863
 20
96.6600000002
 30
0.0
 10
53.5205031826
 20
96.6600000002
 30
0.0
  0
SPLINE
  5
30F
100
AcDbEntity
  8
0
100
AcDbSpline
 62
7
  6
CONTINUOUS
 70
0
 71
3
 72
15
 73
11
 74
0
 42
0.0000001
 43
0.0000001
 44
0.0000000001
 40
0.0
 40
0.0
 40
0.0
 40
0.0
 40
0.114741345
 40
0.2357168388
 40
0.36505153
 40
0.4999857803
 40
0.6349199993
 40
0.7642628771
 40
0.8852526753
 40
1.0
 40
1.0
 40
1.0
 40
1.0
 10
44.6725286907
 20
108.51
 30
0.0
 10
44.5460692535
 20
108.51
 30
0.0
 10
44.2829147928
 20
108.5742408927
 30
0.0
 10
43.963718575
 20
108.837214983
 30
0.0
 10
43.7557426338
 20
109.2178706836
 30
0.0
 10
43.6838039657
 20
109.6599511068
 30
0.0
 10
43.75571158
 20
110.1020458571
 30
0.0
 10
43.9636752157
 20
110.4827378269
 30
0.0
 10
44.2828857368
 20
110.7457483236
 30
0.0
 10
44.5460626631
 20
110.81
 30
0.0
 10
44.6725286907
 20
110.81
 30
0.0
  0
SPLINE
  5
310
100
AcDbEntity
  8
0
100
AcDbSpline
 62
7
  6
CONTINUOUS
 70
0
 71
3
 72
15
 73
11
 74
0
 42
0.0000001
 43
0.0000001
 44
0.0000000001
 40
0.0
 40
0.0
 40
0.0
 40
0.0
 40
0.114741345
 40
0.2357168388
 40
0.36505153
 40
0.4999857803
 40
0.6349199993
 40
0.7642628771
 40
0.8852526753
 40
1.0
 40
1.0
 40
1.0
 40
1.0
 10
44.6725286907
 20
103.51
 30
0.0
 10
44.5460692535
 20
103.51
 30
0.0
 10
44.2829147928
 20
103.5742408927
 30
0.0
 10
43.963718575
 20
103.837214983
 30
0.0
 10
43.7557426338
 20
104.2178706836
 30
0.0
 10
43.6838039657
 20
104.6599511068
 30
0.0
 10
43.75571158
 20
105.1020458571
 30
0.0
 10
43.9636752157
 20
105.4827378269
 30
0.0
 10
44.2828857368
 20
105.7457483236
 30
0.0
 10
44.5460626631
 20
105.81
 30
0.0
 10
44.6725286907
 20
105.81
 30
0.0
  0
SPLINE
  5
311
100
AcDbEntity
  8
0
100
AcDbSpline
 62
7
  6
CONTINUOUS
 70
0
 71
3
 72
15
 73
11
 74
0
 42
0.0000001
 43
0.0000001
 44
0.0000000001
 40
0.0
 40
0.0
 40
0.0
 40
0.0
 40
0.114741345
 40
0.2357168388
 40
0.36505153
 40
0.4999857803
 40
0.6349199993
 40
0.7642628771
 40
0.8852526753
 40
1.0
 40
1.0
 40
1.0
 40
1.0
 10
44.6725286907
 20
98.51
 30
0.0
 10
44.5460692535
 20
98.51
 30
0.0
 10
44.2829147928
 20
98.5742408927
 30
0.0
 10
43.963718575
 20
98.837214983
 30
0.0
 10
43.7557426338
 20
99.2178706836
 30
0.0
 10
43.6838039657
 20
99.6599511068
 30
0.0
 10
43.75571158
 20
100.1020458571
 30
0.0
 10
43.9636752157
 20
100.4827378269
 30
0.0
 10
44.2828857368
 20
100.7457483236
 30
0.0
 10
44.5460626631
 20
100.81
 30
0.0
 10
44.6725286907
 20
100.81
 30
0.0
  0
SPLINE
  5
312
100
AcDbEntity
  8
0
100
AcDbSpline
 62
7
  6
CONTINUOUS
 70
0
 71
3
 72
15
 73
11
 74
0
 42
0.0000001
 43
0.0000001
 44
0.0000000001
 40
0.0
 40
0.0
 40
0.0
 40
0.0
 40
0.114741345
 40
0.2357168388
 40
0.36505153
 40
0.4999857803
 40
0.6349199993
 40
0.7642628771
 40
0.8852526753
 40
1.0
 40
1.0
 40
1.0
 40
1.0
 10
44.6725286907
 20
93.51
 30
0.0
 10
44.5460692535
 20
93.51
 30
0.0
 10
44.2829147928
 20
93.5742408927
 30
0.0
 10
43.963718575
 20
93.837214983
 30
0.0
 10
43.7557426338
 20
94.2178706836
 30
0.0
 10
43.6838039657
 20
94.6599511068
 30
0.0
 10
43.75571158
 20
95.1020458571
 30
0.0
 10
43.9636752157
 20
95.4827378269
 30
0.0
 10
44.2828857368
 20
95.7457483236
 30
0.0
 10
44.5460626631
 20
95.81
 30
0.0
 10
44.6725286907
 20
95.81
 30
0.0
  0
SPLINE
  5
313
100
AcDbEntity
  8
0
100
AcDbSpline
 62
7
  6
CONTINUOUS
 70
0
 71
3
 72
9
 73
5
 74
0
 42
0.0000001
 43
0.0000001
 44
0.0000000001
 40
0.0
 40
0.0
 40
0.0
 40
0.0
 40
0.4918363705
 40
1.0
 40
1.0
 40
1.0
 40
1.0
 10
53.5205031826
 20
102.6599999998
 30
0.0
 10
53.3560387537
 20
102.6599999998
 30
0.0
 10
53.0192073591
 20
102.7202872254
 30
0.0
 10
52.7233670069
 20
102.8900020683
 30
0.0
 10
52.5903270283
 20
102.9957118403
 30
0.0
  0
SPLINE
  5
314
100
AcDbEntity
  8
0
100
AcDbSpline
 62
7
  6
CONTINUOUS
 70
0
 71
3
 72
9
 73
5
 74
0
 42
0.0000001
 43
0.0000001
 44
0.0000000001
 40
0.0
 40
0.0
 40
0.0
 40
0.0
 40
0.5081745927
 40
1.0
 40
1.0
 40
1.0
 40
1.0
 10
52.59062759
 20
106.324523801
 30
0.0
 10
52.7236458562
 20
106.4301638639
 30
0.0
 10
53.0194013775
 20
106.5997591108
 30
0.0
 10
53.3561043863
 20
106.6600000002
 30
0.0
 10
53.5205031826
 20
106.6600000002
 30
0.0
  0
SPLINE
  5
315
100
AcDbEntity
  8
0
100
AcDbSpline
 62
7
  6
CONTINUOUS
 70
0
 71
3
 72
9
 73
5
 74
0
 42
0.0000001
 43
0.0000001
 44
0.0000000001
 40
0.0
 40
0.0
 40
0.0
 40
0.0
 40
0.4918363705
 40
1.0
 40
1.0
 40
1.0
 40
1.0
 10
53.5205031826
 20
107.6599999998
 30
0.0
 10
53.3560387537
 20
107.6599999998
 30
0.0
 10
53.0192073591
 20
107.7202872254
 30
0.0
 10
52.7233670069
 20
107.8900020683
 30
0.0
 10
52.5903270283
 20
107.9957118403
 30
0.0
  0
SPLINE
  5
316
100
AcDbEntity
  8
0
100
AcDbSpline
 62
7
  6
CONTINUOUS
 70
0
 71
3
 72
9
 73
5
 74
0
 42
0.0000001
 43
0.0000001
 44
0.0000000001
 40
0.0
 40
0.0
 40
0.0
 40
0.0
 40
0.5081745927
 40
1.0
 40
1.0
 40
1.0
 40
1.0
 10
52.59062759
 20
111.324523801
 30
0.0
 10
52.7236458562
 20
111.4301638639
 30
0.0
 10
53.0194013775
 20
111.5997591108
 30
0.0
 10
53.3561043863
 20
111.6600000002
 30
0.0
 10
53.5205031826
 20
111.6600000002
 30
0.0
  0
SPLINE
  5
317
100
AcDbEntity
  8
0
100
AcDbSpline
 62
7
  6
CONTINUOUS
 70
0
 71
3
 72
9
 73
5
 74
0
 42
0.0000001
 43
0.0000001
 44
0.0000000001
 40
0.0
 40
0.0
 40
0.0
 40
0.0
 40
0.4918363705
 40
1.0
 40
1.0
 40
1.0
 40
1.0
 10
75.1205031826
 20
97.6599999998
 30
0.0
 10
74.9560387537
 20
97.6599999998
 30
0.0
 10
74.6192073591
 20
97.7202872254
 30
0.0
 10
74.3233670069
 20
97.8900020683
 30
0.0
 10
74.1903270283
 20
97.9957118403
 30
0.0
  0
SPLINE
  5
318
100
AcDbEntity
  8
0
100
AcDbSpline
 62
7
  6
CONTINUOUS
 70
0
 71
3
 72
9
 73
5
 74
0
 42
0.0000001
 43
0.0000001
 44
0.0000000001
 40
0.0
 40
0.0
 40
0.0
 40
0.0
 40
0.5081745927
 40
1.0
 40
1.0
 40
1.0
 40
1.0
 10
74.19062759
 20
101.324523801
 30
0.0
 10
74.3236458562
 20
101.4301638639
 30
0.0
 10
74.6194013775
 20
101.5997591108
 30
0.0
 10
74.9561043863
 20
101.6600000002
 30
0.0
 10
75.1205031826
 20
101.6600000002
 30
0.0
  0
SPLINE
  5
319
100
AcDbEntity
  8
0
100
AcDbSpline
 62
7
  6
CONTINUOUS
 70
0
 71
3
 72
9
 73
5
 74
0
 42
0.0000001
 43
0.0000001
 44
0.0000000001
 40
0.0
 40
0.0
 40
0.0
 40
0.0
 40
0.4918363705
 40
1.0
 40
1.0
 40
1.0
 40
1.0
 10
75.1205031826
 20
92.6599999998
 30
0.0
 10
74.9560387537
 20
92.6599999998
 30
0.0
 10
74.6192073591
 20
92.7202872254
 30
0.0
 10
74.3233670069
 20
92.8900020683
 30
0.0
 10
74.1903270283
 20
92.9957118403
 30
0.0
  0
SPLINE
  5
31A
100
AcDbEntity
  8
0
100
AcDbSpline
 62
7
  6
CONTINUOUS
 70
0
 71
3
 72
9
 73
5
 74
0
 42
0.0000001
 43
0.0000001
 44
0.0000000001
 40
0.0
 40
0.0
 40
0.0
 40
0.0
 40
0.5081745927
 40
1.0
 40
1.0
 40
1.0
 40
1.0
 10
74.19062759
 20
96.324523801
 30
0.0
 10
74.3236458562
 20
96.4301638639
 30
0.0
 10
74.6194013775
 20
96.5997591108
 30
0.0
 10
74.9561043863
 20
96.6600000002
 30
0.0
 10
75.1205031826
 20
96.6600000002
 30
0.0
  0
SPLINE
  5
31B
100
AcDbEntity
  8
0
100
AcDbSpline
 62
7
  6
CONTINUOUS
 70
0
 71
3
 72
15
 73
11
 74
0
 42
0.0000001
 43
0.0000001
 44
0.0000000001
 40
0.0
 40
0.0
 40
0.0
 40
0.0
 40
0.114741345
 40
0.2357168388
 40
0.36505153
 40
0.4999857803
 40
0.6349199993
 40
0.7642628771
 40
0.8852526753
 40
1.0
 40
1.0
 40
1.0
 40
1.0
 10
66.2725286907
 20
108.51
 30
0.0
 10
66.1460692535
 20
108.51
 30
0.0
 10
65.8829147928
 20
108.5742408927
 30
0.0
 10
65.563718575
 20
108.837214983
 30
0.0
 10
65.3557426338
 20
109.2178706836
 30
0.0
 10
65.2838039657
 20
109.6599511068
 30
0.0
 10
65.35571158
 20
110.1020458571
 30
0.0
 10
65.5636752157
 20
110.4827378269
 30
0.0
 10
65.8828857368
 20
110.7457483236
 30
0.0
 10
66.1460626631
 20
110.81
 30
0.0
 10
66.2725286907
 20
110.81
 30
0.0
  0
SPLINE
  5
31C
100
AcDbEntity
  8
0
100
AcDbSpline
 62
7
  6
CONTINUOUS
 70
0
 71
3
 72
15
 73
11
 74
0
 42
0.0000001
 43
0.0000001
 44
0.0000000001
 40
0.0
 40
0.0
 40
0.0
 40
0.0
 40
0.114741345
 40
0.2357168388
 40
0.36505153
 40
0.4999857803
 40
0.6349199993
 40
0.7642628771
 40
0.8852526753
 40
1.0
 40
1.0
 40
1.0
 40
1.0
 10
66.2725286907
 20
103.51
 30
0.0
 10
66.1460692535
 20
103.51
 30
0.0
 10
65.8829147928
 20
103.5742408927
 30
0.0
 10
65.563718575
 20
103.837214983
 30
0.0
 10
65.3557426338
 20
104.2178706836
 30
0.0
 10
65.2838039657
 20
104.6599511068
 30
0.0
 10
65.35571158
 20
105.1020458571
 30
0.0
 10
65.5636752157
 20
105.4827378269
 30
0.0
 10
65.8828857368
 20
105.7457483236
 30
0.0
 10
66.1460626631
 20
105.81
 30
0.0
 10
66.2725286907
 20
105.81
 30
0.0
  0
SPLINE
  5
31D
100
AcDbEntity
  8
0
100
AcDbSpline
 62
7
  6
CONTINUOUS
 70
0
 71
3
 72
15
 73
11
 74
0
 42
0.0000001
 43
0.0000001
 44
0.0000000001
 40
0.0
 40
0.0
 40
0.0
 40
0.0
 40
0.114741345
 40
0.2357168388
 40
0.36505153
 40
0.4999857803
 40
0.6349199993
 40
0.7642628771
 40
0.8852526753
 40
1.0
 40
1.0
 40
1.0
 40
1.0
 10
66.2725286907
 20
98.51
 30
0.0
 10
66.1460692535
 20
98.51
 30
0.0
 10
65.8829147928
 20
98.5742408927
 30
0.0
 10
65.563718575
 20
98.837214983
 30
0.0
 10
65.3557426338
 20
99.2178706836
 30
0.0
 10
65.2838039657
 20
99.6599511068
 30
0.0
 10
65.35571158
 20
100.1020458571
 30
0.0
 10
65.5636752157
 20
100.4827378269
 30
0.0
 10
65.8828857368
 20
100.7457483236
 30
0.0
 10
66.1460626631
 20
100.81
 30
0.0
 10
66.2725286907
 20
100.81
 30
0.0
  0
SPLINE
  5
31E
100
AcDbEntity
  8
0
100
AcDbSpline
 62
7
  6
CONTINUOUS
 70
0
 71
3
 72
15
 73
11
 74
0
 42
0.0000001
 43
0.0000001
 44
0.0000000001
 40
0.0
 40
0.0
 40
0.0
 40
0.0
 40
0.114741345
 40
0.2357168388
 40
0.36505153
 40
0.4999857803
 40
0.6349199993
 40
0.7642628771
 40
0.8852526753
 40
1.0
 40
1.0
 40
1.0
 40
1.0
 10
66.2725286907
 20
93.51
 30
0.0
 10
66.1460692535
 20
93.51
 30
0.0
 10
65.8829147928
 20
93.5742408927
 30
0.0
 10
65.563718575
 20
93.837214983
 30
0.0
 10
65.3557426338
 20
94.2178706836
 30
0.0
 10
65.2838039657
 20
94.6599511068
 30
0.0
 10
65.35571158
 20
95.1020458571
 30
0.0
 10
65.5636752157
 20
95.4827378269
 30
0.0
 10
65.8828857368
 20
95.7457483236
 30
0.0
 10
66.1460626631
 20
95.81
 30
0.0
 10
66.2725286907
 20
95.81
 30
0.0
  0
SPLINE
  5
31F
100
AcDbEntity
  8
0
100
AcDbSpline
 62
7
  6
CONTINUOUS
 70
0
 71
3
 72
9
 73
5
 74
0
 42
0.0000001
 43
0.0000001
 44
0.0000000001
 40
0.0
 40
0.0
 40
0.0
 40
0.0
 40
0.4918363705
 40
1.0
 40
1.0
 40
1.0
 40
1.0
 10
75.1205031826
 20
102.6599999998
 30
0.0
 10
74.9560387537
 20
102.6599999998
 30
0.0
 10
74.6192073591
 20
102.7202872254
 30
0.0
 10
74.3233670069
 20
102.8900020683
 30
0.0
 10
74.1903270283
 20
102.9957118403
 30
0.0
  0
SPLINE
  5
320
100
AcDbEntity
  8
0
100
AcDbSpline
 62
7
  6
CONTINUOUS
 70
0
 71
3
 72
9
 73
5
 74
0
 42
0.0000001
 43
0.0000001
 44
0.0000000001
 40
0.0
 40
0.0
 40
0.0
 40
0.0
 40
0.5081745927
 40
1.0
 40
1.0
 40
1.0
 40
1.0
 10
74.19062759
 20
106.324523801
 30
0.0
 10
74.3236458562
 20
106.4301638639
 30
0.0
 10
74.6194013775
 20
106.5997591108
 30
0.0
 10
74.9561043863
 20
106.6600000002
 30
0.0
 10
75.1205031826
 20
106.6600000002
 30
0.0
  0
SPLINE
  5
321
100
AcDbEntity
  8
0
100
AcDbSpline
 62
7
  6
CONTINUOUS
 70
0
 71
3
 72
9
 73
5
 74
0
 42
0.0000001
 43
0.0000001
 44
0.0000000001
 40
0.0
 40
0.0
 40
0.0
 40
0.0
 40
0.4918363705
 40
1.0
 40
1.0
 40
1.0
 40
1.0
 10
75.1205031826
 20
107.6599999998
 30
0.0
 10
74.9560387537
 20
107.6599999998
 30
0.0
 10
74.6192073591
 20
107.7202872254
 30
0.0
 10
74.3233670069
 20
107.8900020683
 30
0.0
 10
74.1903270283
 20
107.9957118403
 30
0.0
  0
SPLINE
  5
322
100
AcDbEntity
  8
0
100
AcDbSpline
 62
7
  6
CONTINUOUS
 70
0
 71
3
 72
9
 73
5
 74
0
 42
0.0000001
 43
0.0000001
 44
0.0000000001
 40
0.0
 40
0.0
 40
0.0
 40
0.0
 40
0.5081745927
 40
1.0
 40
1.0
 40
1.0
 40
1.0
 10
74.19062759
 20
111.324523801
 30
0.0
 10
74.3236458562
 20
111.4301638639
 30
0.0
 10
74.6194013775
 20
111.5997591108
 30
0.0
 10
74.9561043863
 20
111.6600000002
 30
0.0
 10
75.1205031826
 20
111.6600000002
 30
0.0
  0
SPLINE
  5
323
100
AcDbEntity
  8
0
100
AcDbSpline
 62
7
  6
CONTINUOUS
 70
0
 71
3
 72
17
 73
13
 74
0
 42
0.0000001
 43
0.0000001
 44
0.0000000001
 40
0.0
 40
0.0
 40
0.0
 40
0.0
 40
0.0571670889
 40
0.1153296286
 40
0.2361216271
 40
0.3652595584
 40
0.4999888993
 40
0.6347181857
 40
0.7638623661
 40
0.8846651828
 40
0.9428320116
 40
1.0
 40
1.0
 40
1.0
 40
1.0
 10
53.5205031826
 20
101.6600000002
 30
0.0
 10
53.6302450763
 20
101.6600000002
 30
0.0
 10
53.8524745002
 20
101.6334696514
 30
0.0
 10
54.2817561031
 20
101.4776317878
 30
0.0
 10
54.7540746465
 20
101.0908450991
 30
0.0
 10
55.1147044166
 20
100.4289228232
 30
0.0
 10
55.2402559109
 20
99.6600679794
 30
0.0
 10
55.1147398343
 20
98.8911956791
 30
0.0
 10
54.7541314395
 20
98.2292247336
 30
0.0
 10
54.2817959328
 20
97.8423860803
 30
0.0
 10
53.8524858235
 20
97.6865347467
 30
0.0
 10
53.6302468029
 20
97.6599999998
 30
0.0
 10
53.5205031826
 20
97.6599999998
 30
0.0
  0
SPLINE
  5
324
100
AcDbEntity
  8
0
100
AcDbSpline
 62
7
  6
CONTINUOUS
 70
0
 71
3
 72
17
 73
13
 74
0
 42
0.0000001
 43
0.0000001
 44
0.0000000001
 40
0.0
 40
0.0
 40
0.0
 40
0.0
 40
0.0571670889
 40
0.1153296286
 40
0.2361216271
 40
0.3652595584
 40
0.4999888993
 40
0.6347181857
 40
0.7638623661
 40
0.8846651828
 40
0.9428320116
 40
1.0
 40
1.0
 40
1.0
 40
1.0
 10
53.5205031826
 20
96.6600000002
 30
0.0
 10
53.6302450763
 20
96.6600000002
 30
0.0
 10
53.8524745002
 20
96.6334696514
 30
0.0
 10
54.2817561031
 20
96.4776317878
 30
0.0
 10
54.7540746465
 20
96.0908450991
 30
0.0
 10
55.1147044166
 20
95.4289228232
 30
0.0
 10
55.2402559109
 20
94.6600679794
 30
0.0
 10
55.1147398343
 20
93.8911956791
 30
0.0
 10
54.7541314395
 20
93.2292247336
 30
0.0
 10
54.2817959328
 20
92.8423860803
 30
0.0
 10
53.8524858235
 20
92.6865347467
 30
0.0
 10
53.6302468029
 20
92.6599999998
 30
0.0
 10
53.5205031826
 20
92.6599999998
 30
0.0
  0
SPLINE
  5
325
100
AcDbEntity
  8
0
100
AcDbSpline
 62
7
  6
CONTINUOUS
 70
0
 71
3
 72
17
 73
13
 74
0
 42
0.0000001
 43
0.0000001
 44
0.0000000001
 40
0.0
 40
0.0
 40
0.0
 40
0.0
 40
0.0571670889
 40
0.1153296286
 40
0.2361216271
 40
0.3652595584
 40
0.4999888993
 40
0.6347181857
 40
0.7638623661
 40
0.8846651828
 40
0.9428320116
 40
1.0
 40
1.0
 40
1.0
 40
1.0
 10
53.5205031826
 20
106.6600000002
 30
0.0
 10
53.6302450763
 20
106.6600000002
 30
0.0
 10
53.8524745002
 20
106.6334696514
 30
0.0
 10
54.2817561031
 20
106.4776317878
 30
0.0
 10
54.7540746465
 20
106.0908450991
 30
0.0
 10
55.1147044166
 20
105.4289228232
 30
0.0
 10
55.2402559109
 20
104.6600679794
 30
0.0
 10
55.1147398343
 20
103.8911956791
 30
0.0
 10
54.7541314395
 20
103.2292247336
 30
0.0
 10
54.2817959328
 20
102.8423860803
 30
0.0
 10
53.8524858235
 20
102.6865347467
 30
0.0
 10
53.6302468029
 20
102.6599999998
 30
0.0
 10
53.5205031826
 20
102.6599999998
 30
0.0
  0
SPLINE
  5
326
100
AcDbEntity
  8
0
100
AcDbSpline
 62
7
  6
CONTINUOUS
 70
0
 71
3
 72
17
 73
13
 74
0
 42
0.0000001
 43
0.0000001
 44
0.0000000001
 40
0.0
 40
0.0
 40
0.0
 40
0.0
 40
0.0571670889
 40
0.1153296286
 40
0.2361216271
 40
0.3652595584
 40
0.4999888993
 40
0.6347181857
 40
0.7638623661
 40
0.8846651828
 40
0.9428320116
 40
1.0
 40
1.0
 40
1.0
 40
1.0
 10
53.5205031826
 20
111.6600000002
 30
0.0
 10
53.6302450763
 20
111.6600000002
 30
0.0
 10
53.8524745002
 20
111.6334696514
 30
0.0
 10
54.2817561031
 20
111.4776317878
 30
0.0
 10
54.7540746465
 20
111.0908450991
 30
0.0
 10
55.1147044166
 20
110.4289228232
 30
0.0
 10
55.2402559109
 20
109.6600679794
 30
0.0
 10
55.1147398343
 20
108.8911956791
 30
0.0
 10
54.7541314395
 20
108.2292247336
 30
0.0
 10
54.2817959328
 20
107.8423860803
 30
0.0
 10
53.8524858235
 20
107.6865347467
 30
0.0
 10
53.6302468029
 20
107.6599999998
 30
0.0
 10
53.5205031826
 20
107.6599999998
 30
0.0
  0
SPLINE
  5
327
100
AcDbEntity
  8
0
100
AcDbSpline
 62
7
  6
CONTINUOUS
 70
0
 71
3
 72
11
 73
7
 74
0
 42
0.0000001
 43
0.0000001
 44
0.0000000001
 40
0.0
 40
0.0
 40
0.0
 40
0.0
 40
0.2448955724
 40
0.4999530409
 40
0.7550290547
 40
1.0
 40
1.0
 40
1.0
 40
1.0
 10
52.5488975629
 20
98.2712552316
 30
0.0
 10
52.7015786432
 20
98.4598697379
 30
0.0
 10
52.9402350953
 20
98.9078887769
 30
0.0
 10
53.0594155673
 20
99.6588981921
 30
0.0
 10
52.9409025992
 20
100.4100896531
 30
0.0
 10
52.7026261475
 20
100.8584117145
 30
0.0
 10
52.5500938884
 20
101.0472426117
 30
0.0
  0
SPLINE
  5
328
100
AcDbEntity
  8
0
100
AcDbSpline
 62
7
  6
CONTINUOUS
 70
0
 71
3
 72
11
 73
7
 74
0
 42
0.0000001
 43
0.0000001
 44
0.0000000001
 40
0.0
 40
0.0
 40
0.0
 40
0.0
 40
0.2448955724
 40
0.4999530409
 40
0.7550290547
 40
1.0
 40
1.0
 40
1.0
 40
1.0
 10
52.5488975629
 20
93.2712552316
 30
0.0
 10
52.7015786432
 20
93.4598697379
 30
0.0
 10
52.9402350953
 20
93.9078887769
 30
0.0
 10
53.0594155673
 20
94.6588981921
 30
0.0
 10
52.9409025992
 20
95.4100896531
 30
0.0
 10
52.7026261475
 20
95.8584117145
 30
0.0
 10
52.5500938884
 20
96.0472426117
 30
0.0
  0
SPLINE
  5
329
100
AcDbEntity
  8
0
100
AcDbSpline
 62
7
  6
CONTINUOUS
 70
0
 71
3
 72
11
 73
7
 74
0
 42
0.0000001
 43
0.0000001
 44
0.0000000001
 40
0.0
 40
0.0
 40
0.0
 40
0.0
 40
0.2449218058
 40
0.5000065814
 40
0.755084278
 40
1.0
 40
1.0
 40
1.0
 40
1.0
 10
74.1487571311
 20
108.2710852509
 30
0.0
 10
74.3016335001
 20
108.4599002939
 30
0.0
 10
74.5405294595
 20
108.9084823817
 30
0.0
 10
74.6595038136
 20
109.6604089381
 30
0.0
 10
74.5402721281
 20
110.4122918678
 30
0.0
 10
74.3012041883
 20
110.8607689073
 30
0.0
 10
74.1482591494
 20
111.0495205631
 30
0.0
  0
SPLINE
  5
32A
100
AcDbEntity
  8
0
100
AcDbSpline
 62
7
  6
CONTINUOUS
 70
0
 71
3
 72
11
 73
7
 74
0
 42
0.0000001
 43
0.0000001
 44
0.0000000001
 40
0.0
 40
0.0
 40
0.0
 40
0.0
 40
0.2449218058
 40
0.5000065814
 40
0.755084278
 40
1.0
 40
1.0
 40
1.0
 40
1.0
 10
74.1487571311
 20
103.2710852509
 30
0.0
 10
74.3016335001
 20
103.4599002939
 30
0.0
 10
74.5405294595
 20
103.9084823817
 30
0.0
 10
74.6595038136
 20
104.6604089381
 30
0.0
 10
74.5402721281
 20
105.4122918678
 30
0.0
 10
74.3012041883
 20
105.8607689073
 30
0.0
 10
74.1482591494
 20
106.0495205631
 30
0.0
  0
SPLINE
  5
32B
100
AcDbEntity
  8
0
100
AcDbSpline
 62
7
  6
CONTINUOUS
 70
0
 71
3
 72
11
 73
7
 74
0
 42
0.0000001
 43
0.0000001
 44
0.0000000001
 40
0.0
 40
0.0
 40
0.0
 40
0.0
 40
0.2448955724
 40
0.4999530409
 40
0.7550290547
 40
1.0
 40
1.0
 40
1.0
 40
1.0
 10
52.5488975629
 20
103.2712552316
 30
0.0
 10
52.7015786432
 20
103.4598697379
 30
0.0
 10
52.9402350953
 20
103.9078887769
 30
0.0
 10
53.0594155673
 20
104.6588981921
 30
0.0
 10
52.9409025992
 20
105.4100896531
 30
0.0
 10
52.7026261475
 20
105.8584117145
 30
0.0
 10
52.5500938884
 20
106.0472426117
 30
0.0
  0
SPLINE
  5
32C
100
AcDbEntity
  8
0
100
AcDbSpline
 62
7
  6
CONTINUOUS
 70
0
 71
3
 72
11
 73
7
 74
0
 42
0.0000001
 43
0.0000001
 44
0.0000000001
 40
0.0
 40
0.0
 40
0.0
 40
0.0
 40
0.2449218058
 40
0.5000065814
 40
0.755084278
 40
1.0
 40
1.0
 40
1.0
 40
1.0
 10
52.5487571311
 20
108.2710852509
 30
0.0
 10
52.7016335001
 20
108.4599002939
 30
0.0
 10
52.9405294595
 20
108.9084823817
 30
0.0
 10
53.0595038136
 20
109.6604089381
 30
0.0
 10
52.9402721281
 20
110.4122918678
 30
0.0
 10
52.7012041883
 20
110.8607689073
 30
0.0
 10
52.5482591494
 20
111.0495205631
 30
0.0
  0
SPLINE
  5
32D
100
AcDbEntity
  8
0
100
AcDbSpline
 62
7
  6
CONTINUOUS
 70
0
 71
3
 72
17
 73
13
 74
0
 42
0.0000001
 43
0.0000001
 44
0.0000000001
 40
0.0
 40
0.0
 40
0.0
 40
0.0
 40
0.0571671789
 40
0.115329248
 40
0.2361263285
 40
0.3652664698
 40
0.4999817121
 40
0.6347053881
 40
0.7638532203
 40
0.8846617514
 40
0.9428312647
 40
1.0
 40
1.0
 40
1.0
 40
1.0
 10
75.1205031826
 20
101.6600000002
 30
0.0
 10
75.2302451528
 20
101.6600000002
 30
0.0
 10
75.4524729178
 20
101.6334670645
 30
0.0
 10
75.8817663299
 20
101.4776347522
 30
0.0
 10
76.3540806832
 20
101.0908190783
 30
0.0
 10
76.7147062721
 20
100.4289135763
 30
0.0
 10
76.8402496393
 20
99.6600934295
 30
0.0
 10
76.7147544016
 20
98.8912522053
 30
0.0
 10
76.3541638737
 20
98.229264441
 30
0.0
 10
75.8818196144
 20
97.8423959779
 30
0.0
 10
75.4524931677
 20
97.6865385377
 30
0.0
 10
75.2302481406
 20
97.6599999998
 30
0.0
 10
75.1205031826
 20
97.6599999998
 30
0.0
  0
SPLINE
  5
32E
100
AcDbEntity
  8
0
100
AcDbSpline
 62
7
  6
CONTINUOUS
 70
0
 71
3
 72
17
 73
13
 74
0
 42
0.0000001
 43
0.0000001
 44
0.0000000001
 40
0.0
 40
0.0
 40
0.0
 40
0.0
 40
0.0571670889
 40
0.1153296286
 40
0.2361216271
 40
0.3652595584
 40
0.4999888993
 40
0.6347181857
 40
0.7638623661
 40
0.8846651828
 40
0.9428320116
 40
1.0
 40
1.0
 40
1.0
 40
1.0
 10
75.1205031826
 20
96.6600000002
 30
0.0
 10
75.2302450763
 20
96.6600000002
 30
0.0
 10
75.4524745002
 20
96.6334696514
 30
0.0
 10
75.8817561031
 20
96.4776317878
 30
0.0
 10
76.3540746465
 20
96.0908450991
 30
0.0
 10
76.7147044166
 20
95.4289228232
 30
0.0
 10
76.8402559109
 20
94.6600679794
 30
0.0
 10
76.7147398343
 20
93.8911956791
 30
0.0
 10
76.3541314395
 20
93.2292247336
 30
0.0
 10
75.8817959328
 20
92.8423860803
 30
0.0
 10
75.4524858235
 20
92.6865347467
 30
0.0
 10
75.2302468029
 20
92.6599999998
 30
0.0
 10
75.1205031826
 20
92.6599999998
 30
0.0
  0
SPLINE
  5
32F
100
AcDbEntity
  8
0
100
AcDbSpline
 62
7
  6
CONTINUOUS
 70
0
 71
3
 72
17
 73
13
 74
0
 42
0.0000001
 43
0.0000001
 44
0.0000000001
 40
0.0
 40
0.0
 40
0.0
 40
0.0
 40
0.0571670889
 40
0.1153296286
 40
0.2361216271
 40
0.3652595584
 40
0.4999888993
 40
0.6347181857
 40
0.7638623661
 40
0.8846651828
 40
0.9428320116
 40
1.0
 40
1.0
 40
1.0
 40
1.0
 10
75.1205031826
 20
106.6600000002
 30
0.0
 10
75.2302450763
 20
106.6600000002
 30
0.0
 10
75.4524745002
 20
106.6334696514
 30
0.0
 10
75.8817561031
 20
106.4776317878
 30
0.0
 10
76.3540746465
 20
106.0908450991
 30
0.0
 10
76.7147044166
 20
105.4289228232
 30
0.0
 10
76.8402559109
 20
104.6600679794
 30
0.0
 10
76.7147398343
 20
103.8911956791
 30
0.0
 10
76.3541314395
 20
103.2292247336
 30
0.0
 10
75.8817959328
 20
102.8423860803
 30
0.0
 10
75.4524858235
 20
102.6865347467
 30
0.0
 10
75.2302468029
 20
102.6599999998
 30
0.0
 10
75.1205031826
 20
102.6599999998
 30
0.0
  0
SPLINE
  5
330
100
AcDbEntity
  8
0
100
AcDbSpline
 62
7
  6
CONTINUOUS
 70
0
 71
3
 72
17
 73
13
 74
0
 42
0.0000001
 43
0.0000001
 44
0.0000000001
 40
0.0
 40
0.0
 40
0.0
 40
0.0
 40
0.0571670889
 40
0.1153296286
 40
0.2361216271
 40
0.3652595584
 40
0.4999888993
 40
0.6347181857
 40
0.7638623661
 40
0.8846651828
 40
0.9428320116
 40
1.0
 40
1.0
 40
1.0
 40
1.0
 10
75.1205031826
 20
111.6600000002
 30
0.0
 10
75.2302450763
 20
111.6600000002
 30
0.0
 10
75.4524745002
 20
111.6334696514
 30
0.0
 10
75.8817561031
 20
111.4776317878
 30
0.0
 10
76.3540746465
 20
111.0908450991
 30
0.0
 10
76.7147044166
 20
110.4289228232
 30
0.0
 10
76.8402559109
 20
109.6600679794
 30
0.0
 10
76.7147398343
 20
108.8911956791
 30
0.0
 10
76.3541314395
 20
108.2292247336
 30
0.0
 10
75.8817959328
 20
107.8423860803
 30
0.0
 10
75.4524858235
 20
107.6865347467
 30
0.0
 10
75.2302468029
 20
107.6599999998
 30
0.0
 10
75.1205031826
 20
107.6599999998
 30
0.0
  0
SPLINE
  5
331
100
AcDbEntity
  8
0
100
AcDbSpline
 62
7
  6
CONTINUOUS
 70
0
 71
3
 72
11
 73
7
 74
0
 42
0.0000001
 43
0.0000001
 44
0.0000000001
 40
0.0
 40
0.0
 40
0.0
 40
0.0
 40
0.2449218058
 40
0.5000065814
 40
0.755084278
 40
1.0
 40
1.0
 40
1.0
 40
1.0
 10
74.1487571311
 20
98.2710852509
 30
0.0
 10
74.3016335001
 20
98.4599002939
 30
0.0
 10
74.5405294595
 20
98.9084823817
 30
0.0
 10
74.6595038136
 20
99.6604089381
 30
0.0
 10
74.5402721281
 20
100.4122918678
 30
0.0
 10
74.3012041883
 20
100.8607689073
 30
0.0
 10
74.1482591494
 20
101.0495205631
 30
0.0
  0
SPLINE
  5
332
100
AcDbEntity
  8
0
100
AcDbSpline
 62
7
  6
CONTINUOUS
 70
0
 71
3
 72
11
 73
7
 74
0
 42
0.0000001
 43
0.0000001
 44
0.0000000001
 40
0.0
 40
0.0
 40
0.0
 40
0.0
 40
0.2449218058
 40
0.5000065814
 40
0.755084278
 40
1.0
 40
1.0
 40
1.0
 40
1.0
 10
74.1487571311
 20
93.2710852509
 30
0.0
 10
74.3016335001
 20
93.4599002939
 30
0.0
 10
74.5405294595
 20
93.9084823817
 30
0.0
 10
74.6595038136
 20
94.6604089381
 30
0.0
 10
74.5402721281
 20
95.4122918678
 30
0.0
 10
74.3012041883
 20
95.8607689073
 30
0.0
 10
74.1482591494
 20
96.0495205631
 30
0.0
  0
ENDSEC
  0
SECTION
  2
OBJECTS
  0
DICTIONARY
  5
C
100
AcDbDictionary
280
0
281
1
  3
ACAD_GROUP
350
D
  3
ACAD_MLINESTYLE
350
17
  3
ACAD_LAYOUT
350
1A
  3
ACAD_PLOTSETTINGS
350
19
  3
ACAD_PLOTSTYLENAME
350
E
  0
DICTIONARY
  5
D
102
{ACAD_REACTORS
330
C
102
}
100
AcDbDictionary
280
0
281
1
  0
ACDBDICTIONARYWDFLT
  5
E
102
{ACAD_REACTORS
330
C
102
}
100
AcDbDictionary
281
1
  3
Normal
350
F
100
AcDbDictionaryWithDefault
340
F
  0
DICTIONARY
  5
17
102
{ACAD_REACTORS
330
C
102
}
100
AcDbDictionary
280
0
281
1
  3
Standard
350
18
  0
DICTIONARY
  5
19
102
{ACAD_REACTORS
330
C
102
}
100
AcDbDictionary
281
1
  0
DICTIONARY
  5
1A
102
{ACAD_REACTORS
330
C
102
}
100
AcDbDictionary
281
1
  3
Model
350
333
  3
Layout1
350
334
  0
ACDBPLACEHOLDER
  5
F
102
{ACAD_REACTORS
330
E
102
}
  0
MLINESTYLE
  5
18
102
{ACAD_REACTORS
330
17
102
}
100
AcDbMlineStyle
  2
STANDARD
 70
0
  3

 62
256
 51
90.0
 52
90.0
 71
2
 49
0.5
 62
256
  6
BYLAYER
 49
-0.5
 62
256
  6
BYLAYER
  0
LAYOUT
  5
333
102
{ACAD_REACTORS
330
1A
102
}
100
AcDbPlotSettings
  1

  2
none_device
  4

  6

 40
0.0
 41
0.0
 42
0.0
 43
0.0
 44
210.0
 45
297.0
 46
0.0
 47
0.0
 48
0.0
 49
0.0
140
0.0
141
0.0
142
1.0
143
1.0
 70
1024
 72
1
 73
0
 74
0
  7

 75
0
147
1.0
148
0.0
149
0.0
100
AcDbLayout
  1
Model
 70
0
 71
0
 10
0.0
 20
0.0
 11
210.0
 21
297.0
 12
0.0
 22
0.0
 32
0.0
 14
0.0
 24
0.0
 34
0.0
 15
0.0
 25
0.0
 35
0.0
146
0.0
 13
0.0
 23
0.0
 33
0.0
 16
1.0
 26
0.0
 36
0.0
 17
0.0
 27
1.0
 37
0.0
 76
0
330
210
345
0
346
0
  0
LAYOUT
  5
334
102
{ACAD_REACTORS
330
1A
102
}
100
AcDbPlotSettings
  1

  2
none_device
  4

  6

 40
0.0
 41
0.0
 42
0.0
 43
0.0
 44
210.0
 45
297.0
 46
0.0
 47
0.0
 48
0.0
 49
0.0
140
0.0
141
0.0
142
1.0
143
1.0
 70
0
 72
1
 73
0
 74
0
  7

 75
0
147
1.0
148
0.0
149
0.0
100
AcDbLayout
  1
Layout1
 70
0
 71
1
 10
0.0
 20
0.0
 11
210.0
 21
297.0
 12
0.0
 22
0.0
 32
0.0
 14
0.0
 24
0.0
 34
0.0
 15
0.0
 25
0.0
 35
0.0
146
0.0
 13
0.0
 23
0.0
 33
0.0
 16
1.0
 26
0.0
 36
0.0
 17
0.0
 27
1.0
 37
0.0
 76
0
330
211
345
0
346
0
  0
ENDSEC
  0
EOF
