999
DXF file: C:\Users\sesa63760\Dev\_Creo\CAD\MCADID0004878_3D-CAD\drw0001_7.dxf
999
Pro/ENGINEER 2019471 by Parametric Technology Corporation
  0
SECTION
  2
HEADER
  9
$ACADVER
  1
AC1024
  9
$DWGCODEPAGE
  3
ANSI_1252
  9
$EXTMAX
 10
54.1639655659
 20
76.6033227289
 30
0.0
  9
$EXTMIN
 10
0.0
 20
0.0
 30
0.0
  9
$LIMMIN
 10
0.0
 20
0.0
  9
$LIMMAX
 10
54.1639655659
 20
76.6033227289
  9
$VIEWCTR
 10
27.0819827829
 20
38.3016613644
  9
$VIEWSIZE
 40
76.6033227289
  9
$CLAYER
  8
0
  9
$LTSCALE
 40
4.9934017779
  9
$CELTYPE
  6
BYLAYER
  9
$DIMSCALE
 40
1.0
  9
$DIMASZ
 40
0.6448091139
  9
$DIMEXO
 40
1.0
  9
$DIMDLI
 40
3.4499866829
  9
$DIMEXE
 40
1.0
  9
$DIMCEN
 40
0.8171021091
  9
$DIMLFAC
 40
1.0
  9
$DIMBLK
  1
_FILLED
  9
$DIMALT
 70
0
  9
$DIMALTF
 40
0.0393700787
  9
$DIMTXT
 40
0.9027327594
  9
$DIMTOL
 70
1
  9
$DIMLIM
 70
0
  9
$DIMTFAC
 40
1.0
  9
$DIMTP
 40
0.01
  9
$DIMTM
 40
0.01
  9
$DIMGAP
 40
0.625
  9
$DIMDSEP
 70
46
  9
$AUNITS
 70
0
  9
$PDMODE
 70
3
  9
$PDSIZE
 40
0.3125
  9
$HANDSEED
  5
530
  9
$TILEMODE
 70
1
  9
$MEASUREMENT
 70
1
  9
$INSUNITS
 70
4
  0
ENDSEC
  0
SECTION
  2
CLASSES
  0
CLASS
  1
ACDBDICTIONARYWDFLT
  2
AcDbDictionaryWithDefault
  3
AutoCAD 2000
 90
0
 91
1
280
0
281
0
  0
CLASS
  1
ACDBPLACEHOLDER
  2
AcDbPlaceHolder
  3
AutoCAD 2000
 90
0
 91
1
280
0
281
0
  0
CLASS
  1
LAYOUT
  2
AcDbLayout
  3
AutoCAD 2000
 90
0
 91
0
280
0
281
0
  0
ENDSEC
  0
SECTION
  2
TABLES
  0
TABLE
  2
VPORT
  5
8
100
AcDbSymbolTable
 70
2
  0
VPORT
  5
1F4
100
AcDbSymbolTableRecord
100
AcDbViewportTableRecord
  2
*ACTIVE
 70
0
 10
0.0
 20
0.0
 11
1.0
 21
1.0
 12
27.0819827829
 22
38.3016613644
 13
0.0
 23
0.0
 14
1.0
 24
1.0
 15
0.0
 25
0.0
 16
0.0
 26
0.0
 36
1.0
 17
0.0
 27
0.0
 37
0.0
 40
76.6033227289
 41
0.7070707071
 42
50.0
 43
0.0
 44
0.0
 50
0.0
 51
0.0
 71
0
 72
100
 73
1
 74
1
 75
0
 76
0
 77
0
 78
0
  0
ENDTAB
  0
TABLE
  2
LTYPE
  5
5
100
AcDbSymbolTable
 70
6
  0
LTYPE
  5
14
100
AcDbSymbolTableRecord
100
AcDbLinetypeTableRecord
  2
BYBLOCK
 70
0
  3

 72
65
 73
0
 40
0.0
  0
LTYPE
  5
15
100
AcDbSymbolTableRecord
100
AcDbLinetypeTableRecord
  2
BYLAYER
 70
0
  3

 72
65
 73
0
 40
0.0
  0
LTYPE
  5
16
100
AcDbSymbolTableRecord
100
AcDbLinetypeTableRecord
  2
CONTINUOUS
 70
64
  3
Solid line
 72
65
 73
0
 40
0.0
  0
LTYPE
  5
1F5
100
AcDbSymbolTableRecord
100
AcDbLinetypeTableRecord
  2
CENTER
 70
64
  3
____ _ ____ _ ____ _ ____ _ ____ _ ____ _ ____
 72
65
 73
4
 40
0.6
 49
0.375
 74
0
 49
-0.075
 74
0
 49
0.075
 74
0
 49
-0.075
 74
0
  0
LTYPE
  5
1F6
100
AcDbSymbolTableRecord
100
AcDbLinetypeTableRecord
  2
HIDDEN
 70
64
  3
- - - - - - - - - - - - - - - - - - - -
 72
65
 73
2
 40
0.2
 49
0.1
 74
0
 49
-0.1
 74
0
  0
LTYPE
  5
1F7
100
AcDbSymbolTableRecord
100
AcDbLinetypeTableRecord
  2
PHANTOM
 70
64
  3
_____ _ _ _____ _ _ _____ _ _ _____
 72
65
 73
6
 40
0.8
 49
0.45
 74
0
 49
-0.05
 74
0
 49
0.1
 74
0
 49
-0.05
 74
0
 49
0.1
 74
0
 49
-0.05
 74
0
  0
LTYPE
  5
1F8
100
AcDbSymbolTableRecord
100
AcDbLinetypeTableRecord
  2
DOT
 70
64
  3
. . . . . . . . . . . . . . . . . . . .
 72
65
 73
2
 40
0.2
 49
0.1
 74
0
 49
-0.1
 74
0
  0
LTYPE
  5
1F9
100
AcDbSymbolTableRecord
100
AcDbLinetypeTableRecord
  2
DASHED
 70
64
  3
- - - - - - - - - - - - - - - - - - - -
 72
65
 73
2
 40
0.2
 49
0.1
 74
0
 49
-0.1
 74
0
  0
ENDTAB
  0
TABLE
  2
LAYER
  5
2
100
AcDbSymbolTable
 70
36
  0
LAYER
  5
10
100
AcDbSymbolTableRecord
100
AcDbLayerTableRecord
  2
0
 70
0
 62
7
  6
CONTINUOUS
370
-3
390
F
  0
LAYER
  5
1FA
100
AcDbSymbolTableRecord
100
AcDbLayerTableRecord
  2
DEFAULT_1
 70
0
 62
7
  6
CENTER
370
-3
390
F
  0
LAYER
  5
1FB
100
AcDbSymbolTableRecord
100
AcDbLayerTableRecord
  2
DEFAULT_2
 70
0
 62
7
  6
HIDDEN
370
-3
390
F
  0
LAYER
  5
1FC
100
AcDbSymbolTableRecord
100
AcDbLayerTableRecord
  2
DEFAULT_3
 70
0
 62
7
  6
PHANTOM
370
-3
390
F
  0
LAYER
  5
1FD
100
AcDbSymbolTableRecord
100
AcDbLayerTableRecord
  2
00_COMPONENTS
 70
0
 62
7
  6
CONTINUOUS
370
-3
390
F
  0
LAYER
  5
1FE
100
AcDbSymbolTableRecord
100
AcDbLayerTableRecord
  2
01_1_DEFAULT_DATUMS
 70
0
 62
7
  6
CONTINUOUS
370
-3
390
F
  0
LAYER
  5
1FF
100
AcDbSymbolTableRecord
100
AcDbLayerTableRecord
  2
01_PLANES
 70
0
 62
7
  6
CONTINUOUS
370
-3
390
F
  0
LAYER
  5
200
100
AcDbSymbolTableRecord
100
AcDbLayerTableRecord
  2
02_COORD_SYS
 70
0
 62
7
  6
CONTINUOUS
370
-3
390
F
  0
LAYER
  5
201
100
AcDbSymbolTableRecord
100
AcDbLayerTableRecord
  2
03_AXES
 70
0
 62
7
  6
CONTINUOUS
370
-3
390
F
  0
LAYER
  5
202
100
AcDbSymbolTableRecord
100
AcDbLayerTableRecord
  2
04_POINTS
 70
0
 62
7
  6
CONTINUOUS
370
-3
390
F
  0
LAYER
  5
203
100
AcDbSymbolTableRecord
100
AcDbLayerTableRecord
  2
05_CURVES
 70
0
 62
7
  6
CONTINUOUS
370
-3
390
F
  0
LAYER
  5
204
100
AcDbSymbolTableRecord
100
AcDbLayerTableRecord
  2
06_SURFS
 70
0
 62
7
  6
CONTINUOUS
370
-3
390
F
  0
LAYER
  5
205
100
AcDbSymbolTableRecord
100
AcDbLayerTableRecord
  2
07_COSMETICS
 70
0
 62
7
  6
CONTINUOUS
370
-3
390
F
  0
LAYER
  5
206
100
AcDbSymbolTableRecord
100
AcDbLayerTableRecord
  2
10_NOTES
 70
0
 62
7
  6
CONTINUOUS
370
-3
390
F
  0
LAYER
  5
207
100
AcDbSymbolTableRecord
100
AcDbLayerTableRecord
  2
11_NOTES_PUB
 70
0
 62
7
  6
CONTINUOUS
370
-3
390
F
  0
LAYER
  5
208
100
AcDbSymbolTableRecord
100
AcDbLayerTableRecord
  2
13_REF_GTOL
 70
0
 62
7
  6
CONTINUOUS
370
-3
390
F
  0
LAYER
  5
209
100
AcDbSymbolTableRecord
100
AcDbLayerTableRecord
  2
16_MISC
 70
0
 62
7
  6
CONTINUOUS
370
-3
390
F
  0
LAYER
  5
20A
100
AcDbSymbolTableRecord
100
AcDbLayerTableRecord
  2
17_NO_PRINT
 70
0
 62
7
  6
CONTINUOUS
370
-3
390
F
  0
LAYER
  5
20B
100
AcDbSymbolTableRecord
100
AcDbLayerTableRecord
  2
18_DATUM_CAMS_JOINTS
 70
0
 62
7
  6
CONTINUOUS
370
-3
390
F
  0
LAYER
  5
20C
100
AcDbSymbolTableRecord
100
AcDbLayerTableRecord
  2
19_DATUM_FUNCTIONAL
 70
0
 62
7
  6
CONTINUOUS
370
-3
390
F
  0
LAYER
  5
20D
100
AcDbSymbolTableRecord
100
AcDbLayerTableRecord
  2
20_DATUM_KINEMATIC_SCHEME
 70
0
 62
7
  6
CONTINUOUS
370
-3
390
F
  0
ENDTAB
  0
TABLE
  2
STYLE
  5
3
100
AcDbSymbolTable
 70
1
  0
STYLE
  5
11
100
AcDbSymbolTableRecord
100
AcDbTextStyleTableRecord
  2
STANDARD
 70
0
 40
0.0
 41
1.0
 50
0.0
 71
0
 42
0.2
  3
ARIAL.TTF
  4

  0
STYLE
  5
20E
100
AcDbSymbolTableRecord
100
AcDbTextStyleTableRecord
  2
TEXTSTYLE_1
 70
0
 40
0.0
 41
0.8
 50
0.0
 71
0
 42
0.2
  3
gdt
  4

  0
ENDTAB
  0
TABLE
  2
VIEW
  5
6
100
AcDbSymbolTable
 70
0
  0
ENDTAB
  0
TABLE
  2
UCS
  5
7
100
AcDbSymbolTable
 70
0
  0
ENDTAB
  0
TABLE
  2
APPID
  5
9
100
AcDbSymbolTable
 70
1
  0
APPID
  5
20F
100
AcDbSymbolTableRecord
100
AcDbRegAppTableRecord
  2
ACAD
 70
0
  0
ENDTAB
  0
TABLE
  2
BLOCK_RECORD
  5
1
100
AcDbSymbolTable
 70
0
  0
BLOCK_RECORD
  5
210
100
AcDbSymbolTableRecord
100
AcDbBlockTableRecord
  2
*Model_Space
  0
BLOCK_RECORD
  5
211
100
AcDbSymbolTableRecord
100
AcDbBlockTableRecord
  2
*Paper_Space
  0
BLOCK_RECORD
  5
212
100
AcDbSymbolTableRecord
100
AcDbBlockTableRecord
  2
_FILLED
  0
ENDTAB
  0
TABLE
  2
DIMSTYLE
  5
A
100
AcDbSymbolTable
 70
1
100
AcDbDimStyleTable
 71
0
  0
DIMSTYLE
105
213
100
AcDbSymbolTableRecord
100
AcDbDimStyleTableRecord
  2
STANDARD
 70
0
  3

  4

 40
1.0
 41
0.6448091139
 42
1.0
 43
0.38
 44
1.0
 45
0.0
 46
0.0
 47
0.01
 48
0.01
140
0.9027327594
141
0.09
142
0.0
143
25.4
144
1.0
145
0.0
146
1.0
147
0.625
 71
1
 72
0
 73
0
 74
0
 75
0
 76
0
 77
1
 78
8
 79
2
170
0
171
1
172
0
173
0
174
0
175
0
176
0
177
0
178
0
270
2
179
2
271
2
272
2
273
2
274
2
275
0
280
0
281
0
282
0
283
1
284
8
285
0
286
0
287
3
288
0
340
11
278
46
341
212
342
212
343
212
344
212
  0
ENDTAB
  0
ENDSEC
  0
SECTION
  2
BLOCKS
  0
BLOCK
  5
20
100
AcDbEntity
  8
0
100
AcDbBlockBegin
  2
*Model_Space
 70
0
 10
0.0
 20
0.0
 30
0.0
  3
*Model_Space
  1

  0
ENDBLK
  5
21
100
AcDbEntity
  8
0
100
AcDbBlockEnd
  0
BLOCK
  5
1C
100
AcDbEntity
  8
0
100
AcDbBlockBegin
  2
*Paper_Space
 70
0
 10
0.0
 20
0.0
 30
0.0
  3
*Paper_Space
  1

  0
ENDBLK
  5
1D
100
AcDbEntity
  8
0
100
AcDbBlockEnd
  0
BLOCK
  5
214
100
AcDbEntity
  8
0
100
AcDbBlockBegin
  2
_FILLED
 70
64
 10
0.0
 20
0.0
  3
_FILLED
  1

  0
SOLID
  5
215
100
AcDbEntity
  8
0
  6
BYBLOCK
 62
0
100
AcDbTrace
 10
0.0
 20
0.0
 11
-1.0
 21
0.25
 12
-1.0
 22
-0.25
 13
-1.0
 23
-0.25
  0
ENDBLK
  5
216
100
AcDbEntity
  8
0
  6
BYBLOCK
 62
0
100
AcDbBlockEnd
  0
ENDSEC
  0
SECTION
  2
ENTITIES
  0
LINE
  5
217
100
AcDbEntity
  8
0
100
AcDbLine
 62
7
  6
BYLAYER
 10
5.7511921822
 20
41.2891806221
 11
5.7511921822
 21
35.6891866093
  0
LINE
  5
218
100
AcDbEntity
  8
0
100
AcDbLine
 62
7
  6
BYLAYER
 10
5.9511921822
 20
41.4891840461
 11
5.9511921822
 21
35.4891840461
  0
LINE
  5
219
100
AcDbEntity
  8
0
100
AcDbLine
 62
7
  6
BYLAYER
 10
7.3011921822
 20
39.5891840461
 11
7.3011921822
 21
37.3891840461
  0
LINE
  5
21A
100
AcDbEntity
  8
0
100
AcDbLine
 62
7
  6
BYLAYER
 10
7.5011921822
 20
39.7891840461
 11
7.5011921822
 21
37.1891840461
  0
LINE
  5
21B
100
AcDbEntity
  8
0
100
AcDbLine
 62
7
  6
BYLAYER
 10
10.3030734172
 20
39.0391840461
 11
10.3511921822
 21
38.4891840461
  0
LINE
  5
21C
100
AcDbEntity
  8
0
100
AcDbLine
 62
7
  6
BYLAYER
 10
9.8511921822
 20
38.4891840461
 11
9.9057351059
 21
32.2391840461
  0
LINE
  5
21D
100
AcDbEntity
  8
0
100
AcDbLine
 62
7
  6
BYLAYER
 10
9.8511921822
 20
38.4891840461
 11
9.8472650917
 21
38.9391840461
  0
LINE
  5
21E
100
AcDbEntity
  8
0
100
AcDbLine
 62
7
  6
BYLAYER
 10
10.6646266061
 20
38.4891840461
 11
10.7011921822
 21
34.2991840461
  0
LINE
  5
21F
100
AcDbEntity
  8
0
100
AcDbLine
 62
7
  6
BYLAYER
 10
10.9877577582
 20
34.2991840461
 11
11.0057351059
 21
32.2391840461
  0
LINE
  5
220
100
AcDbEntity
  8
0
100
AcDbLine
 62
7
  6
BYLAYER
 10
10.5511921822
 20
41.4891840461
 11
10.5511921822
 21
35.4891840461
  0
LINE
  5
221
100
AcDbEntity
  8
0
100
AcDbLine
 62
7
  6
BYLAYER
 10
10.7511921822
 20
42.6141840461
 11
10.7511921822
 21
34.3641840461
  0
LINE
  5
222
100
AcDbEntity
  8
0
100
AcDbLine
 62
7
  6
BYLAYER
 10
10.9511921822
 20
41.4891840461
 11
10.9511921822
 21
35.4891840461
  0
LINE
  5
223
100
AcDbEntity
  8
0
100
AcDbLine
 62
7
  6
BYLAYER
 10
9.9057351059
 20
44.7391840461
 11
9.8559919595
 21
39.0391840461
  0
LINE
  5
224
100
AcDbEntity
  8
0
100
AcDbLine
 62
7
  6
BYLAYER
 10
9.8551192727
 20
38.9391840461
 11
9.8511921822
 21
38.4891840461
  0
LINE
  5
225
100
AcDbEntity
  8
0
100
AcDbLine
 62
7
  6
BYLAYER
 10
10.7011921822
 20
42.6791840461
 11
10.6646266061
 21
38.4891840461
  0
LINE
  5
226
100
AcDbEntity
  8
0
100
AcDbLine
 62
7
  6
BYLAYER
 10
10.9877577582
 20
42.6791840461
 11
11.0057351059
 21
44.7391840461
  0
LINE
  5
227
100
AcDbEntity
  8
0
100
AcDbLine
 62
7
  6
BYLAYER
 10
12.3511921822
 20
41.4891840461
 11
12.3511921822
 21
35.4891840461
  0
LINE
  5
228
100
AcDbEntity
  8
0
100
AcDbLine
 62
7
  6
BYLAYER
 10
7.3011921822
 20
39.5891840461
 11
7.5011921822
 21
39.7891840461
  0
LINE
  5
229
100
AcDbEntity
  8
0
100
AcDbLine
 62
7
  6
BYLAYER
 10
7.3011921822
 20
37.3891840461
 11
7.5011921822
 21
37.1891840461
  0
LINE
  5
22A
100
AcDbEntity
  8
0
100
AcDbLine
 62
7
  6
BYLAYER
 10
12.5511921822
 20
41.2891840461
 11
12.5511921822
 21
35.6891840461
  0
LINE
  5
22B
100
AcDbEntity
  8
0
100
AcDbLine
 62
7
  6
BYLAYER
 10
13.1511921822
 20
39.7891840461
 11
13.1511921822
 21
37.1891840461
  0
LINE
  5
22C
100
AcDbEntity
  8
0
100
AcDbLine
 62
7
  6
BYLAYER
 10
16.6011921822
 20
34.2991840461
 11
16.6091450552
 21
33.3878750657
  0
LINE
  5
22D
100
AcDbEntity
  8
0
100
AcDbLine
 62
7
  6
BYLAYER
 10
16.6011921822
 20
42.6791840461
 11
16.6360276157
 21
38.687438739
  0
LINE
  5
22E
100
AcDbEntity
  8
0
100
AcDbLine
 62
7
  6
BYLAYER
 10
16.8011845668
 20
34.2991840461
 11
16.8091374398
 21
33.3878750657
  0
LINE
  5
22F
100
AcDbEntity
  8
0
100
AcDbLine
 62
7
  6
BYLAYER
 10
16.8011845668
 20
42.6791840461
 11
16.8360200003
 21
38.687438739
  0
LINE
  5
230
100
AcDbEntity
  8
0
100
AcDbLine
 62
7
  6
BYLAYER
 10
15.5511921822
 20
42.6141840461
 11
15.5511921822
 21
34.3641840461
  0
LINE
  5
231
100
AcDbEntity
  8
0
100
AcDbLine
 62
7
  6
BYLAYER
 10
16.8360200003
 20
38.687438739
 11
16.8360200003
 21
38.2909293532
  0
LINE
  5
232
100
AcDbEntity
  8
0
100
AcDbLine
 62
7
  6
BYLAYER
 10
16.6091450552
 20
43.5904930264
 11
16.6011921822
 21
42.6791840461
  0
LINE
  5
233
100
AcDbEntity
  8
0
100
AcDbLine
 62
7
  6
BYLAYER
 10
16.6360276157
 20
38.2909293532
 11
16.6011921822
 21
34.2991840461
  0
LINE
  5
234
100
AcDbEntity
  8
0
100
AcDbLine
 62
7
  6
BYLAYER
 10
16.8091374398
 20
43.5904930264
 11
16.8011845668
 21
42.679184046
  0
LINE
  5
235
100
AcDbEntity
  8
0
100
AcDbLine
 62
7
  6
BYLAYER
 10
16.8360200003
 20
38.2909293532
 11
16.8011845668
 21
34.2991840461
  0
LINE
  5
236
100
AcDbEntity
  8
0
100
AcDbLine
 62
7
  6
BYLAYER
 10
17.4840560785
 20
44.7391840461
 11
17.5142868353
 21
41.7391840461
  0
LINE
  5
237
100
AcDbEntity
  8
0
100
AcDbLine
 62
7
  6
BYLAYER
 10
17.8712995348
 20
41.2348206383
 11
17.8561142665
 21
43.5409293517
  0
LINE
  5
238
100
AcDbEntity
  8
0
100
AcDbLine
 62
7
  6
BYLAYER
 10
18.213267929
 20
41.2348207783
 11
18.2004354745
 21
43.5904930371
  0
LINE
  5
239
100
AcDbEntity
  8
0
100
AcDbLine
 62
7
  6
BYLAYER
 10
17.2690136506
 20
43.5904959906
 11
17.2797813813
 21
41.2348197561
  0
LINE
  5
23A
100
AcDbEntity
  8
0
100
AcDbLine
 62
7
  6
BYLAYER
 10
17.6011921822
 20
35.2391840461
 11
17.6011921822
 21
32.2391840461
  0
LINE
  5
23B
100
AcDbEntity
  8
0
100
AcDbLine
 62
7
  6
BYLAYER
 10
17.2690136506
 20
33.387872101
 11
17.2797819238
 21
35.7435487499
  0
LINE
  5
23C
100
AcDbEntity
  8
0
100
AcDbLine
 62
7
  6
BYLAYER
 10
18.2132679294
 20
35.743547395
 11
18.2004354745
 21
33.3878750681
  0
LINE
  5
23D
100
AcDbEntity
  8
0
100
AcDbLine
 62
7
  6
BYLAYER
 10
17.8712995329
 20
35.7435473138
 11
17.8557878984
 21
33.3878750637
  0
LINE
  5
23E
100
AcDbEntity
  8
0
100
AcDbLine
 62
7
  6
BYLAYER
 10
18.0511921822
 20
43.3391840461
 11
17.5417911054
 21
43.0450811973
  0
LINE
  5
23F
100
AcDbEntity
  8
0
100
AcDbLine
 62
7
  6
BYLAYER
 10
18.6676241303
 20
44.7391840461
 11
18.6827395087
 21
41.7391840461
  0
LINE
  5
240
100
AcDbEntity
  8
0
100
AcDbLine
 62
7
  6
BYLAYER
 10
18.6439225354
 20
36.2391840461
 11
18.6439225337
 21
33.3878751136
  0
LINE
  5
241
100
AcDbEntity
  8
0
100
AcDbLine
 62
7
  6
BYLAYER
 10
18.6439226016
 20
40.7391840461
 11
18.6439225366
 21
43.5409293517
  0
LINE
  5
242
100
AcDbEntity
  8
0
100
AcDbLine
 62
7
  6
BYLAYER
 10
18.8524429644
 20
41.2348207783
 11
18.8524429644
 21
40.7391840461
  0
LINE
  5
243
100
AcDbEntity
  8
0
100
AcDbLine
 62
7
  6
BYLAYER
 10
18.8524430408
 20
36.2391840461
 11
18.8524430408
 21
35.7435473138
  0
LINE
  5
244
100
AcDbEntity
  8
0
100
AcDbLine
 62
7
  6
BYLAYER
 10
18.852442964
 20
33.3878750681
 11
18.852442964
 21
35.743547395
  0
LINE
  5
245
100
AcDbEntity
  8
0
100
AcDbLine
 62
7
  6
BYLAYER
 10
18.8524429644
 20
41.2348207086
 11
18.8524429644
 21
43.5904929772
  0
LINE
  5
246
100
AcDbEntity
  8
0
100
AcDbLine
 62
7
  6
BYLAYER
 10
19.6011921822
 20
34.8391840461
 11
19.6011921822
 21
33.8538287656
  0
LINE
  5
247
100
AcDbEntity
  8
0
100
AcDbLine
 62
7
  6
BYLAYER
 10
20.4011921822
 20
34.8391840461
 11
20.9759827624
 21
33.8538287656
  0
LINE
  5
248
100
AcDbEntity
  8
0
100
AcDbLine
 62
7
  6
BYLAYER
 10
20.9759827624
 20
33.8538287656
 11
20.9809808546
 21
33.8452606076
  0
LINE
  5
249
100
AcDbEntity
  8
0
100
AcDbLine
 62
7
  6
BYLAYER
 10
20.1011921822
 20
34.8391840461
 11
20.1011921822
 21
33.8538287656
  0
LINE
  5
24A
100
AcDbEntity
  8
0
100
AcDbLine
 62
7
  6
BYLAYER
 10
20.8499413999
 20
43.5904929772
 11
20.8499413305
 21
40.7391840461
  0
LINE
  5
24B
100
AcDbEntity
  8
0
100
AcDbLine
 62
7
  6
BYLAYER
 10
20.8499413999
 20
36.2391840461
 11
20.8499414003
 21
33.3878750681
  0
LINE
  5
24C
100
AcDbEntity
  8
0
100
AcDbLine
 62
7
  6
BYLAYER
 10
21.1865047278
 20
36.4374387402
 11
21.1865047281
 21
40.5409293673
  0
LINE
  5
24D
100
AcDbEntity
  8
0
100
AcDbLine
 62
7
  6
BYLAYER
 10
21.034760234
 20
44.7391840461
 11
21.0196448556
 21
41.7391840461
  0
LWPOLYLINE
  5
24E
100
AcDbEntity
  8
0
100
AcDbPolyline
 62
7
  6
BYLAYER
 90
4
 70
0
 10
42.3526686173
 20
33.5348246975
 10
41.9590987979
 20
33.4944952868
 10
41.5620642478
 20
33.4939324115
 10
41.1655487673
 20
33.5337535478
  0
LINE
  5
24F
100
AcDbEntity
  8
0
100
AcDbLine
 62
7
  6
BYLAYER
 10
48.0998805864
 20
32.2391840461
 11
9.9057351059
 21
32.2391840461
  0
LINE
  5
250
100
AcDbEntity
  8
0
100
AcDbLine
 62
7
  6
BYLAYER
 10
48.1867013693
 20
32.7348207783
 11
23.0447053763
 21
32.7348207783
  0
LINE
  5
251
100
AcDbEntity
  8
0
100
AcDbLine
 62
7
  6
BYLAYER
 10
9.9014097496
 20
32.7348207783
 11
22.6007589582
 21
32.7348207783
  0
LINE
  5
252
100
AcDbEntity
  8
0
100
AcDbLine
 62
7
  6
BYLAYER
 10
22.5963155826
 20
38.4891840461
 11
22.5931354874
 21
38.9391840461
  0
LINE
  5
253
100
AcDbEntity
  8
0
100
AcDbLine
 62
7
  6
BYLAYER
 10
22.5924287996
 20
39.0391840461
 11
22.5556501983
 21
44.2435473138
  0
LINE
  5
254
100
AcDbEntity
  8
0
100
AcDbLine
 62
7
  6
BYLAYER
 10
21.4891164349
 20
35.7435473138
 11
21.5019488895
 21
33.3878750489
  0
LINE
  5
255
100
AcDbEntity
  8
0
100
AcDbLine
 62
7
  6
BYLAYER
 10
22.4333707137
 20
33.387872101
 11
22.42260042
 21
35.7435508042
  0
LINE
  5
256
100
AcDbEntity
  8
0
100
AcDbLine
 62
7
  6
BYLAYER
 10
21.5511921822
 20
40.8891840461
 11
21.5511921822
 21
40.3891840461
  0
LINE
  5
257
100
AcDbEntity
  8
0
100
AcDbLine
 62
7
  6
BYLAYER
 10
21.5511921822
 20
36.5891840461
 11
21.5511921822
 21
36.0891840461
  0
LINE
  5
258
100
AcDbEntity
  8
0
100
AcDbLine
 62
7
  6
BYLAYER
 10
22.1011921822
 20
35.2391840461
 11
22.1011921822
 21
32.2391840461
  0
LINE
  5
259
100
AcDbEntity
  8
0
100
AcDbLine
 62
7
  6
BYLAYER
 10
22.5556501983
 20
44.7391840461
 11
22.5556501983
 21
44.2435473138
  0
LINE
  5
25A
100
AcDbEntity
  8
0
100
AcDbLine
 62
7
  6
BYLAYER
 10
22.5556501983
 20
32.7348207783
 11
22.5556501983
 21
32.2391840461
  0
LINE
  5
25B
100
AcDbEntity
  8
0
100
AcDbLine
 62
7
  6
BYLAYER
 10
22.6007563549
 20
44.2435472613
 11
22.6007563549
 21
44.7391840461
  0
LINE
  5
25C
100
AcDbEntity
  8
0
100
AcDbLine
 62
7
  6
BYLAYER
 10
22.6007589582
 20
32.7348207783
 11
22.6007589582
 21
32.2391840461
  0
LINE
  5
25D
100
AcDbEntity
  8
0
100
AcDbLine
 62
7
  6
BYLAYER
 10
22.4226004103
 20
41.2348157771
 11
22.4333707137
 21
43.5904959846
  0
LINE
  5
25E
100
AcDbEntity
  8
0
100
AcDbLine
 62
7
  6
BYLAYER
 10
21.4891164348
 20
41.2348207086
 11
21.5019488893
 21
43.5904929772
  0
LINE
  5
25F
100
AcDbEntity
  8
0
100
AcDbLine
 62
7
  6
BYLAYER
 10
22.5556501983
 20
32.7348207783
 11
22.5963155842
 21
38.4891842663
  0
LINE
  5
260
100
AcDbEntity
  8
0
100
AcDbLine
 62
7
  6
BYLAYER
 10
22.2183282859
 20
44.7391840461
 11
22.188097529
 21
41.7391840461
  0
LINE
  5
261
100
AcDbEntity
  8
0
100
AcDbLine
 62
7
  6
BYLAYER
 10
19.3011921822
 20
34.8391840461
 11
18.7264016019
 21
33.8538287656
  0
LINE
  5
262
100
AcDbEntity
  8
0
100
AcDbLine
 62
7
  6
BYLAYER
 10
18.7214035097
 20
33.8452606076
 11
18.7264016019
 21
33.8538287656
  0
LINE
  5
263
100
AcDbEntity
  8
0
100
AcDbLine
 62
7
  6
BYLAYER
 10
46.9320614763
 20
33.2391840461
 11
37.056700511
 21
33.2391840461
  0
LINE
  5
264
100
AcDbEntity
  8
0
100
AcDbLine
 62
7
  6
BYLAYER
 10
32.5790443921
 20
33.2391840461
 11
16.7591393436
 21
33.2391840461
  0
LINE
  5
265
100
AcDbEntity
  8
0
100
AcDbLine
 62
7
  6
BYLAYER
 10
32.5790443921
 20
33.2391840461
 11
37.056700511
 21
33.2391840461
  0
LINE
  5
266
100
AcDbEntity
  8
0
100
AcDbLine
 62
7
  6
BYLAYER
 10
24.3975578865
 20
33.3832312972
 11
27.3048264606
 21
33.3834580822
  0
LINE
  5
267
100
AcDbEntity
  8
0
100
AcDbLine
 62
7
  6
BYLAYER
 10
17.2690131782
 20
33.3878750657
 11
16.8091374398
 21
33.3878750657
  0
LINE
  5
268
100
AcDbEntity
  8
0
100
AcDbLine
 62
7
  6
BYLAYER
 10
17.6795842017
 20
33.3878750637
 11
23.991908825
 21
33.3878750657
  0
LINE
  5
269
100
AcDbEntity
  8
0
100
AcDbLine
 62
7
  6
BYLAYER
 10
27.5045111289
 20
33.3878750658
 11
27.7104755393
 21
33.3878750657
  0
LINE
  5
26A
100
AcDbEntity
  8
0
100
AcDbLine
 62
7
  6
BYLAYER
 10
32.2014868726
 20
33.3878750657
 11
32.2464180553
 21
33.3878750658
  0
LINE
  5
26B
100
AcDbEntity
  8
0
100
AcDbLine
 62
7
  6
BYLAYER
 10
27.7104755393
 20
33.3878750657
 11
32.2014868726
 21
33.3878750657
  0
LINE
  5
26C
100
AcDbEntity
  8
0
100
AcDbLine
 62
7
  6
BYLAYER
 10
33.4861426696
 20
33.3878750657
 11
37.2066737331
 21
33.3878750657
  0
LINE
  5
26D
100
AcDbEntity
  8
0
100
AcDbLine
 62
7
  6
BYLAYER
 10
46.1775678223
 20
33.3878750537
 11
46.6695170868
 21
33.3878750657
  0
LINE
  5
26E
100
AcDbEntity
  8
0
100
AcDbLine
 62
7
  6
BYLAYER
 10
46.7165581402
 20
33.3878749244
 11
47.0818045106
 21
33.3878749244
  0
LINE
  5
26F
100
AcDbEntity
  8
0
100
AcDbLine
 62
7
  6
BYLAYER
 10
27.5045111291
 20
33.3878752026
 11
24.1586744407
 21
33.3878750605
  0
LINE
  5
270
100
AcDbEntity
  8
0
100
AcDbLine
 62
7
  6
BYLAYER
 10
37.2066737331
 20
33.3878750657
 11
46.1775678223
 21
33.3878750537
  0
LINE
  5
271
100
AcDbEntity
  8
0
100
AcDbLine
 62
7
  6
BYLAYER
 10
32.8917058027
 20
33.4891840461
 11
33.8214988636
 21
33.4891840461
  0
LINE
  5
272
100
AcDbEntity
  8
0
100
AcDbLine
 62
7
  6
BYLAYER
 10
41.7549545865
 20
33.4891840461
 11
42.6847686407
 21
33.4891840461
  0
LINE
  5
273
100
AcDbEntity
  8
0
100
AcDbLine
 62
7
  6
BYLAYER
 10
19.4770264435
 20
33.6709826636
 11
19.6011921822
 21
33.6709826636
  0
LINE
  5
274
100
AcDbEntity
  8
0
100
AcDbLine
 62
7
  6
BYLAYER
 10
20.1011921822
 20
33.6709826636
 11
20.2253579209
 21
33.6709826636
  0
LINE
  5
275
100
AcDbEntity
  8
0
100
AcDbLine
 62
7
  6
BYLAYER
 10
41.4770264435
 20
33.6709826636
 11
41.6011921822
 21
33.6709826636
  0
LINE
  5
276
100
AcDbEntity
  8
0
100
AcDbLine
 62
7
  6
BYLAYER
 10
42.1011921822
 20
33.6709826636
 11
42.2253579209
 21
33.6709826636
  0
LINE
  5
277
100
AcDbEntity
  8
0
100
AcDbLine
 62
7
  6
BYLAYER
 10
24.1935671906
 20
38.687438739
 11
23.9919088238
 21
43.5904930264
  0
LINE
  5
278
100
AcDbEntity
  8
0
100
AcDbLine
 62
7
  6
BYLAYER
 10
23.0447053762
 20
44.2435473138
 11
23.0814839776
 21
39.0391840461
  0
LINE
  5
279
100
AcDbEntity
  8
0
100
AcDbLine
 62
7
  6
BYLAYER
 10
23.0853707606
 20
38.4891840436
 11
23.0821906654
 21
38.9391840461
  0
LINE
  5
27A
100
AcDbEntity
  8
0
100
AcDbLine
 62
7
  6
BYLAYER
 10
23.8864108379
 20
43.5409293519
 11
23.8923674683
 21
41.2348207477
  0
LINE
  5
27B
100
AcDbEntity
  8
0
100
AcDbLine
 62
7
  6
BYLAYER
 10
23.1511981824
 20
40.1928446394
 11
23.1511981824
 21
36.7855234527
  0
LINE
  5
27C
100
AcDbEntity
  8
0
100
AcDbLine
 62
7
  6
BYLAYER
 10
23.8923674684
 20
41.2348207783
 11
23.8923674684
 21
41.0431342092
  0
LINE
  5
27D
100
AcDbEntity
  8
0
100
AcDbLine
 62
7
  6
BYLAYER
 10
23.8923674683
 20
35.9352359605
 11
23.8923674683
 21
35.7435473138
  0
LINE
  5
27E
100
AcDbEntity
  8
0
100
AcDbLine
 62
7
  6
BYLAYER
 10
24.1935671943
 20
38.2909293532
 11
24.1935671906
 21
38.687438739
  0
LINE
  5
27F
100
AcDbEntity
  8
0
100
AcDbLine
 62
7
  6
BYLAYER
 10
23.8923674683
 20
35.7435473151
 11
23.8862826717
 21
33.3878750624
  0
LINE
  5
280
100
AcDbEntity
  8
0
100
AcDbLine
 62
7
  6
BYLAYER
 10
23.0853707621
 20
38.4891842663
 11
23.0447053763
 21
32.7348207783
  0
LINE
  5
281
100
AcDbEntity
  8
0
100
AcDbLine
 62
7
  6
BYLAYER
 10
23.991908825
 20
33.3878750657
 11
24.193567195
 21
38.2909293532
  0
LWPOLYLINE
  5
282
100
AcDbEntity
  8
0
100
AcDbPolyline
 62
7
  6
BYLAYER
 90
6
 70
0
 10
23.239921296
 20
39.0395765998
 10
23.2907430482
 20
39.7671132876
 10
23.3834883073
 20
40.3768979238
 10
23.5006642902
 20
40.7965577027
 10
23.5984405934
 20
40.9814624894
 10
23.5822061127
 20
40.9891837843
  0
LINE
  5
283
100
AcDbEntity
  8
0
100
AcDbLine
 62
7
  6
BYLAYER
 10
16.8011845668
 20
34.2991840461
 11
16.6011921822
 21
34.2991840461
  0
LINE
  5
284
100
AcDbEntity
  8
0
100
AcDbLine
 62
7
  6
BYLAYER
 10
16.6011921822
 20
34.2991840461
 11
10.7011921822
 21
34.2991840461
  0
LINE
  5
285
100
AcDbEntity
  8
0
100
AcDbLine
 62
7
  6
BYLAYER
 10
43.8511921822
 20
34.3411848467
 11
39.8511921822
 21
34.3411848467
  0
LINE
  5
286
100
AcDbEntity
  8
0
100
AcDbLine
 62
7
  6
BYLAYER
 10
21.8511921822
 20
34.3411848467
 11
17.8511921822
 21
34.3411848467
  0
LINE
  5
287
100
AcDbEntity
  8
0
100
AcDbLine
 62
7
  6
BYLAYER
 10
42.1011921822
 20
34.8391840461
 11
41.6011921822
 21
34.8391840461
  0
LINE
  5
288
100
AcDbEntity
  8
0
100
AcDbLine
 62
7
  6
BYLAYER
 10
20.1011921822
 20
34.8391840461
 11
19.6011921822
 21
34.8391840461
  0
LINE
  5
289
100
AcDbEntity
  8
0
100
AcDbLine
 62
7
  6
BYLAYER
 10
44.1011921822
 20
35.2391840461
 11
39.6011921822
 21
35.2391840461
  0
LINE
  5
28A
100
AcDbEntity
  8
0
100
AcDbLine
 62
7
  6
BYLAYER
 10
22.1011921822
 20
35.2391840461
 11
17.6011921822
 21
35.2391840461
  0
LINE
  5
28B
100
AcDbEntity
  8
0
100
AcDbLine
 62
7
  6
BYLAYER
 10
12.3511921822
 20
35.4891840461
 11
10.9511921822
 21
35.4891840461
  0
LINE
  5
28C
100
AcDbEntity
  8
0
100
AcDbLine
 62
7
  6
BYLAYER
 10
10.5511921822
 20
35.4891840461
 11
5.9511921822
 21
35.4891840461
  0
LWPOLYLINE
  5
28D
100
AcDbEntity
  8
0
100
AcDbPolyline
 62
7
  6
BYLAYER
 90
5
 70
0
 10
23.5826709362
 20
35.9891851254
 10
23.5642276348
 20
36.0462040297
 10
23.399992446
 20
36.5255876715
 10
23.272049718
 20
37.4044964652
 10
23.2326628468
 20
38.4892524783
  0
LINE
  5
28E
100
AcDbEntity
  8
0
100
AcDbLine
 62
7
  6
BYLAYER
 10
24.4556854191
 20
38.9391840461
 11
24.4595266932
 21
38.4891840461
  0
LINE
  5
28F
100
AcDbEntity
  8
0
100
AcDbLine
 62
7
  6
BYLAYER
 10
24.4555262741
 20
39.0391840461
 11
24.4174702809
 21
44.2435473361
  0
LINE
  5
290
100
AcDbEntity
  8
0
100
AcDbLine
 62
7
  6
BYLAYER
 10
24.459526693
 20
38.4891840461
 11
24.4104065
 21
32.7348207834
  0
LINE
  5
291
100
AcDbEntity
  8
0
100
AcDbLine
 62
7
  6
BYLAYER
 10
23.8923674683
 20
35.7435473138
 11
18.852442964
 21
35.743547395
  0
LINE
  5
292
100
AcDbEntity
  8
0
100
AcDbLine
 62
7
  6
BYLAYER
 10
18.852442964
 20
35.743547395
 11
18.2132679294
 21
35.743547395
  0
LINE
  5
293
100
AcDbEntity
  8
0
100
AcDbLine
 62
7
  6
BYLAYER
 10
17.8712995329
 20
35.7435473138
 11
18.2132679289
 21
35.7435473138
  0
LINE
  5
294
100
AcDbEntity
  8
0
100
AcDbLine
 62
7
  6
BYLAYER
 10
17.69133256
 20
35.7435473138
 11
17.8712995329
 21
35.7435473138
  0
LINE
  5
295
100
AcDbEntity
  8
0
100
AcDbLine
 62
7
  6
BYLAYER
 10
21.5511921822
 20
36.0891840461
 11
15.5511921822
 21
36.0891840461
  0
LINE
  5
296
100
AcDbEntity
  8
0
100
AcDbLine
 62
7
  6
BYLAYER
 10
31.702551027
 20
36.2341840461
 11
22.1208710957
 21
36.2341840461
  0
LINE
  5
297
100
AcDbEntity
  8
0
100
AcDbLine
 62
7
  6
BYLAYER
 10
18.3160808672
 20
36.2391840461
 11
22.2397955853
 21
36.2391840461
  0
LINE
  5
298
100
AcDbEntity
  8
0
100
AcDbLine
 62
7
  6
BYLAYER
 10
18.3160808672
 20
36.437438739
 11
22.2796747027
 21
36.4374387402
  0
LINE
  5
299
100
AcDbEntity
  8
0
100
AcDbLine
 62
7
  6
BYLAYER
 10
36.9564068866
 20
36.4891840461
 11
38.6276543891
 21
36.4891840456
  0
LINE
  5
29A
100
AcDbEntity
  8
0
100
AcDbLine
 62
7
  6
BYLAYER
 10
21.5511921822
 20
36.5891840461
 11
15.5511921822
 21
36.5891840461
  0
LINE
  5
29B
100
AcDbEntity
  8
0
100
AcDbLine
 62
7
  6
BYLAYER
 10
45.5631764186
 20
36.7348207783
 11
45.2710731807
 21
36.7348207783
  0
LINE
  5
29C
100
AcDbEntity
  8
0
100
AcDbLine
 62
7
  6
BYLAYER
 10
44.3921036816
 20
36.7348207783
 11
43.5022077494
 21
36.7348207783
  0
LINE
  5
29D
100
AcDbEntity
  8
0
100
AcDbLine
 62
7
  6
BYLAYER
 10
43.2118110788
 20
36.7348207783
 11
42.0736612765
 21
36.7348207783
  0
LINE
  5
29E
100
AcDbEntity
  8
0
100
AcDbLine
 62
7
  6
BYLAYER
 10
13.1511921822
 20
37.1891840461
 11
7.5011921822
 21
37.1891840461
  0
LINE
  5
29F
100
AcDbEntity
  8
0
100
AcDbLine
 62
7
  6
BYLAYER
 10
26.6841597116
 20
38.687438739
 11
26.6418039407
 21
43.5409293475
  0
LINE
  5
2A0
100
AcDbEntity
  8
0
100
AcDbLine
 62
7
  6
BYLAYER
 10
26.6841597116
 20
38.2909293532
 11
26.6413714063
 21
33.3878752026
  0
LINE
  5
2A1
100
AcDbEntity
  8
0
100
AcDbLine
 62
7
  6
BYLAYER
 10
43.9206100666
 20
37.2348207006
 11
39.7817742978
 21
37.2348207006
  0
LINE
  5
2A2
100
AcDbEntity
  8
0
100
AcDbLine
 62
7
  6
BYLAYER
 10
10.5511921822
 20
37.2951154277
 11
5.9511921822
 21
37.2951154277
  0
LINE
  5
2A3
100
AcDbEntity
  8
0
100
AcDbLine
 62
7
  6
BYLAYER
 10
46.7542727359
 20
38.290929216
 11
47.126773155
 21
38.290929216
  0
LINE
  5
2A4
100
AcDbEntity
  8
0
100
AcDbLine
 62
7
  6
BYLAYER
 10
40.7225523067
 20
38.2909292396
 11
39.4295047472
 21
38.2909292396
  0
LINE
  5
2A5
100
AcDbEntity
  8
0
100
AcDbLine
 62
7
  6
BYLAYER
 10
27.5119412403
 20
38.2909293532
 11
27.5540605448
 21
38.2909293532
  0
LINE
  5
2A6
100
AcDbEntity
  8
0
100
AcDbLine
 62
7
  6
BYLAYER
 10
27.5540605448
 20
38.2909293532
 11
34.16989947
 21
38.2909293532
  0
LINE
  5
2A7
100
AcDbEntity
  8
0
100
AcDbLine
 62
7
  6
BYLAYER
 10
39.4295047472
 20
38.2909292396
 11
34.5102677111
 21
38.2909291975
  0
LINE
  5
2A8
100
AcDbEntity
  8
0
100
AcDbLine
 62
7
  6
BYLAYER
 10
27.5119412403
 20
38.2909293532
 11
16.8360200003
 21
38.2909293532
  0
LINE
  5
2A9
100
AcDbEntity
  8
0
100
AcDbLine
 62
7
  6
BYLAYER
 10
46.226705389
 20
38.2909293371
 11
40.7225523001
 21
38.290929276
  0
LINE
  5
2AA
100
AcDbEntity
  8
0
100
AcDbLine
 62
7
  6
BYLAYER
 10
27.1150301707
 20
38.2967841836
 11
24.5873523273
 21
38.2967427764
  0
LINE
  5
2AB
100
AcDbEntity
  8
0
100
AcDbLine
 62
7
  6
BYLAYER
 10
47.0417287995
 20
38.3431278822
 11
46.7832491354
 21
38.3431278822
  0
LINE
  5
2AC
100
AcDbEntity
  8
0
100
AcDbLine
 62
7
  6
BYLAYER
 10
29.0604918851
 20
38.3431278822
 11
29.3189715491
 21
38.3431278822
  0
LINE
  5
2AD
100
AcDbEntity
  8
0
100
AcDbLine
 62
7
  6
BYLAYER
 10
23.8785702086
 20
38.4475173794
 11
24.1799782021
 21
38.4475173794
  0
LINE
  5
2AE
100
AcDbEntity
  8
0
100
AcDbLine
 62
7
  6
BYLAYER
 10
33.7912920933
 20
38.4482576309
 11
33.3543787861
 21
38.4482576309
  0
LINE
  5
2AF
100
AcDbEntity
  8
0
100
AcDbLine
 62
7
  6
BYLAYER
 10
48.1871175823
 20
38.4891840463
 11
48.1504504785
 21
38.4891840461
  0
LINE
  5
2B0
100
AcDbEntity
  8
0
100
AcDbLine
 62
7
  6
BYLAYER
 10
48.1504504785
 20
38.4891840461
 11
9.8511921822
 21
38.4891840461
  0
LINE
  5
2B1
100
AcDbEntity
  8
0
100
AcDbLine
 62
7
  6
BYLAYER
 10
29.3147269829
 20
38.6352402099
 11
29.0864636721
 21
38.6352402099
  0
LINE
  5
2B2
100
AcDbEntity
  8
0
100
AcDbLine
 62
7
  6
BYLAYER
 10
46.8092209224
 20
38.6352402099
 11
47.0374842332
 21
38.6352402099
  0
LINE
  5
2B3
100
AcDbEntity
  8
0
100
AcDbLine
 62
7
  6
BYLAYER
 10
24.5873620665
 20
38.681590924
 11
27.1150236853
 21
38.6816027427
  0
LINE
  5
2B4
100
AcDbEntity
  8
0
100
AcDbLine
 62
7
  6
BYLAYER
 10
39.4295047494
 20
38.687438674
 11
34.5102651035
 21
38.687438739
  0
LINE
  5
2B5
100
AcDbEntity
  8
0
100
AcDbLine
 62
7
  6
BYLAYER
 10
34.1699028465
 20
38.687438739
 11
27.5088171741
 21
38.687438739
  0
LINE
  5
2B6
100
AcDbEntity
  8
0
100
AcDbLine
 62
7
  6
BYLAYER
 10
16.8360200003
 20
38.687438739
 11
27.4461596587
 21
38.687438739
  0
LINE
  5
2B7
100
AcDbEntity
  8
0
100
AcDbLine
 62
7
  6
BYLAYER
 10
46.2267054088
 20
38.6874387572
 11
40.7225523005
 21
38.6874387572
  0
LINE
  5
2B8
100
AcDbEntity
  8
0
100
AcDbLine
 62
7
  6
BYLAYER
 10
47.365572055
 20
38.687438739
 11
46.9206665766
 21
38.6874387414
  0
LINE
  5
2B9
100
AcDbEntity
  8
0
100
AcDbLine
 62
7
  6
BYLAYER
 10
39.4295047483
 20
38.6874388443
 11
40.7225522999
 21
38.6874388443
  0
LINE
  5
2BA
100
AcDbEntity
  8
0
100
AcDbLine
 62
7
  6
BYLAYER
 10
46.9206665766
 20
38.6874387414
 11
46.7542727357
 21
38.6874388759
  0
LINE
  5
2BB
100
AcDbEntity
  8
0
100
AcDbLine
 62
7
  6
BYLAYER
 10
24.3760969289
 20
38.4891839821
 11
24.2102426164
 21
38.4905399598
  0
LWPOLYLINE
  5
2BC
100
AcDbEntity
  8
0
100
AcDbPolyline
 62
7
  6
BYLAYER
 90
4
 70
0
 10
31.7016374071
 20
36.2341272177
 10
31.3108885885
 20
36.3404115746
 10
31.0635874434
 20
36.6106389894
 10
30.9062838684
 20
37.0152301844
  0
LINE
  5
2BD
100
AcDbEntity
  8
0
100
AcDbLine
 62
7
  6
BYLAYER
 10
27.5088171693
 20
38.2909293532
 11
27.7104755393
 21
33.3878750657
  0
LINE
  5
2BE
100
AcDbEntity
  8
0
100
AcDbLine
 62
7
  6
BYLAYER
 10
28.4621199723
 20
41.0378634916
 11
28.4889851738
 21
38.4891840461
  0
LINE
  5
2BF
100
AcDbEntity
  8
0
100
AcDbLine
 62
7
  6
BYLAYER
 10
28.8094163277
 20
41.0378634916
 11
28.8362815914
 21
38.4891840461
  0
LINE
  5
2C0
100
AcDbEntity
  8
0
100
AcDbLine
 62
7
  6
BYLAYER
 10
27.6353454428
 20
44.2435473138
 11
27.6734014358
 21
39.0391840461
  0
LINE
  5
2C1
100
AcDbEntity
  8
0
100
AcDbLine
 62
7
  6
BYLAYER
 10
28.2766187021
 20
41.0378605174
 11
28.2946604837
 21
38.4891839605
  0
LINE
  5
2C2
100
AcDbEntity
  8
0
100
AcDbLine
 62
7
  6
BYLAYER
 10
28.4684232489
 20
38.4891839107
 11
28.4504562691
 21
41.0378615029
  0
LINE
  5
2C3
100
AcDbEntity
  8
0
100
AcDbLine
 62
7
  6
BYLAYER
 10
28.6388742554
 20
38.4891840461
 11
28.6219313613
 21
41.0378634916
  0
LINE
  5
2C4
100
AcDbEntity
  8
0
100
AcDbLine
 62
7
  6
BYLAYER
 10
27.5045862379
 20
43.5409293475
 11
27.5080638093
 21
41.2461157028
  0
LINE
  5
2C5
100
AcDbEntity
  8
0
100
AcDbLine
 62
7
  6
BYLAYER
 10
27.5088171741
 20
38.687438739
 11
27.5088171694
 21
38.2909293532
  0
LINE
  5
2C6
100
AcDbEntity
  8
0
100
AcDbLine
 62
7
  6
BYLAYER
 10
27.7611731482
 20
38.9391840461
 11
27.7611731482
 21
38.4891840461
  0
LINE
  5
2C7
100
AcDbEntity
  8
0
100
AcDbLine
 62
7
  6
BYLAYER
 10
27.5119412404
 20
38.2909293734
 11
27.5045111291
 21
33.3878752026
  0
LINE
  5
2C8
100
AcDbEntity
  8
0
100
AcDbLine
 62
7
  6
BYLAYER
 10
27.668804197
 20
32.7348207834
 11
27.6768424534
 21
38.9391840461
  0
LINE
  5
2C9
100
AcDbEntity
  8
0
100
AcDbLine
 62
7
  6
BYLAYER
 10
28.6883502137
 20
40.9462086381
 11
28.6767653623
 21
38.4887175279
  0
LINE
  5
2CA
100
AcDbEntity
  8
0
100
AcDbLine
 62
7
  6
BYLAYER
 10
27.7077833334
 20
41.0909295869
 11
27.6909808861
 21
38.687439417
  0
LINE
  5
2CB
100
AcDbEntity
  8
0
100
AcDbLine
 62
7
  6
BYLAYER
 10
28.5540956361
 20
38.4885796886
 11
28.5762258279
 21
40.9462087374
  0
LINE
  5
2CC
100
AcDbEntity
  8
0
100
AcDbLine
 62
7
  6
BYLAYER
 10
27.7312875967
 20
38.6347033545
 11
27.7555827448
 21
41.0378575428
  0
LINE
  5
2CD
100
AcDbEntity
  8
0
100
AcDbLine
 62
7
  6
BYLAYER
 10
27.8529565205
 20
38.6347033579
 11
27.8772516986
 21
41.0378605142
  0
LINE
  5
2CE
100
AcDbEntity
  8
0
100
AcDbLine
 62
7
  6
BYLAYER
 10
27.7104755405
 20
43.5904930264
 11
27.5088171738
 21
38.687438739
  0
LINE
  5
2CF
100
AcDbEntity
  8
0
100
AcDbLine
 62
7
  6
BYLAYER
 10
9.8472650917
 20
38.9391840461
 11
30.5307659472
 21
38.93918384
  0
LINE
  5
2D0
100
AcDbEntity
  8
0
100
AcDbLine
 62
7
  6
BYLAYER
 10
33.7130194556
 20
38.9391840461
 11
48.6002806808
 21
38.9391832594
  0
LINE
  5
2D1
100
AcDbEntity
  8
0
100
AcDbLine
 62
7
  6
BYLAYER
 10
48.6002670394
 20
39.0391837835
 11
34.0568620361
 21
39.0391837835
  0
LINE
  5
2D2
100
AcDbEntity
  8
0
100
AcDbLine
 62
7
  6
BYLAYER
 10
9.8559919595
 20
39.0391840461
 11
29.4235005158
 21
39.0391840461
  0
LINE
  5
2D3
100
AcDbEntity
  8
0
100
AcDbLine
 62
7
  6
BYLAYER
 10
30.1129014596
 20
39.0391840485
 11
30.283187519
 21
39.0391840485
  0
LINE
  5
2D4
100
AcDbEntity
  8
0
100
AcDbLine
 62
7
  6
BYLAYER
 10
33.8740393728
 20
39.0391855837
 11
33.4568295235
 21
39.0391855837
  0
LINE
  5
2D5
100
AcDbEntity
  8
0
100
AcDbLine
 62
7
  6
BYLAYER
 10
13.1511921822
 20
39.7891840461
 11
7.5011921822
 21
39.7891840461
  0
LINE
  5
2D6
100
AcDbEntity
  8
0
100
AcDbLine
 62
7
  6
BYLAYER
 10
21.6511921822
 20
43.3391840461
 11
22.1605932589
 21
43.0450811973
  0
LINE
  5
2D7
100
AcDbEntity
  8
0
100
AcDbLine
 62
7
  6
BYLAYER
 10
29.5195693594
 20
35.3872739057
 11
29.4130699784
 21
40.1533819134
  0
LINE
  5
2D8
100
AcDbEntity
  8
0
100
AcDbLine
 62
7
  6
BYLAYER
 10
29.8668657074
 20
35.3872742355
 11
29.7603663338
 21
40.1533819134
  0
LINE
  5
2D9
100
AcDbEntity
  8
0
100
AcDbLine
 62
7
  6
BYLAYER
 10
28.8592979838
 20
41.0378575412
 11
28.8835610669
 21
38.6378750555
  0
LINE
  5
2DA
100
AcDbEntity
  8
0
100
AcDbLine
 62
7
  6
BYLAYER
 10
28.980890174
 20
41.0378615033
 11
29.0052303702
 21
38.6378750555
  0
LINE
  5
2DB
100
AcDbEntity
  8
0
100
AcDbLine
 62
7
  6
BYLAYER
 10
28.9848795342
 20
38.4893288568
 11
28.9669648355
 21
41.0355659156
  0
LINE
  5
2DC
100
AcDbEntity
  8
0
100
AcDbLine
 62
7
  6
BYLAYER
 10
29.0356472095
 20
40.9462078578
 11
29.0240061375
 21
38.4891853096
  0
LINE
  5
2DD
100
AcDbEntity
  8
0
100
AcDbLine
 62
7
  6
BYLAYER
 10
28.9013914603
 20
38.4887174509
 11
28.9235221832
 21
40.9462087374
  0
LWPOLYLINE
  5
2DE
100
AcDbEntity
  8
0
100
AcDbPolyline
 62
7
  6
BYLAYER
 90
4
 70
0
 10
30.4793561767
 20
39.0390852857
 10
30.5533247733
 20
39.4941661092
 10
30.6629888681
 20
39.9424960664
 10
30.7868905647
 20
40.3400672504
  0
LWPOLYLINE
  5
2DF
100
AcDbEntity
  8
0
100
AcDbPolyline
 62
7
  6
BYLAYER
 90
4
 70
0
 10
30.7869662596
 20
40.3401812989
 10
30.9520828869
 20
40.6746432195
 10
31.2074203609
 20
40.9021625706
 10
31.5894200646
 20
40.9892429493
  0
LINE
  5
2E0
100
AcDbEntity
  8
0
100
AcDbLine
 62
7
  6
BYLAYER
 10
43.9468668256
 20
40.2435472702
 11
39.7555175388
 21
40.2435472702
  0
LINE
  5
2E1
100
AcDbEntity
  8
0
100
AcDbLine
 62
7
  6
BYLAYER
 10
10.5511921822
 20
40.2951154272
 11
5.9511921822
 21
40.2951154272
  0
LINE
  5
2E2
100
AcDbEntity
  8
0
100
AcDbLine
 62
7
  6
BYLAYER
 10
21.5511921822
 20
40.3891840461
 11
15.5511921822
 21
40.3891840461
  0
LINE
  5
2E3
100
AcDbEntity
  8
0
100
AcDbLine
 62
7
  6
BYLAYER
 10
36.9563933811
 20
40.4891840461
 11
38.6276543889
 21
40.4891840461
  0
LINE
  5
2E4
100
AcDbEntity
  8
0
100
AcDbLine
 62
7
  6
BYLAYER
 10
45.3804777712
 20
40.5409293529
 11
43.7525452616
 21
40.5409293529
  0
LINE
  5
2E5
100
AcDbEntity
  8
0
100
AcDbLine
 62
7
  6
BYLAYER
 10
18.3160808672
 20
40.5409293532
 11
22.2796757434
 21
40.5409293673
  0
LINE
  5
2E6
100
AcDbEntity
  8
0
100
AcDbLine
 62
7
  6
BYLAYER
 10
18.3160808673
 20
40.7391840461
 11
22.2397856899
 21
40.7391840461
  0
LINE
  5
2E7
100
AcDbEntity
  8
0
100
AcDbLine
 62
7
  6
BYLAYER
 10
38.7798217733
 20
40.7391840461
 11
43.5596145972
 21
40.7391840461
  0
LINE
  5
2E8
100
AcDbEntity
  8
0
100
AcDbLine
 62
7
  6
BYLAYER
 10
43.5596145972
 20
40.7391840461
 11
45.1842907991
 21
40.7391840461
  0
LINE
  5
2E9
100
AcDbEntity
  8
0
100
AcDbLine
 62
7
  6
BYLAYER
 10
21.5511921822
 20
40.8891840461
 11
15.5511921822
 21
40.8891840461
  0
LINE
  5
2EA
100
AcDbEntity
  8
0
100
AcDbLine
 62
7
  6
BYLAYER
 10
45.5833654646
 20
40.937438739
 11
38.5798265874
 21
40.93743871
  0
LINE
  5
2EB
100
AcDbEntity
  8
0
100
AcDbLine
 62
7
  6
BYLAYER
 10
31.5918890619
 20
40.9891840461
 11
22.1230075423
 21
40.9891840461
  0
LINE
  5
2EC
100
AcDbEntity
  8
0
100
AcDbLine
 62
7
  6
BYLAYER
 10
46.2208036234
 20
41.0378624916
 11
46.2324676841
 21
41.0378634916
  0
LINE
  5
2ED
100
AcDbEntity
  8
0
100
AcDbLine
 62
7
  6
BYLAYER
 10
46.3423974472
 20
41.0378605166
 11
46.7417640501
 21
41.0378634916
  0
LINE
  5
2EE
100
AcDbEntity
  8
0
100
AcDbLine
 62
7
  6
BYLAYER
 10
28.4621199723
 20
41.0378634916
 11
28.4504578734
 21
41.0378624914
  0
LINE
  5
2EF
100
AcDbEntity
  8
0
100
AcDbLine
 62
7
  6
BYLAYER
 10
27.8772520782
 20
41.0378605161
 11
28.2766187021
 21
41.0378605174
  0
LINE
  5
2F0
100
AcDbEntity
  8
0
100
AcDbLine
 62
7
  6
BYLAYER
 10
28.8094163277
 20
41.0378634916
 11
28.6219313613
 21
41.0378634916
  0
LINE
  5
2F1
100
AcDbEntity
  8
0
100
AcDbLine
 62
7
  6
BYLAYER
 10
46.7395754288
 20
41.0378634916
 11
46.7512002908
 21
41.0378634916
  0
LINE
  5
2F2
100
AcDbEntity
  8
0
100
AcDbLine
 62
7
  6
BYLAYER
 10
46.2926002553
 20
41.0909293532
 11
47.3412735058
 21
41.0909293532
  0
LINE
  5
2F3
100
AcDbEntity
  8
0
100
AcDbLine
 62
7
  6
BYLAYER
 10
46.9001072901
 20
41.1891840461
 11
46.369979141
 21
41.1891840461
  0
LINE
  5
2F4
100
AcDbEntity
  8
0
100
AcDbLine
 62
7
  6
BYLAYER
 10
28.3015881108
 20
41.1891840461
 11
28.8317162598
 21
41.1891840461
  0
LINE
  5
2F5
100
AcDbEntity
  8
0
100
AcDbLine
 62
7
  6
BYLAYER
 10
18.2132679294
 20
41.2348207086
 11
18.8524429644
 21
41.2348207086
  0
LINE
  5
2F6
100
AcDbEntity
  8
0
100
AcDbLine
 62
7
  6
BYLAYER
 10
17.8712995339
 20
41.2348207783
 11
17.69133256
 21
41.2348207783
  0
LINE
  5
2F7
100
AcDbEntity
  8
0
100
AcDbLine
 62
7
  6
BYLAYER
 10
18.2132679294
 20
41.2348207086
 11
17.8712995339
 21
41.2348207783
  0
LINE
  5
2F8
100
AcDbEntity
  8
0
100
AcDbLine
 62
7
  6
BYLAYER
 10
18.8524429644
 20
41.2348207783
 11
23.8923674684
 21
41.2348207783
  0
LINE
  5
2F9
100
AcDbEntity
  8
0
100
AcDbLine
 62
7
  6
BYLAYER
 10
29.1503698419
 20
41.2891840461
 11
27.9040287597
 21
41.2891840461
  0
LINE
  5
2FA
100
AcDbEntity
  8
0
100
AcDbLine
 62
7
  6
BYLAYER
 10
29.8142193234
 20
41.3591494597
 11
29.2753064557
 21
41.3591494597
  0
LINE
  5
2FB
100
AcDbEntity
  8
0
100
AcDbLine
 62
7
  6
BYLAYER
 10
45.3963546289
 20
41.3591494597
 11
45.9352674966
 21
41.3591494597
  0
LINE
  5
2FC
100
AcDbEntity
  8
0
100
AcDbLine
 62
7
  6
BYLAYER
 10
27.8693004466
 20
41.487438739
 11
29.1468229926
 21
41.487438739
  0
LINE
  5
2FD
100
AcDbEntity
  8
0
100
AcDbLine
 62
7
  6
BYLAYER
 10
46.6888023067
 20
41.487438739
 11
45.4553814592
 21
41.4874387492
  0
LINE
  5
2FE
100
AcDbEntity
  8
0
100
AcDbLine
 62
7
  6
BYLAYER
 10
12.3511921822
 20
41.4891840461
 11
10.9511921822
 21
41.4891840461
  0
LINE
  5
2FF
100
AcDbEntity
  8
0
100
AcDbLine
 62
7
  6
BYLAYER
 10
10.5511921822
 20
41.4891840461
 11
5.9511921822
 21
41.4891840461
  0
LINE
  5
300
100
AcDbEntity
  8
0
100
AcDbLine
 62
7
  6
BYLAYER
 10
28.9808917774
 20
41.0378624916
 11
28.9692276715
 21
41.0378635207
  0
LINE
  5
301
100
AcDbEntity
  8
0
100
AcDbLine
 62
7
  6
BYLAYER
 10
28.5762258279
 20
40.9462087374
 11
29.4130699784
 21
40.1533819134
  0
LINE
  5
302
100
AcDbEntity
  8
0
100
AcDbLine
 62
7
  6
BYLAYER
 10
28.9235221832
 20
40.9462087374
 11
29.7603663338
 21
40.1533819134
  0
LINE
  5
303
100
AcDbEntity
  8
0
100
AcDbLine
 62
7
  6
BYLAYER
 10
28.6883502137
 20
40.9462086381
 11
29.4130699784
 21
40.1533819134
  0
LINE
  5
304
100
AcDbEntity
  8
0
100
AcDbLine
 62
7
  6
BYLAYER
 10
29.0356463661
 20
40.9462088451
 11
29.7603663338
 21
40.1533819134
  0
LWPOLYLINE
  5
305
100
AcDbEntity
  8
0
100
AcDbPolyline
 62
7
  6
BYLAYER
 90
3
 70
0
 10
28.9848794063
 20
38.4893300132
 10
29.2121266757
 20
36.843832055
 10
29.8646727424
 20
35.39104151
  0
LINE
  5
306
100
AcDbEntity
  8
0
100
AcDbLine
 62
7
  6
BYLAYER
 10
41.5022409975
 20
43.4810006003
 11
41.7517253469
 21
43.48918201
  0
LINE
  5
307
100
AcDbEntity
  8
0
100
AcDbLine
 62
7
  6
BYLAYER
 10
44.188097529
 20
41.7391840461
 11
39.5142868353
 21
41.7391840461
  0
LINE
  5
308
100
AcDbEntity
  8
0
100
AcDbLine
 62
7
  6
BYLAYER
 10
22.188097529
 20
41.7391840461
 11
17.5142868353
 21
41.7391840461
  0
LINE
  5
309
100
AcDbEntity
  8
0
100
AcDbLine
 62
7
  6
BYLAYER
 10
16.8011845668
 20
42.6791840461
 11
16.6011921822
 21
42.6791840461
  0
LINE
  5
30A
100
AcDbEntity
  8
0
100
AcDbLine
 62
7
  6
BYLAYER
 10
16.6011921822
 20
42.6791840461
 11
10.7011921822
 21
42.6791840461
  0
LWPOLYLINE
  5
30B
100
AcDbEntity
  8
0
100
AcDbPolyline
 62
7
  6
BYLAYER
 90
3
 70
0
 10
30.9061899951
 20
37.0155677625
 10
30.736552532
 20
37.940534521
 10
30.7281829246
 20
38.9391848694
  0
LINE
  5
30C
100
AcDbEntity
  8
0
100
AcDbLine
 62
7
  6
BYLAYER
 10
42.8511921822
 20
43.2391840461
 11
40.8511921822
 21
43.2391840461
  0
LINE
  5
30D
100
AcDbEntity
  8
0
100
AcDbLine
 62
7
  6
BYLAYER
 10
20.8511921822
 20
43.2391840461
 11
18.8511921822
 21
43.2391840461
  0
LINE
  5
30E
100
AcDbEntity
  8
0
100
AcDbLine
 62
7
  6
BYLAYER
 10
43.6511921822
 20
43.3391840461
 11
40.0511921822
 21
43.3391840461
  0
LINE
  5
30F
100
AcDbEntity
  8
0
100
AcDbLine
 62
7
  6
BYLAYER
 10
20.6511921822
 20
43.3391840461
 11
19.0511921822
 21
43.3391840461
  0
LINE
  5
310
100
AcDbEntity
  8
0
100
AcDbLine
 62
7
  6
BYLAYER
 10
21.6511921822
 20
43.3391840461
 11
20.6511921822
 21
43.3391840461
  0
LINE
  5
311
100
AcDbEntity
  8
0
100
AcDbLine
 62
7
  6
BYLAYER
 10
19.0511921822
 20
43.3391840461
 11
18.0511921822
 21
43.3391840461
  0
LINE
  5
312
100
AcDbEntity
  8
0
100
AcDbLine
 62
7
  6
BYLAYER
 10
42.6847686407
 20
43.4891840461
 11
41.7555196754
 21
43.4891840461
  0
LINE
  5
313
100
AcDbEntity
  8
0
100
AcDbLine
 62
7
  6
BYLAYER
 10
33.8214988636
 20
43.4891840461
 11
32.8922541944
 21
43.4891840461
  0
LINE
  5
314
100
AcDbEntity
  8
0
100
AcDbLine
 62
7
  6
BYLAYER
 10
47.0822591596
 20
43.5409294891
 11
46.7169400175
 21
43.5409294891
  0
LINE
  5
315
100
AcDbEntity
  8
0
100
AcDbLine
 62
7
  6
BYLAYER
 10
46.1780639106
 20
43.5409293637
 11
38.557106269
 21
43.5409293282
  0
LINE
  5
316
100
AcDbEntity
  8
0
100
AcDbLine
 62
7
  6
BYLAYER
 10
16.8087049042
 20
43.5409293532
 11
17.2692393239
 21
43.5409293532
  0
LINE
  5
317
100
AcDbEntity
  8
0
100
AcDbLine
 62
7
  6
BYLAYER
 10
17.6798308679
 20
43.5409293547
 11
23.8864108379
 21
43.5409293532
  0
LINE
  5
318
100
AcDbEntity
  8
0
100
AcDbLine
 62
7
  6
BYLAYER
 10
24.1587917636
 20
43.5409293785
 11
31.9818595318
 21
43.5409293678
  0
LINE
  5
319
100
AcDbEntity
  8
0
100
AcDbLine
 62
7
  6
BYLAYER
 10
33.7508516275
 20
43.5409293603
 11
38.557106269
 21
43.5409293282
  0
LINE
  5
31A
100
AcDbEntity
  8
0
100
AcDbLine
 62
7
  6
BYLAYER
 10
46.1780639106
 20
43.5409293637
 11
46.6699716215
 21
43.5409293665
  0
LINE
  5
31B
100
AcDbEntity
  8
0
100
AcDbLine
 62
7
  6
BYLAYER
 10
32.2014841338
 20
43.5904930264
 11
27.7104755405
 21
43.5904930264
  0
LINE
  5
31C
100
AcDbEntity
  8
0
100
AcDbLine
 62
7
  6
BYLAYER
 10
23.9919088238
 20
43.5904930264
 11
22.4333711861
 21
43.5904930264
  0
LINE
  5
31D
100
AcDbEntity
  8
0
100
AcDbLine
 62
7
  6
BYLAYER
 10
17.2690131782
 20
43.5904930264
 11
16.8091374398
 21
43.5904930264
  0
LINE
  5
31E
100
AcDbEntity
  8
0
100
AcDbLine
 62
7
  6
BYLAYER
 10
22.0228001627
 20
43.5904930364
 11
17.6795842016
 21
43.5904930371
  0
LINE
  5
31F
100
AcDbEntity
  8
0
100
AcDbLine
 62
7
  6
BYLAYER
 10
39.6174727753
 20
43.5905089991
 11
37.2066737335
 21
43.5904929908
  0
LINE
  5
320
100
AcDbEntity
  8
0
100
AcDbLine
 62
7
  6
BYLAYER
 10
27.3048264782
 20
43.5951370141
 11
24.397557905
 21
43.5949103195
  0
LINE
  5
321
100
AcDbEntity
  8
0
100
AcDbLine
 62
7
  6
BYLAYER
 10
16.7591393436
 20
43.7391840461
 11
32.5790425907
 21
43.7391840461
  0
LINE
  5
322
100
AcDbEntity
  8
0
100
AcDbLine
 62
7
  6
BYLAYER
 10
37.0566942591
 20
43.7391840461
 11
46.8826059917
 21
43.7391840461
  0
LINE
  5
323
100
AcDbEntity
  8
0
100
AcDbLine
 62
7
  6
BYLAYER
 10
37.0566942591
 20
43.7391840461
 11
32.5790425907
 21
43.7391840461
  0
LINE
  5
324
100
AcDbEntity
  8
0
100
AcDbLine
 62
7
  6
BYLAYER
 10
22.6007563549
 20
44.2435473138
 11
9.9014097496
 21
44.2435473138
  0
LINE
  5
325
100
AcDbEntity
  8
0
100
AcDbLine
 62
7
  6
BYLAYER
 10
23.0447053762
 20
44.2435473138
 11
48.1867013693
 21
44.2435473138
  0
LWPOLYLINE
  5
326
100
AcDbEntity
  8
0
100
AcDbPolyline
 62
7
  6
BYLAYER
 90
3
 70
0
 10
43.5639687381
 20
40.7391330937
 10
43.6115364493
 20
40.7308452465
 10
43.5379120035
 20
40.8410717496
  0
LWPOLYLINE
  5
327
100
AcDbEntity
  8
0
100
AcDbPolyline
 62
7
  6
BYLAYER
 90
4
 70
0
 10
32.8931400925
 20
43.4891839459
 10
34.5023510017
 20
43.1473417123
 10
35.9331360395
 20
42.1268651478
 10
36.9564707859
 20
40.4891840461
  0
LINE
  5
328
100
AcDbEntity
  8
0
100
AcDbLine
 62
7
  6
BYLAYER
 10
34.16989947
 20
38.2909293532
 11
34.1699028465
 21
38.687438739
  0
LINE
  5
329
100
AcDbEntity
  8
0
100
AcDbLine
 62
7
  6
BYLAYER
 10
48.0998715923
 20
44.7391840461
 11
9.9057351059
 21
44.7391840461
  0
LWPOLYLINE
  5
32A
100
AcDbEntity
  8
0
100
AcDbPolyline
 62
7
  6
BYLAYER
 90
4
 70
0
 10
41.7517253469
 20
43.48918201
 10
43.0908505675
 20
43.2566618148
 10
44.3326980014
 20
42.5568011249
 10
45.3550055235
 20
41.4080235319
  0
LINE
  5
32B
100
AcDbEntity
  8
0
100
AcDbLine
 62
7
  6
BYLAYER
 10
37.2494620397
 20
38.687438739
 11
37.2066737335
 21
43.5904929908
  0
LINE
  5
32C
100
AcDbEntity
  8
0
100
AcDbLine
 62
7
  6
BYLAYER
 10
37.2494620397
 20
38.2909293532
 11
37.2066737331
 21
33.3878750657
  0
LWPOLYLINE
  5
32D
100
AcDbEntity
  8
0
100
AcDbPolyline
 62
7
  6
BYLAYER
 90
4
 70
0
 10
36.9564651622
 20
36.4891840461
 10
36.0897611078
 20
35.0264025064
 10
34.8798444715
 20
34.020464693
 10
33.4894210299
 20
33.5348290105
  0
LWPOLYLINE
  5
32E
100
AcDbEntity
  8
0
100
AcDbPolyline
 62
7
  6
BYLAYER
 90
8
 70
0
 10
38.7889498281
 20
40.7685944929
 10
38.7831213816
 20
40.9711378685
 10
38.7681352233
 20
41.2036272719
 10
38.7415941895
 20
41.4742843411
 10
38.6987279749
 20
41.7967642201
 10
38.6302615932
 20
42.1942026614
 10
38.5163148396
 20
42.7100406052
 10
38.302112459
 20
43.4477725219
  0
LINE
  5
32F
100
AcDbEntity
  8
0
100
AcDbLine
 62
7
  6
BYLAYER
 10
38.5798265872
 20
40.937438739
 11
38.557106269
 21
43.5409293282
  0
LINE
  5
330
100
AcDbEntity
  8
0
100
AcDbLine
 62
7
  6
BYLAYER
 10
38.7889431878
 20
40.769122515
 11
38.807109766
 21
38.6874388443
  0
LINE
  5
331
100
AcDbEntity
  8
0
100
AcDbLine
 62
7
  6
BYLAYER
 10
38.721480777
 20
38.687438739
 11
38.7084037723
 21
40.3265103662
  0
LINE
  5
332
100
AcDbEntity
  8
0
100
AcDbLine
 62
7
  6
BYLAYER
 10
38.1926121109
 20
43.3860895272
 11
38.2090510103
 21
38.687438674
  0
LINE
  5
333
100
AcDbEntity
  8
0
100
AcDbLine
 62
7
  6
BYLAYER
 10
38.2090510093
 20
38.2909294102
 11
38.1926121098
 21
33.5922785615
  0
LINE
  5
334
100
AcDbEntity
  8
0
100
AcDbLine
 62
7
  6
BYLAYER
 10
38.7214807715
 20
38.2909292397
 11
38.7084037677
 21
36.6518577397
  0
LINE
  5
335
100
AcDbEntity
  8
0
100
AcDbLine
 62
7
  6
BYLAYER
 10
38.5994620397
 20
38.2909293532
 11
38.5566737346
 21
33.3878752307
  0
LINE
  5
336
100
AcDbEntity
  8
0
100
AcDbLine
 62
7
  6
BYLAYER
 10
38.7889436016
 20
36.2092929905
 11
38.807109766
 21
38.2909292397
  0
LWPOLYLINE
  5
337
100
AcDbEntity
  8
0
100
AcDbPolyline
 62
7
  6
BYLAYER
 90
7
 70
0
 10
38.3021123056
 20
33.5305961724
 10
38.5398892281
 20
34.3652137369
 10
38.6567829283
 20
34.926843181
 10
38.7225569965
 20
35.3498777575
 10
38.7606709414
 20
35.6884791027
 10
38.7812656957
 20
35.9700239724
 10
38.7889453245
 20
36.2092189548
  0
LINE
  5
338
100
AcDbEntity
  8
0
100
AcDbLine
 62
7
  6
BYLAYER
 10
46.2781732139
 20
40.9462087338
 11
45.4413290671
 21
40.1533819134
  0
LINE
  5
339
100
AcDbEntity
  8
0
100
AcDbLine
 62
7
  6
BYLAYER
 10
46.6254695692
 20
40.9462087338
 11
45.7886254224
 21
40.1533819134
  0
LINE
  5
33A
100
AcDbEntity
  8
0
100
AcDbLine
 62
7
  6
BYLAYER
 10
42.9809808546
 20
33.8452606076
 11
42.9759827624
 21
33.8538287656
  0
LINE
  5
33B
100
AcDbEntity
  8
0
100
AcDbLine
 62
7
  6
BYLAYER
 10
42.9759827624
 20
33.8538287656
 11
42.4011921822
 21
34.8391840461
  0
LINE
  5
33C
100
AcDbEntity
  8
0
100
AcDbLine
 62
7
  6
BYLAYER
 10
39.4840560785
 20
44.7391840461
 11
39.5142868353
 21
41.7391840461
  0
LINE
  5
33D
100
AcDbEntity
  8
0
100
AcDbLine
 62
7
  6
BYLAYER
 10
39.7817742978
 20
37.2348207006
 11
39.7555175388
 21
40.2435472702
  0
LINE
  5
33E
100
AcDbEntity
  8
0
100
AcDbLine
 62
7
  6
BYLAYER
 10
40.7225522999
 20
38.6874388443
 11
40.7040166923
 21
40.9609281603
  0
LINE
  5
33F
100
AcDbEntity
  8
0
100
AcDbLine
 62
7
  6
BYLAYER
 10
40.6676241303
 20
44.7391840461
 11
40.6827395087
 21
41.7391840461
  0
LINE
  5
340
100
AcDbEntity
  8
0
100
AcDbLine
 62
7
  6
BYLAYER
 10
39.4295047472
 20
38.2909292396
 11
39.4449536758
 21
33.3878750657
  0
LINE
  5
341
100
AcDbEntity
  8
0
100
AcDbLine
 62
7
  6
BYLAYER
 10
39.6011921822
 20
35.2391840461
 11
39.6011921822
 21
32.2391840461
  0
LINE
  5
342
100
AcDbEntity
  8
0
100
AcDbLine
 62
7
  6
BYLAYER
 10
39.4449536768
 20
43.5904930264
 11
39.4295047483
 21
38.6874388443
  0
LINE
  5
343
100
AcDbEntity
  8
0
100
AcDbLine
 62
7
  6
BYLAYER
 10
40.7225523069
 20
38.290929276
 11
40.7040166989
 21
36.0174399028
  0
LINE
  5
344
100
AcDbEntity
  8
0
100
AcDbLine
 62
7
  6
BYLAYER
 10
46.1660488302
 20
40.9462086364
 11
45.4413290671
 21
40.1533819134
  0
LINE
  5
345
100
AcDbEntity
  8
0
100
AcDbLine
 62
7
  6
BYLAYER
 10
46.5133451856
 20
40.9462086364
 11
45.7886254224
 21
40.1533819134
  0
LINE
  5
346
100
AcDbEntity
  8
0
100
AcDbLine
 62
7
  6
BYLAYER
 10
42.0736612765
 20
36.7348207783
 11
42.0756512729
 21
33.3878752307
  0
LINE
  5
347
100
AcDbEntity
  8
0
100
AcDbLine
 62
7
  6
BYLAYER
 10
41.6011921822
 20
34.8391840461
 11
41.6011921822
 21
33.8538287656
  0
LINE
  5
348
100
AcDbEntity
  8
0
100
AcDbLine
 62
7
  6
BYLAYER
 10
42.1011921822
 20
34.8391840461
 11
42.1011921822
 21
33.8538287656
  0
LINE
  5
349
100
AcDbEntity
  8
0
100
AcDbLine
 62
7
  6
BYLAYER
 10
41.9767958567
 20
40.937438739
 11
41.9776682005
 21
43.5409293532
  0
LINE
  5
34A
100
AcDbEntity
  8
0
100
AcDbLine
 62
7
  6
BYLAYER
 10
43.4957572667
 20
42.8218467147
 11
43.512202246
 21
40.937438739
  0
LINE
  5
34B
100
AcDbEntity
  8
0
100
AcDbLine
 62
7
  6
BYLAYER
 10
43.4556502575
 20
40.9374387469
 11
43.4435565793
 21
42.3783460026
  0
LINE
  5
34C
100
AcDbEntity
  8
0
100
AcDbLine
 62
7
  6
BYLAYER
 10
43.5169763662
 20
33.3878752307
 11
43.502207953
 21
36.7348207783
  0
LINE
  5
34D
100
AcDbEntity
  8
0
100
AcDbLine
 62
7
  6
BYLAYER
 10
43.4204992732
 20
40.93743871
 11
43.4313984393
 21
43.5409293282
  0
LINE
  5
34E
100
AcDbEntity
  8
0
100
AcDbLine
 62
7
  6
BYLAYER
 10
43.034760234
 20
44.7391840461
 11
43.0196448556
 21
41.7391840461
  0
LINE
  5
34F
100
AcDbEntity
  8
0
100
AcDbLine
 62
7
  6
BYLAYER
 10
43.4820982251
 20
34.5706060897
 11
43.5002700231
 21
36.7348207783
  0
LINE
  5
350
100
AcDbEntity
  8
0
100
AcDbLine
 62
7
  6
BYLAYER
 10
43.5302444427
 20
34.1626312202
 11
43.5494911374
 21
36.3680839777
  0
LWPOLYLINE
  5
351
100
AcDbEntity
  8
0
100
AcDbPolyline
 62
7
  6
BYLAYER
 90
3
 70
0
 10
43.5494956971
 20
36.3686229436
 10
43.5272811011
 20
36.2671154566
 10
43.4952665687
 20
36.2436379632
  0
LINE
  5
352
100
AcDbEntity
  8
0
100
AcDbLine
 62
7
  6
BYLAYER
 10
44.2494620397
 20
38.687438739
 11
44.2071062695
 21
43.5409292748
  0
LINE
  5
353
100
AcDbEntity
  8
0
100
AcDbLine
 62
7
  6
BYLAYER
 10
44.1011921822
 20
35.2391840461
 11
44.1011921822
 21
32.2391840461
  0
LINE
  5
354
100
AcDbEntity
  8
0
100
AcDbLine
 62
7
  6
BYLAYER
 10
43.9206100666
 20
37.2348207006
 11
43.9468668256
 21
40.2435472702
  0
LINE
  5
355
100
AcDbEntity
  8
0
100
AcDbLine
 62
7
  6
BYLAYER
 10
44.2494620397
 20
38.2909293532
 11
44.2066737348
 21
33.3878752534
  0
LINE
  5
356
100
AcDbEntity
  8
0
100
AcDbLine
 62
7
  6
BYLAYER
 10
44.2183282859
 20
44.7391840461
 11
44.188097529
 21
41.7391840461
  0
LINE
  5
357
100
AcDbEntity
  8
0
100
AcDbLine
 62
7
  6
BYLAYER
 10
46.6888023067
 20
41.487438739
 11
46.6699716215
 21
43.5409293532
  0
LINE
  5
358
100
AcDbEntity
  8
0
100
AcDbLine
 62
7
  6
BYLAYER
 10
46.3003039729
 20
38.4887174512
 11
46.2781732139
 21
40.9462087338
  0
LINE
  5
359
100
AcDbEntity
  8
0
100
AcDbLine
 62
7
  6
BYLAYER
 10
46.6476003283
 20
38.4887174512
 11
46.6254695692
 21
40.9462087338
  0
LINE
  5
35A
100
AcDbEntity
  8
0
100
AcDbLine
 62
7
  6
BYLAYER
 10
45.5833654649
 20
40.937438739
 11
45.5610305813
 21
43.5409294016
  0
LINE
  5
35B
100
AcDbEntity
  8
0
100
AcDbLine
 62
7
  6
BYLAYER
 10
46.160430383
 20
38.6874383657
 11
46.1337345277
 21
43.5409293654
  0
LINE
  5
35C
100
AcDbEntity
  8
0
100
AcDbLine
 62
7
  6
BYLAYER
 10
46.1660488302
 20
40.9462086364
 11
46.1776336951
 21
38.4887175254
  0
LINE
  5
35D
100
AcDbEntity
  8
0
100
AcDbLine
 62
7
  6
BYLAYER
 10
46.5133451856
 20
40.9462086364
 11
46.5249300503
 21
38.4887175254
  0
LINE
  5
35E
100
AcDbEntity
  8
0
100
AcDbLine
 62
7
  6
BYLAYER
 10
46.1334155948
 20
33.3878754405
 11
46.1604725694
 21
38.2909292984
  0
LINE
  5
35F
100
AcDbEntity
  8
0
100
AcDbLine
 62
7
  6
BYLAYER
 10
46.2155247901
 20
38.4891840461
 11
46.2324676841
 21
41.0378634916
  0
LINE
  5
360
100
AcDbEntity
  8
0
100
AcDbLine
 62
7
  6
BYLAYER
 10
46.5628211454
 20
38.4891840461
 11
46.5797640394
 21
41.0378634916
  0
LINE
  5
361
100
AcDbEntity
  8
0
100
AcDbLine
 62
7
  6
BYLAYER
 10
45.563176399
 20
36.7348207783
 11
45.5344711833
 21
33.3878750537
  0
LINE
  5
362
100
AcDbEntity
  8
0
100
AcDbLine
 62
7
  6
BYLAYER
 10
46.7144744132
 20
38.290929633
 11
46.6695170411
 21
33.3878750502
  0
LINE
  5
363
100
AcDbEntity
  8
0
100
AcDbLine
 62
7
  6
BYLAYER
 10
46.218447084
 20
41.0376462551
 11
46.1926852254
 21
38.4894124093
  0
LINE
  5
364
100
AcDbEntity
  8
0
100
AcDbLine
 62
7
  6
BYLAYER
 10
46.316644346
 20
38.4904929255
 11
46.3423974472
 21
41.0378605166
  0
LINE
  5
365
100
AcDbEntity
  8
0
100
AcDbLine
 62
7
  6
BYLAYER
 10
46.3922790734
 20
41.0378634916
 11
46.3654138099
 21
38.4891840461
  0
LINE
  5
366
100
AcDbEntity
  8
0
100
AcDbLine
 62
7
  6
BYLAYER
 10
46.7395754288
 20
41.0378634916
 11
46.7127101653
 21
38.4891840461
  0
LINE
  5
367
100
AcDbEntity
  8
0
100
AcDbLine
 62
7
  6
BYLAYER
 10
45.3348296837
 20
35.387273799
 11
45.4413290671
 21
40.1533819134
  0
LINE
  5
368
100
AcDbEntity
  8
0
100
AcDbLine
 62
7
  6
BYLAYER
 10
45.682126039
 20
35.3872737992
 11
45.7886254224
 21
40.1533819134
  0
LWPOLYLINE
  5
369
100
AcDbEntity
  8
0
100
AcDbPolyline
 62
7
  6
BYLAYER
 90
6
 70
0
 10
46.1926422554
 20
38.4894110379
 10
45.9896979493
 20
37.0013243269
 10
45.4253099344
 20
35.6837250363
 10
44.5690890597
 20
34.6259179823
 10
43.5089332455
 20
33.8973627957
 10
42.3526892791
 20
33.5348326002
  0
LWPOLYLINE
  5
36A
100
AcDbEntity
  8
0
100
AcDbPolyline
 62
7
  6
BYLAYER
 90
4
 70
0
 10
46.1856829616
 20
41.0227932783
 10
46.4998305886
 20
40.2915672002
 10
46.7062373238
 20
39.5063688425
 10
46.7968052095
 20
38.6833526679
  0
LINE
  5
36B
100
AcDbEntity
  8
0
100
AcDbLine
 62
7
  6
BYLAYER
 10
47.3412735058
 20
41.0909293532
 11
47.365572055
 21
38.687438739
  0
LINE
  5
36C
100
AcDbEntity
  8
0
100
AcDbLine
 62
7
  6
BYLAYER
 10
47.0070931568
 20
38.6868743433
 11
46.9836724791
 21
41.0903399611
  0
LINE
  5
36D
100
AcDbEntity
  8
0
100
AcDbLine
 62
7
  6
BYLAYER
 10
47.0831309073
 20
43.5410154158
 11
47.1276354032
 21
38.6873433222
  0
LINE
  5
36E
100
AcDbEntity
  8
0
100
AcDbLine
 62
7
  6
BYLAYER
 10
46.7169386703
 20
43.5409293414
 11
46.754271312
 21
38.6874387413
  0
LINE
  5
36F
100
AcDbEntity
  8
0
100
AcDbLine
 62
7
  6
BYLAYER
 10
46.7417640501
 20
41.0378634916
 11
46.75875313
 21
38.6378970755
  0
LINE
  5
370
100
AcDbEntity
  8
0
100
AcDbLine
 62
7
  6
BYLAYER
 10
48.1870926086
 20
39.0391840435
 11
48.1867013186
 21
44.243547307
  0
LINE
  5
371
100
AcDbEntity
  8
0
100
AcDbLine
 62
7
  6
BYLAYER
 10
48.5998707793
 20
44.2391834071
 11
48.6002696038
 21
39.0391838035
  0
LINE
  5
372
100
AcDbEntity
  8
0
100
AcDbLine
 62
7
  6
BYLAYER
 10
48.1867010282
 20
32.7348208001
 11
48.1870978164
 21
38.9391840446
  0
LINE
  5
373
100
AcDbEntity
  8
0
100
AcDbLine
 62
7
  6
BYLAYER
 10
48.6002767452
 20
38.9392031651
 11
48.59987291
 21
32.7391818166
  0
LINE
  5
374
100
AcDbEntity
  8
0
100
AcDbLine
 62
7
  6
BYLAYER
 10
46.7343257109
 20
38.6378750657
 11
46.7512002908
 21
41.0378634916
  0
LINE
  5
375
100
AcDbEntity
  8
0
100
AcDbLine
 62
7
  6
BYLAYER
 10
46.7542712981
 20
38.2909293562
 11
46.7165567798
 21
33.3878750593
  0
LINE
  5
376
100
AcDbEntity
  8
0
100
AcDbLine
 62
7
  6
BYLAYER
 10
47.1276357833
 20
38.2910238056
 11
47.0826769672
 21
33.3878112493
  0
ARC
  5
377
100
AcDbEntity
  8
0
100
AcDbCircle
 62
7
  6
BYLAYER
 10
-27.188579566
 20
23.8652942307
 40
68.2331419513
100
AcDbArc
 50
16.6239928323
 51
16.8032024888
  0
ARC
  5
378
100
AcDbEntity
  8
0
100
AcDbCircle
 62
7
  6
BYLAYER
 10
-21.6750092006
 20
23.3102778567
 40
63.2483022138
100
AcDbArc
 50
18.5696148389
 51
18.7505191078
  0
ARC
  5
379
100
AcDbEntity
  8
0
100
AcDbCircle
 62
7
  6
BYLAYER
 10
11.7218864351
 20
38.378226601
 40
12.6546971934
100
AcDbArc
 50
0.5023819608
 51
1.8584274998
  0
ARC
  5
37A
100
AcDbEntity
  8
0
100
AcDbCircle
 62
7
  6
BYLAYER
 10
10.9511921822
 20
35.2891840461
 40
0.2
100
AcDbArc
 50
90.0
 51
180.0
  0
ARC
  5
37B
100
AcDbEntity
  8
0
100
AcDbCircle
 62
7
  6
BYLAYER
 10
12.3511921822
 20
35.6891840461
 40
0.2
100
AcDbArc
 50
270.0
 51
0.0005620928
  0
ARC
  5
37C
100
AcDbEntity
  8
0
100
AcDbCircle
 62
7
  6
BYLAYER
 10
5.9511921822
 20
35.6891840461
 40
0.2
100
AcDbArc
 50
179.9992656847
 51
270.0
  0
ARC
  5
37D
100
AcDbEntity
  8
0
100
AcDbCircle
 62
7
  6
BYLAYER
 10
-29.4438778732
 20
53.7891717868
 40
70.587600396
100
AcDbArc
 50
343.2006479822
 51
343.3738793201
  0
ARC
  5
37E
100
AcDbEntity
  8
0
100
AcDbCircle
 62
7
  6
BYLAYER
 10
10.9511921822
 20
41.6891840461
 40
0.2
100
AcDbArc
 50
180.0
 51
270.0
  0
ARC
  5
37F
100
AcDbEntity
  8
0
100
AcDbCircle
 62
7
  6
BYLAYER
 10
12.3511921822
 20
41.2891840461
 40
0.2
100
AcDbArc
 50
359.9994379072
 51
90.0
  0
ARC
  5
380
100
AcDbEntity
  8
0
100
AcDbCircle
 62
7
  6
BYLAYER
 10
5.9511921822
 20
41.2891840461
 40
0.2
100
AcDbArc
 50
90.0
 51
180.000987
  0
ARC
  5
381
100
AcDbEntity
  8
0
100
AcDbCircle
 62
7
  6
BYLAYER
 10
17.4750317189
 20
-89.4969794738
 40
133.0876364328
100
AcDbArc
 50
89.9120624696
 51
90.0886932173
  0
ARC
  5
382
100
AcDbEntity
  8
0
100
AcDbCircle
 62
7
  6
BYLAYER
 10
24.0231026211
 20
-75.9592858445
 40
119.500291793
100
AcDbArc
 50
89.9349422975
 51
90.0655384498
  0
ARC
  5
383
100
AcDbEntity
  8
0
100
AcDbCircle
 62
7
  6
BYLAYER
 10
22.2278364403
 20
-67.4470011229
 40
111.0376758822
100
AcDbArc
 50
89.8939436383
 51
90.1056498908
  0
ARC
  5
384
100
AcDbEntity
  8
0
100
AcDbCircle
 62
7
  6
BYLAYER
 10
17.4752356018
 20
-39.7856138913
 40
83.3267854733
100
AcDbArc
 50
89.8595145391
 51
90.1416435442
  0
ARC
  5
385
100
AcDbEntity
  8
0
100
AcDbCircle
 62
7
  6
BYLAYER
 10
24.0288082041
 20
-12.1259872911
 40
47.8697251346
100
AcDbArc
 50
89.8378936519
 51
90.1633075652
  0
ARC
  5
386
100
AcDbEntity
  8
0
100
AcDbCircle
 62
7
  6
BYLAYER
 10
19.8511921822
 20
37.4965395319
 40
3.6512794644
100
AcDbArc
 50
266.0739350333
 51
273.9260649667
  0
ARC
  5
387
100
AcDbEntity
  8
0
100
AcDbCircle
 62
7
  6
BYLAYER
 10
19.8511921822
 20
36.8391840461
 40
3.2
100
AcDbArc
 50
231.3178125465
 51
249.3254706599
  0
ARC
  5
388
100
AcDbEntity
  8
0
100
AcDbCircle
 62
7
  6
BYLAYER
 10
19.8511921822
 20
36.8391840461
 40
3.2
100
AcDbArc
 50
290.6745293401
 51
308.6821874535
  0
ARC
  5
389
100
AcDbEntity
  8
0
100
AcDbCircle
 62
7
  6
BYLAYER
 10
19.851206477
 20
36.8391223412
 40
3.1901564199
100
AcDbArc
 50
276.7353284119
 51
290.6450253612
  0
ARC
  5
38A
100
AcDbEntity
  8
0
100
AcDbCircle
 62
7
  6
BYLAYER
 10
26.2459926505
 20
38.2273895103
 40
2.3776344041
100
AcDbArc
 50
173.6785078248
 51
174.6877931508
  0
ARC
  5
38B
100
AcDbEntity
  8
0
100
AcDbCircle
 62
7
  6
BYLAYER
 10
26.8842379328
 20
38.2891943515
 40
0.1999903411
100
AcDbArc
 50
90.0024202397
 51
179.502924195
  0
ARC
  5
38C
100
AcDbEntity
  8
0
100
AcDbCircle
 62
7
  6
BYLAYER
 10
35.1014559219
 20
-50.1544331743
 40
88.4502715041
100
AcDbArc
 50
90.4244035526
 51
90.6034490914
  0
ARC
  5
38D
100
AcDbEntity
  8
0
100
AcDbCircle
 62
7
  6
BYLAYER
 10
34.9597625962
 20
38.4032563541
 40
5.6498003288
100
AcDbArc
 50
173.5372316169
 51
177.6467427437
  0
ARC
  5
38E
100
AcDbEntity
  8
0
100
AcDbCircle
 62
7
  6
BYLAYER
 10
34.9680665754
 20
38.4032918555
 40
5.6494204163
100
AcDbArc
 50
174.5568584657
 51
179.1288575779
  0
ARC
  5
38F
100
AcDbEntity
  8
0
100
AcDbCircle
 62
7
  6
BYLAYER
 10
34.9585213185
 20
38.4034996494
 40
5.6398729294
100
AcDbArc
 50
179.1294940071
 51
180.6133318223
  0
ARC
  5
390
100
AcDbEntity
  8
0
100
AcDbCircle
 62
7
  6
BYLAYER
 10
33.6947040967
 20
38.3874359162
 40
5.1414532314
100
AcDbArc
 50
178.8728253297
 51
215.7001308204
  0
ARC
  5
391
100
AcDbEntity
  8
0
100
AcDbCircle
 62
7
  6
BYLAYER
 10
41.7555398129
 20
37.425858905
 40
3.9366449035
100
AcDbArc
 50
261.2667721606
 51
278.7348563276
  0
ARC
  5
392
100
AcDbEntity
  8
0
100
AcDbCircle
 62
7
  6
BYLAYER
 10
32.8922643666
 20
37.4195022146
 40
3.9303314012
100
AcDbArc
 50
261.2527827469
 51
278.7490105116
  0
ARC
  5
393
100
AcDbEntity
  8
0
100
AcDbCircle
 62
7
  6
BYLAYER
 10
33.7357003891
 20
38.0941262501
 40
3.7440369941
100
AcDbArc
 50
165.3794248772
 51
173.9430671727
  0
ARC
  5
394
100
AcDbEntity
  8
0
100
AcDbCircle
 62
7
  6
BYLAYER
 10
41.8511921822
 20
37.4965395315
 40
3.651279464
100
AcDbArc
 50
266.0739350328
 51
273.9260649672
  0
ARC
  5
395
100
AcDbEntity
  8
0
100
AcDbCircle
 62
7
  6
BYLAYER
 10
41.8511921822
 20
36.8391840461
 40
3.2
100
AcDbArc
 50
231.3178125465
 51
249.3254706598
  0
ARC
  5
396
100
AcDbEntity
  8
0
100
AcDbCircle
 62
7
  6
BYLAYER
 10
41.8511921822
 20
36.8391840461
 40
3.2
100
AcDbArc
 50
290.6745293402
 51
308.6821874535
  0
ARC
  5
397
100
AcDbEntity
  8
0
100
AcDbCircle
 62
7
  6
BYLAYER
 10
41.851206477
 20
36.8391223412
 40
3.1901564199
100
AcDbArc
 50
276.7353284119
 51
290.6450253612
  0
ARC
  5
398
100
AcDbEntity
  8
0
100
AcDbCircle
 62
7
  6
BYLAYER
 10
48.0998760412
 20
32.7391809939
 40
0.4999969477
100
AcDbArc
 50
269.999017886
 51
0.0000938754
  0
ARC
  5
399
100
AcDbEntity
  8
0
100
AcDbCircle
 62
7
  6
BYLAYER
 10
34.3360357949
 20
37.7269731747
 40
0.2283721195
100
AcDbArc
 50
350.9862126644
 51
355.7631392035
  0
ARC
  5
39A
100
AcDbEntity
  8
0
100
AcDbCircle
 62
7
  6
BYLAYER
 10
38.490094799
 20
36.6636392911
 40
0.2186265094
100
AcDbArc
 50
349.2576231589
 51
356.9115426523
  0
ARC
  5
39B
100
AcDbEntity
  8
0
100
AcDbCircle
 62
7
  6
BYLAYER
 10
40.49400069
 20
36.0285976007
 40
0.2102753779
100
AcDbArc
 50
349.0292095297
 51
356.9584017749
  0
ARC
  5
39C
100
AcDbEntity
  8
0
100
AcDbCircle
 62
7
  6
BYLAYER
 10
44.4494544243
 20
38.2891840461
 40
0.2
100
AcDbArc
 50
90.0
 51
179.4999837515
  0
ARC
  5
39D
100
AcDbEntity
  8
0
100
AcDbCircle
 62
7
  6
BYLAYER
 10
39.0071021516
 20
38.2891840461
 40
0.2
100
AcDbArc
 50
90.0037389349
 51
179.5
  0
ARC
  5
39E
100
AcDbEntity
  8
0
100
AcDbCircle
 62
7
  6
BYLAYER
 10
37.4494544243
 20
38.2891840461
 40
0.2
100
AcDbArc
 50
90.0
 51
179.4999836545
  0
ARC
  5
39F
100
AcDbEntity
  8
0
100
AcDbCircle
 62
7
  6
BYLAYER
 10
38.7994544243
 20
38.2891840461
 40
0.2
100
AcDbArc
 50
90.0
 51
179.4999923081
  0
ARC
  5
3A0
100
AcDbEntity
  8
0
100
AcDbCircle
 62
7
  6
BYLAYER
 10
47.3266031712
 20
38.2893716009
 40
0.1998243155
100
AcDbArc
 50
90.0567535448
 51
179.5534056194
  0
ARC
  5
3A1
100
AcDbEntity
  8
0
100
AcDbCircle
 62
7
  6
BYLAYER
 10
22.2273580986
 20
166.4662417431
 40
133.078530614
100
AcDbArc
 50
269.9120529036
 51
270.0886969383
  0
ARC
  5
3A2
100
AcDbEntity
  8
0
100
AcDbCircle
 62
7
  6
BYLAYER
 10
17.4750264609
 20
166.466241612
 40
133.0785304828
100
AcDbArc
 50
269.9113029776
 51
270.0879470116
  0
ARC
  5
3A3
100
AcDbEntity
  8
0
100
AcDbCircle
 62
7
  6
BYLAYER
 10
17.4745473189
 20
144.4226822743
 40
111.0349889449
100
AcDbArc
 50
269.893941384
 51
270.1056527591
  0
ARC
  5
3A4
100
AcDbEntity
  8
0
100
AcDbCircle
 62
7
  6
BYLAYER
 10
35.0468036265
 20
120.9583088069
 40
82.2755406967
100
AcDbArc
 50
269.3893244208
 51
269.5818010462
  0
ARC
  5
3A5
100
AcDbEntity
  8
0
100
AcDbCircle
 62
7
  6
BYLAYER
 10
24.0288834641
 20
91.9978174441
 40
50.763181074
100
AcDbArc
 50
269.8459158826
 51
270.1527814739
  0
ARC
  5
3A6
100
AcDbEntity
  8
0
100
AcDbCircle
 62
7
  6
BYLAYER
 10
62.7097506413
 20
52.7343441019
 40
26.1119308709
100
AcDbArc
 50
217.7870516033
 51
218.1236204517
  0
ARC
  5
3A7
100
AcDbEntity
  8
0
100
AcDbCircle
 62
7
  6
BYLAYER
 10
35.8095753135
 20
38.6041216939
 40
12.5818070847
100
AcDbArc
 50
178.8715548815
 51
180.5234168204
  0
ARC
  5
3A8
100
AcDbEntity
  8
0
100
AcDbCircle
 62
7
  6
BYLAYER
 10
17.1000511943
 20
43.4600522874
 40
8.6747260955
100
AcDbArc
 50
324.7017941678
 51
325.0491371235
  0
ARC
  5
3A9
100
AcDbEntity
  8
0
100
AcDbCircle
 62
7
  6
BYLAYER
 10
41.7295503727
 20
41.4852035445
 40
8.1210190752
100
AcDbArc
 50
265.6224616036
 51
274.3775360965
  0
ARC
  5
3AA
100
AcDbEntity
  8
0
100
AcDbCircle
 62
7
  6
BYLAYER
 10
41.4001154375
 20
38.5749713288
 40
5.6463751875
100
AcDbArc
 50
357.6467404229
 51
359.1294523971
  0
ARC
  5
3AB
100
AcDbEntity
  8
0
100
AcDbCircle
 62
7
  6
BYLAYER
 10
41.4159409833
 20
38.5748599605
 40
5.6305500434
100
AcDbArc
 50
359.1281388196
 51
3.7099092892
  0
ARC
  5
3AC
100
AcDbEntity
  8
0
100
AcDbCircle
 62
7
  6
BYLAYER
 10
41.4219190344
 20
38.5754043138
 40
5.6158829888
100
AcDbArc
 50
0.6104843331
 51
4.7370854553
  0
ARC
  5
3AD
100
AcDbEntity
  8
0
100
AcDbCircle
 62
7
  6
BYLAYER
 10
35.0667617062
 20
38.4866901148
 40
4.5584147886
100
AcDbArc
 50
174.3031032612
 51
179.9686508571
  0
ARC
  5
3AE
100
AcDbEntity
  8
0
100
AcDbCircle
 62
7
  6
BYLAYER
 10
39.2555365769
 20
40.2391840461
 40
0.5
100
AcDbArc
 50
0.4999950011
 51
89.9994371538
  0
ARC
  5
3AF
100
AcDbEntity
  8
0
100
AcDbCircle
 62
7
  6
BYLAYER
 10
44.4468477875
 20
40.2391840461
 40
0.5
100
AcDbArc
 50
90.0005628462
 51
179.5000049989
  0
ARC
  5
3B0
100
AcDbEntity
  8
0
100
AcDbCircle
 62
7
  6
BYLAYER
 10
48.0998762972
 20
44.2391873564
 40
0.4999966896
100
AcDbArc
 50
0.0006523001
 51
90.000539135
  0
ARC
  5
3B1
100
AcDbEntity
  8
0
100
AcDbCircle
 62
7
  6
BYLAYER
 10
38.490094844
 20
40.3147287984
 40
0.2186264676
100
AcDbArc
 50
3.0881434765
 51
10.7423797889
  0
ARC
  5
3B2
100
AcDbEntity
  8
0
100
AcDbCircle
 62
7
  6
BYLAYER
 10
40.4909878247
 20
40.9491148788
 40
0.2133581071
100
AcDbArc
 50
3.1740021642
 51
10.989659783
  0
ARC
  5
3B3
100
AcDbEntity
  8
0
100
AcDbCircle
 62
7
  6
BYLAYER
 10
44.4494544243
 20
38.6891840461
 40
0.2
100
AcDbArc
 50
180.5000182751
 51
270.001569091
  0
ARC
  5
3B4
100
AcDbEntity
  8
0
100
AcDbCircle
 62
7
  6
BYLAYER
 10
39.0071021516
 20
38.6891840461
 40
0.2
100
AcDbArc
 50
180.5
 51
269.9965376759
  0
ARC
  5
3B5
100
AcDbEntity
  8
0
100
AcDbCircle
 62
7
  6
BYLAYER
 10
37.4494544243
 20
38.6891840461
 40
0.2
100
AcDbArc
 50
180.5000186108
 51
270.0015884393
  0
ARC
  5
3B6
100
AcDbEntity
  8
0
100
AcDbCircle
 62
7
  6
BYLAYER
 10
43.7121946306
 20
40.9391840461
 40
0.2
100
AcDbArc
 50
180.5000000001
 51
209.5518096726
  0
ARC
  5
3B7
100
AcDbEntity
  8
0
100
AcDbCircle
 62
7
  6
BYLAYER
 10
38.7798189718
 20
40.9391840461
 40
0.2
100
AcDbArc
 50
180.5000083089
 51
270.0
  0
ARC
  5
3B8
100
AcDbEntity
  8
0
100
AcDbCircle
 62
7
  6
BYLAYER
 10
26.8842379329
 20
38.6891737407
 40
0.1999903413
100
AcDbArc
 50
180.4970700911
 51
269.9971531106
  0
ARC
  5
3B9
100
AcDbEntity
  8
0
100
AcDbCircle
 62
7
  6
BYLAYER
 10
47.3266031553
 20
38.6889964812
 40
0.1998243059
100
AcDbArc
 50
180.4465916104
 51
269.9432581175
  0
ARC
  5
3BA
100
AcDbEntity
  8
0
100
AcDbCircle
 62
7
  6
BYLAYER
 10
34.3714492924
 20
39.2554987953
 40
0.1927563259
100
AcDbArc
 50
3.7974647954
 51
9.4766350174
  0
SPLINE
  5
3BB
100
AcDbEntity
  8
0
100
AcDbSpline
 62
7
  6
BYLAYER
 70
0
 71
3
 72
12
 73
8
 74
0
 42
0.0000001
 43
0.0000001
 44
0.0000000001
 40
0.0
 40
0.0
 40
0.0
 40
0.0
 40
0.2020379264
 40
0.4033228538
 40
0.6033446458
 40
0.8020790621
 40
1.0
 40
1.0
 40
1.0
 40
1.0
 10
23.0447053762
 20
44.2435473138
 30
0.0
 10
23.0442631178
 20
44.29535729
 30
0.0
 10
23.0274184495
 20
44.3993433702
 30
0.0
 10
22.956603234
 20
44.5395584002
 30
0.0
 10
22.8468529607
 20
44.6510521594
 30
0.0
 10
22.7088617873
 20
44.7226966624
 30
0.0
 10
22.6064062759
 20
44.7391840461
 30
0.0
 10
22.5556501983
 20
44.7391840461
 30
0.0
  0
SPLINE
  5
3BC
100
AcDbEntity
  8
0
100
AcDbSpline
 62
7
  6
BYLAYER
 70
0
 71
3
 72
11
 73
7
 74
0
 42
0.0000001
 43
0.0000001
 44
0.0000000001
 40
0.0
 40
0.0
 40
0.0
 40
0.0
 40
0.3412520356
 40
0.6433562041
 40
0.8716640097
 40
1.0
 40
1.0
 40
1.0
 40
1.0
 10
22.5556501983
 20
44.2435473138
 30
0.0
 10
22.6112803369
 20
44.2439404153
 30
0.0
 10
22.716159109
 20
44.244515509
 30
0.0
 10
22.8582623284
 20
44.2449377455
 30
0.0
 10
22.9656455195
 20
44.2445864498
 30
0.0
 10
23.0237958758
 20
44.2442577635
 30
0.0
 10
23.0447053762
 20
44.2435473138
 30
0.0
  0
LINE
  5
3BD
100
AcDbEntity
  8
0
100
AcDbLine
 62
7
  6
BYLAYER
 10
22.5924287996
 20
39.0391840461
 11
23.0814839776
 21
39.0391840461
  0
SPLINE
  5
3BE
100
AcDbEntity
  8
0
100
AcDbSpline
 62
7
  6
BYLAYER
 70
0
 71
3
 72
18
 73
14
 74
0
 42
0.0000001
 43
0.0000001
 44
0.0000000001
 40
0.0
 40
0.0
 40
0.0
 40
0.0
 40
0.1371733713
 40
0.2601000428
 40
0.3618340922
 40
0.4366184732
 40
0.4830924022
 40
0.5139938143
 40
0.5602406573
 40
0.6350290868
 40
0.7372919277
 40
0.8613072153
 40
1.0
 40
1.0
 40
1.0
 40
1.0
 10
23.235339966
 20
39.0391840442
 30
0.0
 10
23.2427142263
 20
39.2489081165
 30
0.0
 10
23.2669239756
 20
39.6468555767
 30
0.0
 10
23.3351039097
 20
40.1946147489
 30
0.0
 10
23.4273829287
 20
40.6494855963
 30
0.0
 10
23.5413470046
 20
40.9600979225
 30
0.0
 10
23.6652739132
 20
41.1859731766
 30
0.0
 10
23.8855420934
 20
41.1908946007
 30
0.0
 10
24.0157517062
 20
40.9675584066
 30
0.0
 10
24.1356357598
 20
40.6592601928
 30
0.0
 10
24.2373987144
 20
40.2035986428
 30
0.0
 10
24.3162838426
 20
39.652518857
 30
0.0
 10
24.3480064608
 20
39.2510648714
 30
0.0
 10
24.359234938
 20
39.0391840439
 30
0.0
  0
LINE
  5
3BF
100
AcDbEntity
  8
0
100
AcDbLine
 62
7
  6
BYLAYER
 10
24.4555262741
 20
39.0391840461
 11
27.6734014358
 21
39.0391840461
  0
LINE
  5
3C0
100
AcDbEntity
  8
0
100
AcDbLine
 62
7
  6
BYLAYER
 10
48.1870926086
 20
39.0391840435
 11
48.6002696038
 21
39.0391838035
  0
SPLINE
  5
3C1
100
AcDbEntity
  8
0
100
AcDbSpline
 62
7
  6
BYLAYER
 70
0
 71
3
 72
18
 73
14
 74
0
 42
0.0000001
 43
0.0000001
 44
0.0000000001
 40
0.0
 40
0.0
 40
0.0
 40
0.0
 40
0.1057003241
 40
0.2247174656
 40
0.3329867796
 40
0.4247323264
 40
0.5143436391
 40
0.6047544903
 40
0.6884873853
 40
0.7685833965
 40
0.8425066447
 40
0.9215937607
 40
1.0
 40
1.0
 40
1.0
 40
1.0
 10
34.0568620361
 20
39.0391837835
 30
0.0
 10
34.0255150281
 20
39.2052327496
 30
0.0
 10
33.9177344099
 20
39.5506607898
 30
0.0
 10
33.6727046142
 20
40.0264586081
 30
0.0
 10
33.3579988509
 20
40.4312259081
 30
0.0
 10
33.0193132536
 20
40.7492348814
 30
0.0
 10
32.6604178755
 20
40.9971160548
 30
0.0
 10
32.2764078887
 20
41.1770800822
 30
0.0
 10
31.8778893381
 20
41.2725490332
 30
0.0
 10
31.4912030471
 20
41.2591840143
 30
0.0
 10
31.1400205729
 20
41.1033242437
 30
0.0
 10
30.893764258
 20
40.8150561493
 30
0.0
 10
30.7889510714
 20
40.5828423157
 30
0.0
 10
30.7539172218
 20
40.4624905567
 30
0.0
  0
SPLINE
  5
3C2
100
AcDbEntity
  8
0
100
AcDbSpline
 62
7
  6
BYLAYER
 70
0
 71
3
 72
11
 73
7
 74
0
 42
0.0000001
 43
0.0000001
 44
0.0000000001
 40
0.0
 40
0.0
 40
0.0
 40
0.0
 40
0.208797933
 40
0.4497451504
 40
0.704476762
 40
1.0
 40
1.0
 40
1.0
 40
1.0
 10
30.7539172218
 20
40.4624905567
 30
0.0
 10
30.6452331751
 20
40.7971115968
 30
0.0
 10
30.3509428624
 20
41.4991400531
 30
0.0
 10
29.7360294445
 20
42.5188921783
 30
0.0
 10
28.9043215788
 20
43.56465795
 30
0.0
 10
28.2495065718
 20
44.2237149743
 30
0.0
 10
27.8837486008
 20
44.5616319623
 30
0.0
  0
SPLINE
  5
3C3
100
AcDbEntity
  8
0
100
AcDbSpline
 62
7
  6
BYLAYER
 70
0
 71
3
 72
10
 73
6
 74
0
 42
0.0000001
 43
0.0000001
 44
0.0000000001
 40
0.0
 40
0.0
 40
0.0
 40
0.0
 40
0.2616779252
 40
0.6152636801
 40
1.0
 40
1.0
 40
1.0
 40
1.0
 10
34.0567797116
 20
39.0391471419
 30
0.0
 10
34.0408482311
 20
39.0396158237
 30
0.0
 10
34.003362026
 20
39.03887043
 30
0.0
 10
33.9424610589
 20
39.0394322071
 30
0.0
 10
33.8974854573
 20
39.0388325231
 30
0.0
 10
33.8740546467
 20
39.0391978191
 30
0.0
  0
LINE
  5
3C4
100
AcDbEntity
  8
0
100
AcDbLine
 62
7
  6
BYLAYER
 10
22.1011921822
 20
38.4891840461
 11
22.1215849488
 21
40.8259928474
  0
SPLINE
  5
3C5
100
AcDbEntity
  8
0
100
AcDbSpline
 62
7
  6
BYLAYER
 70
0
 71
3
 72
13
 73
9
 74
0
 42
0.0000001
 43
0.0000001
 44
0.0000000001
 40
0.0
 40
0.0
 40
0.0
 40
0.0
 40
0.0086549908
 40
0.1842506628
 40
0.3742609086
 40
0.5759833383
 40
0.7866266055
 40
1.0
 40
1.0
 40
1.0
 40
1.0
 10
30.2831817783
 20
39.0391997038
 30
0.0
 10
30.2836544278
 20
39.042820997
 30
0.0
 10
30.2938131816
 20
39.1198995542
 30
0.0
 10
30.3186229023
 20
39.2759341801
 30
0.0
 10
30.3676284752
 20
39.5103375873
 30
0.0
 10
30.4309678772
 20
39.7565825773
 30
0.0
 10
30.5077083257
 20
40.0092930572
 30
0.0
 10
30.5664506293
 20
40.1783454499
 30
0.0
 10
30.5976024164
 20
40.2628181869
 30
0.0
  0
SPLINE
  5
3C6
100
AcDbEntity
  8
0
100
AcDbSpline
 62
7
  6
BYLAYER
 70
0
 71
3
 72
28
 73
24
 74
0
 42
0.0000001
 43
0.0000001
 44
0.0000000001
 40
0.0
 40
0.0
 40
0.0
 40
0.0
 40
0.0149235509
 40
0.064265592
 40
0.1131132241
 40
0.1369657834
 40
0.1602904497
 40
0.1827836984
 40
0.2052563587
 40
0.2477387052
 40
0.2887859264
 40
0.3291319796
 40
0.369208313
 40
0.409363394
 40
0.4506066081
 40
0.4950047567
 40
0.5449734586
 40
0.6032541357
 40
0.6727019187
 40
0.7545401877
 40
0.8515410398
 40
0.958154303
 40
1.0
 40
1.0
 40
1.0
 40
1.0
 10
30.5976715697
 20
40.262799025
 30
0.0
 10
30.6054533162
 20
40.2839081238
 30
0.0
 10
30.6406589129
 20
40.374172175
 30
0.0
 10
30.7167229609
 20
40.5276165804
 30
0.0
 10
30.8286037097
 20
40.6755954554
 30
0.0
 10
30.9348177516
 20
40.7744058743
 30
0.0
 10
31.0198391562
 20
40.8365029677
 30
0.0
 10
31.1097174227
 20
40.8871740629
 30
0.0
 10
31.2312860901
 20
40.9387820345
 30
0.0
 10
31.387200546
 20
40.9782515635
 30
0.0
 10
31.5740018876
 20
40.9932813351
 30
0.0
 10
31.7573070235
 20
40.9832346688
 30
0.0
 10
31.9368718795
 20
40.9530010831
 30
0.0
 10
32.1139537372
 20
40.9053847797
 30
0.0
 10
32.292404327
 20
40.8405753586
 30
0.0
 10
32.4784577398
 20
40.7553161651
 30
0.0
 10
32.6792806967
 20
40.6423915627
 30
0.0
 10
32.9004982835
 20
40.4906178017
 30
0.0
 10
33.1420682813
 20
40.2860400365
 30
0.0
 10
33.3975596877
 20
40.0110341942
 30
0.0
 10
33.6425781938
 20
39.6550525148
 30
0.0
 10
33.796157713
 20
39.315487676
 30
0.0
 10
33.858854191
 20
39.1004226886
 30
0.0
 10
33.8740636259
 20
39.0391997884
 30
0.0
  0
SPLINE
  5
3C7
100
AcDbEntity
  8
0
100
AcDbSpline
 62
7
  6
BYLAYER
 70
0
 71
3
 72
10
 73
6
 74
0
 42
0.0000001
 43
0.0000001
 44
0.0000000001
 40
0.0
 40
0.0
 40
0.0
 40
0.0
 40
0.3295942113
 40
0.6635302818
 40
1.0
 40
1.0
 40
1.0
 40
1.0
 10
33.4568295235
 20
39.0391855837
 30
0.0
 10
33.4597795361
 20
38.9787516377
 30
0.0
 10
33.4624412346
 20
38.8569045605
 30
0.0
 10
33.4569690531
 20
38.6733371935
 30
0.0
 10
33.4470266975
 20
38.5506042541
 30
0.0
 10
33.4404803394
 20
38.4891840461
 30
0.0
  0
SPLINE
  5
3C8
100
AcDbEntity
  8
0
100
AcDbSpline
 62
7
  6
BYLAYER
 70
0
 71
3
 72
10
 73
6
 74
0
 42
0.0000001
 43
0.0000001
 44
0.0000000001
 40
0.0
 40
0.0
 40
0.0
 40
0.0
 40
0.3662726084
 40
0.6933985753
 40
1.0
 40
1.0
 40
1.0
 40
1.0
 10
30.4082873716
 20
39.0391796406
 30
0.0
 10
30.4288536253
 20
39.2171554116
 30
0.0
 10
30.485343857
 20
39.5522707889
 30
0.0
 10
30.6077400177
 20
40.0262078267
 30
0.0
 10
30.70342941
 20
40.3212655688
 30
0.0
 10
30.7538627368
 20
40.4625035612
 30
0.0
  0
SPLINE
  5
3C9
100
AcDbEntity
  8
0
100
AcDbSpline
 62
7
  6
BYLAYER
 70
0
 71
3
 72
20
 73
16
 74
0
 42
0.0000001
 43
0.0000001
 44
0.0000000001
 40
0.0
 40
0.0
 40
0.0
 40
0.0
 40
0.0683739792
 40
0.1721386483
 40
0.2652794203
 40
0.3489704252
 40
0.3881951906
 40
0.4260388541
 40
0.4643991738
 40
0.5052215597
 40
0.5952963618
 40
0.697904555
 40
0.8120144161
 40
0.9050169832
 40
1.0
 40
1.0
 40
1.0
 40
1.0
 10
30.7538627368
 20
40.4625035612
 30
0.0
 10
30.7591534168
 20
40.4564177536
 30
0.0
 10
30.7715878806
 20
40.4403030093
 30
0.0
 10
30.7860829086
 20
40.4122141403
 30
0.0
 10
30.7933299844
 20
40.3794942645
 30
0.0
 10
30.7913180268
 20
40.3536692642
 30
0.0
 10
30.7855695291
 20
40.3355402388
 30
0.0
 10
30.7796286505
 20
40.3232407734
 30
0.0
 10
30.7719448411
 20
40.3117236579
 30
0.0
 10
30.7586858279
 20
40.2967269721
 30
0.0
 10
30.7363187165
 20
40.2800823803
 30
0.0
 10
30.7026541147
 20
40.2660266992
 30
0.0
 10
30.6664986183
 20
40.2592507468
 30
0.0
 10
30.630779299
 20
40.2586016032
 30
0.0
 10
30.6086707288
 20
40.2609686926
 30
0.0
 10
30.5976216407
 20
40.2628149739
 30
0.0
  0
SPLINE
  5
3CA
100
AcDbEntity
  8
0
100
AcDbSpline
 62
7
  6
BYLAYER
 70
0
 71
3
 72
13
 73
9
 74
0
 42
0.0000001
 43
0.0000001
 44
0.0000000001
 40
0.0
 40
0.0
 40
0.0
 40
0.0
 40
0.291039832
 40
0.5343083345
 40
0.6892042328
 40
0.7345214996
 40
0.8103989077
 40
1.0
 40
1.0
 40
1.0
 40
1.0
 10
30.2831829024
 20
39.0391995753
 30
0.0
 10
30.3090577979
 20
39.0393979871
 30
0.0
 10
30.355288325
 20
39.0390964005
 30
0.0
 10
30.4209560976
 20
39.039187913
 30
0.0
 10
30.4522275327
 20
39.0391989003
 30
0.0
 10
30.4879499167
 20
39.0391784162
 30
0.0
 10
30.4383029504
 20
39.0391115197
 30
0.0
 10
30.4251396145
 20
39.0395792549
 30
0.0
 10
30.4082873716
 20
39.0391796406
 30
0.0
  0
SPLINE
  5
3CB
100
AcDbEntity
  8
0
100
AcDbSpline
 62
7
  6
BYLAYER
 70
0
 71
3
 72
11
 73
7
 74
0
 42
0.0000001
 43
0.0000001
 44
0.0000000001
 40
0.0
 40
0.0
 40
0.0
 40
0.0
 40
0.2164808143
 40
0.4610984195
 40
0.7245284438
 40
1.0
 40
1.0
 40
1.0
 40
1.0
 10
30.4083357028
 20
39.039184038
 30
0.0
 10
30.2142763837
 20
39.0374053918
 30
0.0
 10
29.8009062187
 20
39.0400221718
 30
0.0
 10
29.1513930354
 20
39.0393357651
 30
0.0
 10
28.4490118494
 20
39.0374531983
 30
0.0
 10
27.9658587252
 20
39.0431981296
 30
0.0
 10
27.7189407475
 20
39.0391839868
 30
0.0
  0
SPLINE
  5
3CC
100
AcDbEntity
  8
0
100
AcDbSpline
 62
7
  6
BYLAYER
 70
0
 71
3
 72
18
 73
14
 74
0
 42
0.0000001
 43
0.0000001
 44
0.0000000001
 40
0.0
 40
0.0
 40
0.0
 40
0.0
 40
0.2718370448
 40
0.4057372294
 40
0.5373209838
 40
0.601977663
 40
0.6655843921
 40
0.7278476403
 40
0.7883403258
 40
0.8465605811
 40
0.9016755991
 40
0.9529465061
 40
1.0
 40
1.0
 40
1.0
 40
1.0
 10
22.6007553219
 20
44.2435481551
 30
0.0
 10
23.1661945927
 20
43.8774365768
 30
0.0
 10
23.9949680904
 20
43.3061786421
 30
0.0
 10
25.0415539421
 20
42.482412124
 30
0.0
 10
25.6566038856
 20
41.9420921065
 30
0.0
 10
26.1180578648
 20
41.4928244236
 30
0.0
 10
26.4431282673
 20
41.1502293046
 30
0.0
 10
26.7453776872
 20
40.8008181539
 30
0.0
 10
27.0199999718
 20
40.4459348267
 30
0.0
 10
27.2610685836
 20
40.0885444841
 30
0.0
 10
27.4626674161
 20
39.733338709
 30
0.0
 10
27.6178694518
 20
39.3855482549
 30
0.0
 10
27.6917458143
 20
39.1525675612
 30
0.0
 10
27.7189418931
 20
39.0391842611
 30
0.0
  0
SPLINE
  5
3CD
100
AcDbEntity
  8
0
100
AcDbSpline
 62
7
  6
BYLAYER
 70
0
 71
3
 72
10
 73
6
 74
0
 42
0.0000001
 43
0.0000001
 44
0.0000000001
 40
0.0
 40
0.0
 40
0.0
 40
0.0
 40
0.3085694713
 40
0.6411405563
 40
1.0
 40
1.0
 40
1.0
 40
1.0
 10
17.7211857087
 20
40.7165531549
 30
0.0
 10
17.7606452575
 20
40.6873963653
 30
0.0
 10
17.8490471842
 20
40.6352809694
 30
0.0
 10
17.9982990293
 20
40.5784948886
 30
0.0
 10
18.1067446076
 20
40.5573613672
 30
0.0
 10
18.1633398462
 20
40.5501002326
 30
0.0
  0
SPLINE
  5
3CE
100
AcDbEntity
  8
0
100
AcDbSpline
 62
7
  6
BYLAYER
 70
0
 71
3
 72
10
 73
6
 74
0
 42
0.0000001
 43
0.0000001
 44
0.0000000001
 40
0.0
 40
0.0
 40
0.0
 40
0.0
 40
0.3272301773
 40
0.6629365322
 40
1.0
 40
1.0
 40
1.0
 40
1.0
 10
18.1633398462
 20
40.5501002326
 30
0.0
 10
18.1811863617
 20
40.547915306
 30
0.0
 10
18.2174517245
 20
40.5443324578
 30
0.0
 10
18.2723374464
 20
40.5414930256
 30
0.0
 10
18.3093069926
 20
40.5408791577
 30
0.0
 10
18.3278269848
 20
40.5409293532
 30
0.0
  0
SPLINE
  5
3CF
100
AcDbEntity
  8
0
100
AcDbSpline
 62
7
  6
BYLAYER
 70
0
 71
3
 72
10
 73
6
 74
0
 42
0.0000001
 43
0.0000001
 44
0.0000000001
 40
0.0
 40
0.0
 40
0.0
 40
0.0
 40
0.2703531419
 40
0.6155252994
 40
1.0
 40
1.0
 40
1.0
 40
1.0
 10
17.6916198806
 20
41.2348238807
 30
0.0
 10
17.6545072725
 20
41.234515623
 30
0.0
 10
17.5700081786
 20
41.2342272831
 30
0.0
 10
17.4327289072
 20
41.234254495
 30
0.0
 10
17.3325637396
 20
41.2345666749
 30
0.0
 10
17.279783922
 20
41.2348178121
 30
0.0
  0
LINE
  5
3D0
100
AcDbEntity
  8
0
100
AcDbLine
 62
7
  6
BYLAYER
 10
17.6916198806
 20
41.2348238807
 11
17.6795471751
 21
43.5409262457
  0
LINE
  5
3D1
100
AcDbEntity
  8
0
100
AcDbLine
 62
7
  6
BYLAYER
 10
24.1587917216
 20
43.5409293525
 11
24.164245334
 21
41.2348206435
  0
SPLINE
  5
3D2
100
AcDbEntity
  8
0
100
AcDbSpline
 62
7
  6
BYLAYER
 70
0
 71
3
 72
10
 73
6
 74
0
 42
0.0000001
 43
0.0000001
 44
0.0000000001
 40
0.0
 40
0.0
 40
0.0
 40
0.0
 40
0.317898769
 40
0.6498295592
 40
1.0
 40
1.0
 40
1.0
 40
1.0
 10
23.9948910553
 20
40.9664597953
 30
0.0
 10
24.0145022092
 20
40.9937907599
 30
0.0
 10
24.0533744477
 20
41.0505496323
 30
0.0
 10
24.1090268353
 20
41.14057155
 30
0.0
 10
24.1457801459
 20
41.2026955016
 30
0.0
 10
24.1642452868
 20
41.2348206427
 30
0.0
  0
SPLINE
  5
3D3
100
AcDbEntity
  8
0
100
AcDbSpline
 62
7
  6
BYLAYER
 70
0
 71
3
 72
10
 73
6
 74
0
 42
0.0000001
 43
0.0000001
 44
0.0000000001
 40
0.0
 40
0.0
 40
0.0
 40
0.0
 40
0.3469402175
 40
0.6774573024
 40
1.0
 40
1.0
 40
1.0
 40
1.0
 10
27.5080638093
 20
41.2461157028
 30
0.0
 10
27.4994376889
 20
41.2295413121
 30
0.0
 10
27.4847735934
 20
41.1959391439
 30
0.0
 10
27.4715790114
 20
41.1435037376
 30
0.0
 10
27.4684048669
 20
41.1082997273
 30
0.0
 10
27.4682812714
 20
41.0909293532
 30
0.0
  0
SPLINE
  5
3D4
100
AcDbEntity
  8
0
100
AcDbSpline
 62
7
  6
BYLAYER
 70
0
 71
3
 72
10
 73
6
 74
0
 42
0.0000001
 43
0.0000001
 44
0.0000000001
 40
0.0
 40
0.0
 40
0.0
 40
0.0
 40
0.3326699567
 40
0.6660038806
 40
1.0
 40
1.0
 40
1.0
 40
1.0
 10
27.4682768426
 20
41.090929169
 30
0.0
 10
27.4658335866
 20
40.824405712
 30
0.0
 10
27.4587716768
 20
40.2908468493
 30
0.0
 10
27.4556444502
 20
39.4896461703
 30
0.0
 10
27.448626188
 20
38.9550243008
 30
0.0
 10
27.4461540065
 20
38.6874385456
 30
0.0
  0
SPLINE
  5
3D5
100
AcDbEntity
  8
0
100
AcDbSpline
 62
7
  6
BYLAYER
 70
0
 71
3
 72
15
 73
11
 74
0
 42
0.0000001
 43
0.0000001
 44
0.0000000001
 40
0.0
 40
0.0
 40
0.0
 40
0.0
 40
0.1158898286
 40
0.2342207068
 40
0.3551353094
 40
0.4787171628
 40
0.6050082436
 40
0.7340243541
 40
0.8657216961
 40
1.0
 40
1.0
 40
1.0
 40
1.0
 10
31.9818595318
 20
43.5409293678
 30
0.0
 10
31.8464037924
 20
43.5109403125
 30
0.0
 10
31.5755074752
 20
43.4364642747
 30
0.0
 10
31.178294294
 20
43.2830077083
 30
0.0
 10
30.790181418
 20
43.0863579076
 30
0.0
 10
30.4155923023
 20
42.8468481948
 30
0.0
 10
30.0589176125
 20
42.5654491699
 30
0.0
 10
29.724484062
 20
42.2437582308
 30
0.0
 10
29.4164759285
 20
41.8840596924
 30
0.0
 10
29.2330427689
 20
41.6231091348
 30
0.0
 10
29.1468229926
 20
41.487438739
 30
0.0
  0
SPLINE
  5
3D6
100
AcDbEntity
  8
0
100
AcDbSpline
 62
7
  6
BYLAYER
 70
0
 71
3
 72
10
 73
6
 74
0
 42
0.0000001
 43
0.0000001
 44
0.0000000001
 40
0.0
 40
0.0
 40
0.0
 40
0.0
 40
0.3325296441
 40
0.6642456744
 40
1.0
 40
1.0
 40
1.0
 40
1.0
 10
27.8693001248
 20
41.487438739
 30
0.0
 10
27.8186055668
 20
41.4874400451
 30
0.0
 10
27.7162095265
 20
41.4669887578
 30
0.0
 10
27.5865685302
 20
41.3801799131
 30
0.0
 10
27.5280469698
 20
41.2932390839
 30
0.0
 10
27.5080638106
 20
41.246114814
 30
0.0
  0
SPLINE
  5
3D7
100
AcDbEntity
  8
0
100
AcDbSpline
 62
7
  6
BYLAYER
 70
0
 71
3
 72
10
 73
6
 74
0
 42
0.0000001
 43
0.0000001
 44
0.0000000001
 40
0.0
 40
0.0
 40
0.0
 40
0.0
 40
0.2490280826
 40
0.5006495996
 40
1.0
 40
1.0
 40
1.0
 40
1.0
 10
31.9818591712
 20
43.5409367736
 30
0.0
 10
32.1279065002
 20
43.5590425176
 30
0.0
 10
32.4227021345
 20
43.5866696889
 30
0.0
 10
33.0136173342
 20
43.6059684225
 30
0.0
 10
33.4579961642
 20
43.5772279971
 30
0.0
 10
33.7508516356
 20
43.5409368057
 30
0.0
  0
SPLINE
  5
3D8
100
AcDbEntity
  8
0
100
AcDbSpline
 62
7
  6
BYLAYER
 70
0
 71
3
 72
16
 73
12
 74
0
 42
0.0000001
 43
0.0000001
 44
0.0000000001
 40
0.0
 40
0.0
 40
0.0
 40
0.0
 40
0.0175390571
 40
0.0429407223
 40
0.076141282
 40
0.1169204987
 40
0.2200940346
 40
0.3501035188
 40
0.5031023809
 40
0.6696688161
 40
1.0
 40
1.0
 40
1.0
 40
1.0
 10
29.2969004739
 20
41.4072806652
 30
0.0
 10
29.2959023499
 20
41.4072460821
 30
0.0
 10
29.2934581578
 20
41.4076020049
 30
0.0
 10
29.2892706427
 20
41.4087111983
 30
0.0
 10
29.2839122746
 20
41.4105520439
 30
0.0
 10
29.274534294
 20
41.4142704458
 30
0.0
 10
29.2603520465
 20
41.4207944854
 30
0.0
 10
29.2407861031
 20
41.4308396419
 30
0.0
 10
29.218430181
 20
41.4433217989
 30
0.0
 10
29.1865435618
 20
41.4621054241
 30
0.0
 10
29.1625499547
 20
41.4771200916
 30
0.0
 10
29.1468229848
 20
41.4874388985
 30
0.0
  0
SPLINE
  5
3D9
100
AcDbEntity
  8
0
100
AcDbSpline
 62
7
  6
BYLAYER
 70
0
 71
3
 72
18
 73
14
 74
0
 42
0.0000001
 43
0.0000001
 44
0.0000000001
 40
0.0
 40
0.0
 40
0.0
 40
0.0
 40
0.175721549
 40
0.3549889202
 40
0.5278222262
 40
0.6829516695
 40
0.8101728821
 40
0.8616643389
 40
0.9044990821
 40
0.9385762219
 40
0.9647289728
 40
0.9844117387
 40
1.0
 40
1.0
 40
1.0
 40
1.0
 10
31.9818591882
 20
43.5409293574
 30
0.0
 10
31.9818409059
 20
43.5530064211
 30
0.0
 10
31.981417487
 20
43.577405262
 30
0.0
 10
31.9796056948
 20
43.6136438299
 30
0.0
 10
31.9764795192
 20
43.648376074
 30
0.0
 10
31.9722307409
 20
43.6793822696
 30
0.0
 10
31.9675912928
 20
43.7018872037
 30
0.0
 10
31.9633005553
 20
43.7165060501
 30
0.0
 10
31.9602206338
 20
43.724786632
 30
0.0
 10
31.9570684436
 20
43.7311519178
 30
0.0
 10
31.9538772628
 20
43.7356580559
 30
0.0
 10
31.9506339889
 20
43.7384671473
 30
0.0
 10
31.9482023588
 20
43.7391901811
 30
0.0
 10
31.9471310011
 20
43.7391903683
 30
0.0
  0
SPLINE
  5
3DA
100
AcDbEntity
  8
0
100
AcDbSpline
 62
7
  6
BYLAYER
 70
0
 71
3
 72
11
 73
7
 74
0
 42
0.0000001
 43
0.0000001
 44
0.0000000001
 40
0.0
 40
0.0
 40
0.0
 40
0.0
 40
0.0976635906
 40
0.3138281368
 40
0.6293422973
 40
1.0
 40
1.0
 40
1.0
 40
1.0
 10
46.6352433084
 20
43.7391840461
 30
0.0
 10
46.6419225432
 20
43.7391840461
 30
0.0
 10
46.6536755688
 20
43.714013871
 30
0.0
 10
46.661219448
 20
43.6761364235
 30
0.0
 10
46.6685954982
 20
43.612642263
 30
0.0
 10
46.6699332067
 20
43.5662787008
 30
0.0
 10
46.6699716215
 20
43.5409293665
 30
0.0
  0
SPLINE
  5
3DB
100
AcDbEntity
  8
0
100
AcDbSpline
 62
7
  6
BYLAYER
 70
0
 71
3
 72
18
 73
14
 74
0
 42
0.0000001
 43
0.0000001
 44
0.0000000001
 40
0.0
 40
0.0
 40
0.0
 40
0.0
 40
0.1757201445
 40
0.354985999
 40
0.5278180934
 40
0.6829471344
 40
0.8101691253
 40
0.861661376
 40
0.9044971205
 40
0.9385753606
 40
0.9647290854
 40
0.9844123184
 40
1.0
 40
1.0
 40
1.0
 40
1.0
 10
42.614126462
 20
43.5409287591
 30
0.0
 10
42.6141082229
 20
43.5530060157
 30
0.0
 10
42.6136849207
 20
43.5774052417
 30
0.0
 10
42.611873394
 20
43.6136444075
 30
0.0
 10
42.608747586
 20
43.648377305
 30
0.0
 10
42.6044992454
 20
43.6793842572
 30
0.0
 10
42.5998602398
 20
43.7018899174
 30
0.0
 10
42.5955698926
 20
43.7165094406
 30
0.0
 10
42.5924902254
 20
43.7247905522
 30
0.0
 10
42.5893382896
 20
43.7311563822
 30
0.0
 10
42.5861473605
 20
43.735663064
 30
0.0
 10
42.5829043964
 20
43.7384727096
 30
0.0
 10
42.5804728727
 20
43.7391962562
 30
0.0
 10
42.5794015292
 20
43.7391966407
 30
0.0
  0
SPLINE
  5
3DC
100
AcDbEntity
  8
0
100
AcDbSpline
 62
7
  6
BYLAYER
 70
0
 71
3
 72
15
 73
11
 74
0
 42
0.0000001
 43
0.0000001
 44
0.0000000001
 40
0.0
 40
0.0
 40
0.0
 40
0.0
 40
0.1342947851
 40
0.2660243156
 40
0.395076291
 40
0.521395171
 40
0.6449866362
 40
0.765887608
 40
0.8841784365
 40
1.0
 40
1.0
 40
1.0
 40
1.0
 10
45.4553814592
 20
41.4874387492
 30
0.0
 10
45.3687466612
 20
41.6231156509
 30
0.0
 10
45.1845120341
 20
41.88407568
 30
0.0
 10
44.8754134102
 20
42.2437770599
 30
0.0
 10
44.539994212
 20
42.5654714995
 30
0.0
 10
44.182461059
 20
42.8468691498
 30
0.0
 10
43.807153445
 20
43.0863719549
 30
0.0
 10
43.4184643404
 20
43.2830090804
 30
0.0
 10
43.0208147308
 20
43.4364557619
 30
0.0
 10
42.7496785031
 20
43.5109376413
 30
0.0
 10
42.6141226785
 20
43.5409293798
 30
0.0
  0
SPLINE
  5
3DD
100
AcDbEntity
  8
0
100
AcDbSpline
 62
7
  6
BYLAYER
 70
0
 71
3
 72
11
 73
7
 74
0
 42
0.0000001
 43
0.0000001
 44
0.0000000001
 40
0.0
 40
0.0
 40
0.0
 40
0.0
 40
0.4120688292
 40
0.7410046853
 40
0.9459189386
 40
1.0
 40
1.0
 40
1.0
 40
1.0
 10
46.6699716215
 20
43.5409293532
 30
0.0
 10
46.7266023258
 20
43.5411010963
 30
0.0
 10
46.8284400067
 20
43.5414683356
 30
0.0
 10
46.9584345603
 20
43.5413576458
 30
0.0
 10
47.0392413285
 20
43.5418058421
 30
0.0
 10
47.0748285625
 20
43.5411219824
 30
0.0
 10
47.0822590072
 20
43.5409293456
 30
0.0
  0
SPLINE
  5
3DE
100
AcDbEntity
  8
0
100
AcDbSpline
 62
7
  6
BYLAYER
 70
0
 71
3
 72
10
 73
6
 74
0
 42
0.0000001
 43
0.0000001
 44
0.0000000001
 40
0.0
 40
0.0
 40
0.0
 40
0.0
 40
0.0738447951
 40
0.4146114877
 40
1.0
 40
1.0
 40
1.0
 40
1.0
 10
47.1267674458
 20
38.6874380025
 30
0.0
 10
47.1238243869
 20
38.6872937043
 30
0.0
 10
47.1072961497
 20
38.6866635158
 30
0.0
 10
47.0673884212
 20
38.6870926902
 30
0.0
 10
47.0304465274
 20
38.686860568
 30
0.0
 10
47.0070931568
 20
38.6868743433
 30
0.0
  0
SPLINE
  5
3DF
100
AcDbEntity
  8
0
100
AcDbSpline
 62
7
  6
BYLAYER
 70
0
 71
3
 72
12
 73
8
 74
0
 42
0.0000001
 43
0.0000001
 44
0.0000000001
 40
0.0
 40
0.0
 40
0.0
 40
0.0
 40
0.2514420125
 40
0.4831713987
 40
0.6742584043
 40
0.8490911735
 40
1.0
 40
1.0
 40
1.0
 40
1.0
 10
46.9836724791
 20
41.0903399611
 30
0.0
 10
46.9825659398
 20
41.1342035698
 30
0.0
 10
46.9743774826
 20
41.2187054658
 30
0.0
 10
46.9367598663
 20
41.331447591
 30
0.0
 10
46.8780576288
 20
41.4195357934
 30
0.0
 10
46.803940823
 20
41.4744675994
 30
0.0
 10
46.7464525751
 20
41.4879958788
 30
0.0
 10
46.7201265224
 20
41.4873428827
 30
0.0
  0
LINE
  5
3E0
100
AcDbEntity
  8
0
100
AcDbLine
 62
7
  6
BYLAYER
 10
46.7201265224
 20
41.4873428827
 11
46.6888023067
 21
41.487438739
  0
LINE
  5
3E1
100
AcDbEntity
  8
0
100
AcDbLine
 62
7
  6
BYLAYER
 10
47.1267674458
 20
38.6874380025
 11
47.0822590072
 21
43.5409293456
  0
SPLINE
  5
3E2
100
AcDbEntity
  8
0
100
AcDbSpline
 62
7
  6
BYLAYER
 70
0
 71
3
 72
12
 73
8
 74
0
 42
0.0000001
 43
0.0000001
 44
0.0000000001
 40
0.0
 40
0.0
 40
0.0
 40
0.0
 40
0.0742850885
 40
0.2312957775
 40
0.4541983986
 40
0.7196711652
 40
1.0
 40
1.0
 40
1.0
 40
1.0
 10
46.7169386703
 20
43.5409293414
 30
0.0
 10
46.7025061035
 20
43.541429576
 30
0.0
 10
46.6575301388
 20
43.5414039718
 30
0.0
 10
46.5692418868
 20
43.5418509224
 30
0.0
 10
46.4437727356
 20
43.5417043203
 30
0.0
 10
46.2943361276
 20
43.5414808416
 30
0.0
 10
46.1882308899
 20
43.5411284068
 30
0.0
 10
46.1337345277
 20
43.5409293654
 30
0.0
  0
SPLINE
  5
3E3
100
AcDbEntity
  8
0
100
AcDbSpline
 62
7
  6
BYLAYER
 70
0
 71
3
 72
12
 73
8
 74
0
 42
0.0000001
 43
0.0000001
 44
0.0000000001
 40
0.0
 40
0.0
 40
0.0
 40
0.0
 40
0.2788057061
 40
0.5441436285
 40
0.7676766271
 40
0.9254147545
 40
1.0
 40
1.0
 40
1.0
 40
1.0
 10
46.160430383
 20
38.6874383657
 30
0.0
 10
46.2156190653
 20
38.6872045355
 30
0.0
 10
46.3233316482
 20
38.6868760018
 30
0.0
 10
46.4752896201
 20
38.6866464262
 30
0.0
 10
46.6032912422
 20
38.6864487216
 30
0.0
 10
46.6935136269
 20
38.6870200709
 30
0.0
 10
46.739519044
 20
38.686849301
 30
0.0
 10
46.754271312
 20
38.6874387413
 30
0.0
  0
LINE
  5
3E4
100
AcDbEntity
  8
0
100
AcDbLine
 62
7
  6
BYLAYER
 10
45.722588037
 20
43.5409292748
 11
45.7604205688
 21
38.6874386752
  0
SPLINE
  5
3E5
100
AcDbEntity
  8
0
100
AcDbSpline
 62
7
  6
BYLAYER
 70
0
 71
3
 72
11
 73
7
 74
0
 42
0.0000001
 43
0.0000001
 44
0.0000000001
 40
0.0
 40
0.0
 40
0.0
 40
0.0
 40
0.1018475071
 40
0.3181084863
 40
0.6319006344
 40
1.0
 40
1.0
 40
1.0
 40
1.0
 10
46.1218553218
 20
38.4891840461
 30
0.0
 10
46.1288701697
 20
38.4891830512
 30
0.0
 10
46.1423658672
 20
38.5134454257
 30
0.0
 10
46.1506718756
 20
38.5523891859
 30
0.0
 10
46.1589597805
 20
38.6155655377
 30
0.0
 10
46.1604305635
 20
38.6620855023
 30
0.0
 10
46.1604732874
 20
38.6874386752
 30
0.0
  0
SPLINE
  5
3E6
100
AcDbEntity
  8
0
100
AcDbSpline
 62
7
  6
BYLAYER
 70
0
 71
3
 72
11
 73
7
 74
0
 42
0.0000001
 43
0.0000001
 44
0.0000000001
 40
0.0
 40
0.0
 40
0.0
 40
0.0
 40
0.3818042368
 40
0.7050108824
 40
0.9213237483
 40
1.0
 40
1.0
 40
1.0
 40
1.0
 10
45.7604205651
 20
38.6874386752
 30
0.0
 10
45.7604330953
 20
38.6621035092
 30
0.0
 10
45.7606485534
 20
38.6152505585
 30
0.0
 10
45.7638044675
 20
38.5543877145
 30
0.0
 10
45.7646588924
 20
38.5129708879
 30
0.0
 10
45.7698848899
 20
38.4941195187
 30
0.0
 10
45.7717546399
 20
38.4891840461
 30
0.0
  0
SPLINE
  5
3E7
100
AcDbEntity
  8
0
100
AcDbSpline
 62
7
  6
BYLAYER
 70
0
 71
3
 72
11
 73
7
 74
0
 42
0.0000001
 43
0.0000001
 44
0.0000000001
 40
0.0
 40
0.0
 40
0.0
 40
0.0
 40
0.2506307215
 40
0.5008892916
 40
0.750627996
 40
1.0
 40
1.0
 40
1.0
 40
1.0
 10
46.7542727357
 20
38.6874388759
 30
0.0
 10
46.7544971775
 20
38.6615774776
 30
0.0
 10
46.7651644752
 20
38.6094262912
 30
0.0
 10
46.809488759
 20
38.5435774726
 30
0.0
 10
46.8753638482
 20
38.4994996288
 30
0.0
 10
46.9274274491
 20
38.4891860771
 30
0.0
 10
46.9531599351
 20
38.4891840467
 30
0.0
  0
SPLINE
  5
3E8
100
AcDbEntity
  8
0
100
AcDbSpline
 62
7
  6
BYLAYER
 70
0
 71
3
 72
10
 73
6
 74
0
 42
0.0000001
 43
0.0000001
 44
0.0000000001
 40
0.0
 40
0.0
 40
0.0
 40
0.0
 40
0.2490185097
 40
0.5006418569
 40
1.0
 40
1.0
 40
1.0
 40
1.0
 10
40.8451297804
 20
43.5409268973
 30
0.0
 10
40.9911722492
 20
43.5590310856
 30
0.0
 10
41.2859645786
 20
43.5866572985
 30
0.0
 10
41.8768823022
 20
43.6059600058
 30
0.0
 10
42.3212686455
 20
43.5772160324
 30
0.0
 10
42.6141299667
 20
43.5409243631
 30
0.0
  0
SPLINE
  5
3E9
100
AcDbEntity
  8
0
100
AcDbSpline
 62
7
  6
BYLAYER
 70
0
 71
3
 72
21
 73
17
 74
0
 42
0.0000001
 43
0.0000001
 44
0.0000000001
 40
0.0
 40
0.0
 40
0.0
 40
0.0
 40
0.2029234841
 40
0.4042751484
 40
0.5902994019
 40
0.7472953457
 40
0.8109775592
 40
0.8641610278
 40
0.907013493
 40
0.9397608053
 40
0.9627878763
 40
0.9709346724
 40
0.9771619425
 40
0.9820809403
 40
0.9868182755
 40
1.0
 40
1.0
 40
1.0
 40
1.0
 10
45.4553839561
 20
41.4874346555
 30
0.0
 10
45.447958243
 20
41.4825527336
 30
0.0
 10
45.4332571909
 20
41.4726850107
 30
0.0
 10
45.4120475507
 20
41.4579021922
 30
0.0
 10
45.3927737389
 20
41.4438693028
 30
0.0
 10
45.3786603823
 20
41.4329953818
 30
0.0
 10
45.3694707393
 20
41.4252850796
 30
0.0
 10
45.3642761661
 20
41.420599546
 30
0.0
 10
45.3602667105
 20
41.416625335
 30
0.0
 10
45.3574268016
 20
41.4133718588
 30
0.0
 10
45.3558155178
 20
41.4110573814
 30
0.0
 10
45.3551800643
 20
41.4095397508
 30
0.0
 10
45.3550281106
 20
41.4086980886
 30
0.0
 10
45.3551870887
 20
41.4079868598
 30
0.0
 10
45.35596295
 20
41.4072785372
 30
0.0
 10
45.3568221226
 20
41.4072556221
 30
0.0
 10
45.3573990191
 20
41.4072765336
 30
0.0
  0
SPLINE
  5
3EA
100
AcDbEntity
  8
0
100
AcDbSpline
 62
7
  6
BYLAYER
 70
0
 71
3
 72
18
 73
14
 74
0
 42
0.0000001
 43
0.0000001
 44
0.0000000001
 40
0.0
 40
0.0
 40
0.0
 40
0.0
 40
0.1757233307
 40
0.3549923235
 40
0.5278267457
 40
0.6829565288
 40
0.8101771394
 40
0.8616679917
 40
0.9045019753
 40
0.9385782508
 40
0.9647301202
 40
0.9844121322
 40
1.0
 40
1.0
 40
1.0
 40
1.0
 10
40.8451297767
 20
43.5409293631
 30
0.0
 10
40.8451114574
 20
43.5530063472
 30
0.0
 10
40.8446879647
 20
43.5774050126
 30
0.0
 10
40.8428760692
 20
43.6136432788
 30
0.0
 10
40.8397498037
 20
43.6483751418
 30
0.0
 10
40.8355009659
 20
43.6793808603
 30
0.0
 10
40.8308614954
 20
43.701885338
 30
0.0
 10
40.82657076
 20
43.7165037792
 30
0.0
 10
40.8234908624
 20
43.7247840493
 30
0.0
 10
40.8203387084
 20
43.7311490305
 30
0.0
 10
40.8171475746
 20
43.73565488
 30
0.0
 10
40.8139043344
 20
43.7384637064
 30
0.0
 10
40.8114727607
 20
43.7391865259
 30
0.0
 10
40.810401448
 20
43.7391866305
 30
0.0
  0
SPLINE
  5
3EB
100
AcDbEntity
  8
0
100
AcDbSpline
 62
7
  6
BYLAYER
 70
0
 71
3
 72
18
 73
14
 74
0
 42
0.0000001
 43
0.0000001
 44
0.0000000001
 40
0.0
 40
0.0
 40
0.0
 40
0.0
 40
0.1757244171
 40
0.3549945513
 40
0.5278299221
 40
0.682960162
 40
0.8101804934
 40
0.8616709281
 40
0.904504326
 40
0.9385798835
 40
0.9647309924
 40
0.9844123665
 40
1.0
 40
1.0
 40
1.0
 40
1.0
 10
33.7508511273
 20
43.5409294
 30
0.0
 10
33.7508328644
 20
43.5530063288
 30
0.0
 10
33.7504094848
 20
43.5774048866
 30
0.0
 10
33.7485977536
 20
43.6136429885
 30
0.0
 10
33.7454716392
 20
43.6483746643
 30
0.0
 10
33.7412229341
 20
43.6793801392
 30
0.0
 10
33.736583554
 20
43.7018843682
 30
0.0
 10
33.7322928699
 20
43.7165025624
 30
0.0
 10
33.7292130101
 20
43.7247826196
 30
0.0
 10
33.7260608864
 20
43.7311473749
 30
0.0
 10
33.7228697753
 20
43.7356529922
 30
0.0
 10
33.7196265239
 20
43.7384615868
 30
0.0
 10
33.7171949676
 20
43.7391841873
 30
0.0
 10
33.7161236825
 20
43.7391842032
 30
0.0
  0
SPLINE
  5
3EC
100
AcDbEntity
  8
0
100
AcDbSpline
 62
7
  6
BYLAYER
 70
0
 71
3
 72
13
 73
9
 74
0
 42
0.0000001
 43
0.0000001
 44
0.0000000001
 40
0.0
 40
0.0
 40
0.0
 40
0.0
 40
0.1470275678
 40
0.3232167829
 40
0.4826467019
 40
0.6348688022
 40
0.8062682579
 40
1.0
 40
1.0
 40
1.0
 40
1.0
 10
40.8451298225
 20
43.5409293508
 30
0.0
 10
40.6185244356
 20
43.4986255765
 30
0.0
 10
40.1344787399
 20
43.3356027332
 30
0.0
 10
39.4585775195
 20
42.9884047903
 30
0.0
 10
38.8507675622
 20
42.5174124319
 30
0.0
 10
38.3292471944
 20
41.9650058519
 30
0.0
 10
37.8641704282
 20
41.2956926724
 30
0.0
 10
37.6258519736
 20
40.7720624332
 30
0.0
 10
37.5152097091
 20
40.4891840342
 30
0.0
  0
SPLINE
  5
3ED
100
AcDbEntity
  8
0
100
AcDbSpline
 62
7
  6
BYLAYER
 70
0
 71
3
 72
15
 73
11
 74
0
 42
0.0000001
 43
0.0000001
 44
0.0000000001
 40
0.0
 40
0.0
 40
0.0
 40
0.0
 40
0.1256545628
 40
0.2512108703
 40
0.3765033891
 40
0.5015365257
 40
0.6264465084
 40
0.7511596656
 40
0.8756746438
 40
1.0
 40
1.0
 40
1.0
 40
1.0
 10
37.0899584564
 20
40.4892391819
 30
0.0
 10
37.0204495404
 20
40.6739473698
 30
0.0
 10
36.8612721709
 20
41.0359781048
 30
0.0
 10
36.5646831725
 20
41.5489089698
 30
0.0
 10
36.2124965156
 20
42.0243701299
 30
0.0
 10
35.8071820108
 20
42.4542221962
 30
0.0
 10
35.3521394049
 20
42.8297786751
 30
0.0
 10
34.8532692035
 20
43.143564944
 30
0.0
 10
34.3176194205
 20
43.3871414166
 30
0.0
 10
33.9415679707
 20
43.4990328309
 30
0.0
 10
33.7509149597
 20
43.54122732
 30
0.0
  0
SPLINE
  5
3EE
100
AcDbEntity
  8
0
100
AcDbSpline
 62
7
  6
BYLAYER
 70
0
 71
3
 72
23
 73
19
 74
0
 42
0.0000001
 43
0.0000001
 44
0.0000000001
 40
0.0
 40
0.0
 40
0.0
 40
0.0
 40
0.0631802644
 40
0.1262218346
 40
0.1890835101
 40
0.25173871
 40
0.3142204131
 40
0.3765132754
 40
0.4386656346
 40
0.500704953
 40
0.5627056321
 40
0.6247326278
 40
0.6868448311
 40
0.7491099567
 40
0.8115416944
 40
0.8741787268
 40
0.9369947801
 40
1.0
 40
1.0
 40
1.0
 40
1.0
 10
37.6985625548
 20
40.4891808314
 30
0.0
 10
37.7720116873
 20
40.6797858762
 30
0.0
 10
37.9407878855
 20
41.0525244521
 30
0.0
 10
38.2576175318
 20
41.5770041423
 30
0.0
 10
38.6357379413
 20
42.0572658473
 30
0.0
 10
39.0709839287
 20
42.4840410694
 30
0.0
 10
39.5583302134
 20
42.8473678201
 30
0.0
 10
40.0901799231
 20
43.1387236572
 30
0.0
 10
40.6576926578
 20
43.3487237636
 30
0.0
 10
41.2492652879
 20
43.4720689668
 30
0.0
 10
41.852399527
 20
43.5031249445
 30
0.0
 10
42.4535019831
 20
43.4424653226
 30
0.0
 10
43.0390651195
 20
43.290555653
 30
0.0
 10
43.5970531898
 20
43.0538487305
 30
0.0
 10
44.1164315153
 20
42.7383815838
 30
0.0
 10
44.5890093139
 20
42.3537728177
 30
0.0
 10
45.0077200829
 20
41.9088899853
 30
0.0
 10
45.2477612385
 20
41.5789646695
 30
0.0
 10
45.3573949452
 20
41.4072829132
 30
0.0
  0
SPLINE
  5
3EF
100
AcDbEntity
  8
0
100
AcDbSpline
 62
7
  6
BYLAYER
 70
0
 71
3
 72
10
 73
6
 74
0
 42
0.0000001
 43
0.0000001
 44
0.0000000001
 40
0.0
 40
0.0
 40
0.0
 40
0.0
 40
0.4862050985
 40
0.841598101
 40
1.0
 40
1.0
 40
1.0
 40
1.0
 10
45.3573933988
 20
41.4072788964
 30
0.0
 10
45.3628847955
 20
41.3988045933
 30
0.0
 10
45.3726319161
 20
41.3837367959
 30
0.0
 10
45.3854891814
 20
41.3689871644
 30
0.0
 10
45.3930730393
 20
41.3593823818
 30
0.0
 10
45.3963546289
 20
41.3591494597
 30
0.0
  0
SPLINE
  5
3F0
100
AcDbEntity
  8
0
100
AcDbSpline
 62
7
  6
BYLAYER
 70
0
 71
3
 72
11
 73
7
 74
0
 42
0.0000001
 43
0.0000001
 44
0.0000000001
 40
0.0
 40
0.0
 40
0.0
 40
0.0
 40
0.1019668212
 40
0.3171263308
 40
0.6317145275
 40
1.0
 40
1.0
 40
1.0
 40
1.0
 10
45.9352674966
 20
41.3591494597
 30
0.0
 10
45.949717571
 20
41.3585256185
 30
0.0
 10
45.9851996009
 20
41.3225147663
 30
0.0
 10
46.0423415301
 20
41.258868635
 30
0.0
 10
46.1155077036
 20
41.1517813381
 30
0.0
 10
46.1637004961
 20
41.0683310038
 30
0.0
 10
46.1880594563
 20
41.0221182286
 30
0.0
  0
SPLINE
  5
3F1
100
AcDbEntity
  8
0
100
AcDbSpline
 62
7
  6
BYLAYER
 70
0
 71
3
 72
11
 73
7
 74
0
 42
0.0000001
 43
0.0000001
 44
0.0000000001
 40
0.0
 40
0.0
 40
0.0
 40
0.0
 40
0.2494289352
 40
0.4993722793
 40
0.7496726995
 40
1.0
 40
1.0
 40
1.0
 40
1.0
 10
46.188053867
 20
41.0221151434
 30
0.0
 10
46.2818031174
 20
40.8426037441
 30
0.0
 10
46.4484510297
 20
40.4718128743
 30
0.0
 10
46.6340392453
 20
39.8908537468
 30
0.0
 10
46.7548937221
 20
39.2923596258
 30
0.0
 10
46.7917493311
 20
38.8866146488
 30
0.0
 10
46.7990774238
 20
38.6835000764
 30
0.0
  0
SPLINE
  5
3F2
100
AcDbEntity
  8
0
100
AcDbSpline
 62
7
  6
BYLAYER
 70
0
 71
3
 72
10
 73
6
 74
0
 42
0.0000001
 43
0.0000001
 44
0.0000000001
 40
0.0
 40
0.0
 40
0.0
 40
0.0
 40
0.4786282772
 40
0.8372876777
 40
1.0
 40
1.0
 40
1.0
 40
1.0
 10
46.7990820623
 20
38.683500424
 30
0.0
 10
46.7994153076
 20
38.6755123686
 30
0.0
 10
46.800495327
 20
38.6610740179
 30
0.0
 10
46.8031552335
 20
38.6459824978
 30
0.0
 10
46.8065908109
 20
38.6359255869
 30
0.0
 10
46.8092209224
 20
38.6352402099
 30
0.0
  0
SPLINE
  5
3F3
100
AcDbEntity
  8
0
100
AcDbSpline
 62
7
  6
BYLAYER
 70
0
 71
3
 72
22
 73
18
 74
0
 42
0.0000001
 43
0.0000001
 44
0.0000000001
 40
0.0
 40
0.0
 40
0.0
 40
0.0
 40
0.0075722855
 40
0.0131593598
 40
0.0173763741
 40
0.0215302696
 40
0.0269933374
 40
0.0344613817
 40
0.0563857958
 40
0.0883099299
 40
0.1305859483
 40
0.183430395
 40
0.2470124551
 40
0.4045005321
 40
0.5917641719
 40
0.7949090007
 40
1.0
 40
1.0
 40
1.0
 40
1.0
 10
46.188053867
 20
41.0221151434
 30
0.0
 10
46.1877263905
 20
41.0221020137
 30
0.0
 10
46.1871545186
 20
41.0221122347
 30
0.0
 10
46.1864117846
 20
41.0222798921
 30
0.0
 10
46.1859080274
 20
41.0226805171
 30
0.0
 10
46.1857989494
 20
41.0233107164
 30
0.0
 10
46.1860311736
 20
41.0240259418
 30
0.0
 10
46.1868001047
 20
41.0253295562
 30
0.0
 10
46.1886089047
 20
41.0272988328
 30
0.0
 10
46.1917052828
 20
41.0300735038
 30
0.0
 10
46.1960354286
 20
41.0334709771
 30
0.0
 10
46.2016094032
 20
41.0374854403
 30
0.0
 10
46.2114433088
 20
41.0441105608
 30
0.0
 10
46.226449463
 20
41.0534540346
 30
0.0
 10
46.2468662184
 20
41.0655180477
 30
0.0
 10
46.2692843177
 20
41.0782379598
 30
0.0
 10
46.2847809609
 20
41.0867277321
 30
0.0
 10
46.2926001974
 20
41.090929432
 30
0.0
  0
SPLINE
  5
3F4
100
AcDbEntity
  8
0
100
AcDbSpline
 62
7
  6
BYLAYER
 70
0
 71
3
 72
10
 73
6
 74
0
 42
0.0000001
 43
0.0000001
 44
0.0000000001
 40
0.0
 40
0.0
 40
0.0
 40
0.0
 40
0.4335258045
 40
0.7957303756
 40
1.0
 40
1.0
 40
1.0
 40
1.0
 10
46.9206665755
 20
38.6874381143
 30
0.0
 10
46.9030976393
 20
38.6868136669
 30
0.0
 10
46.8649422272
 20
38.685507573
 30
0.0
 10
46.8442428218
 20
38.6847251657
 30
0.0
 10
46.7908044948
 20
38.6830836537
 30
0.0
 10
46.7990774399
 20
38.6834996299
 30
0.0
  0
SPLINE
  5
3F5
100
AcDbEntity
  8
0
100
AcDbSpline
 62
7
  6
BYLAYER
 70
0
 71
3
 72
11
 73
7
 74
0
 42
0.0000001
 43
0.0000001
 44
0.0000000001
 40
0.0
 40
0.0
 40
0.0
 40
0.0
 40
0.2501575166
 40
0.5003664118
 40
0.7503475931
 40
1.0
 40
1.0
 40
1.0
 40
1.0
 10
46.9203812848
 20
38.6874279323
 30
0.0
 10
46.9129109082
 20
38.8960406478
 30
0.0
 10
46.8751791944
 20
39.312840863
 30
0.0
 10
46.7511800419
 20
39.9278000175
 30
0.0
 10
46.5605252289
 20
40.5250621556
 30
0.0
 10
46.3892306905
 20
40.9063744332
 30
0.0
 10
46.2928389378
 20
41.091057699
 30
0.0
  0
SPLINE
  5
3F6
100
AcDbEntity
  8
0
100
AcDbSpline
 62
7
  6
BYLAYER
 70
0
 71
3
 72
23
 73
19
 74
0
 42
0.0000001
 43
0.0000001
 44
0.0000000001
 40
0.0
 40
0.0
 40
0.0
 40
0.0
 40
0.0629048179
 40
0.1256155683
 40
0.188149414
 40
0.2504872405
 40
0.3126748515
 40
0.3747321794
 40
0.4367315935
 40
0.4987338434
 40
0.5608030564
 40
0.6230096309
 40
0.6853752227
 40
0.7479414936
 40
0.8106860479
 40
0.8736336199
 40
0.9367513817
 40
1.0
 40
1.0
 40
1.0
 40
1.0
 10
29.2969004739
 20
41.4072806652
 30
0.0
 10
29.405993056
 20
41.5789542811
 30
0.0
 10
29.645000962
 20
41.9088812379
 30
0.0
 10
30.0623507789
 20
42.3537942714
 30
0.0
 10
30.5337637653
 20
42.7384262959
 30
0.0
 10
31.0521997273
 20
43.0539059402
 30
0.0
 10
31.6094900605
 20
43.2906090639
 30
0.0
 10
32.194611967
 20
43.4425000323
 30
0.0
 10
32.7955373453
 20
43.5031301166
 30
0.0
 10
33.3987612144
 20
43.4720432265
 30
0.0
 10
33.9906892648
 20
43.3486759401
 30
0.0
 10
34.5588176501
 20
43.1386685178
 30
0.0
 10
35.091534009
 20
42.8473221881
 30
0.0
 10
35.5799777537
 20
42.4840136884
 30
0.0
 10
36.0165250568
 20
42.0572635597
 30
0.0
 10
36.3961236795
 20
41.5770392647
 30
0.0
 10
36.7145854119
 20
41.0525887675
 30
0.0
 10
36.8845397825
 20
40.6798164023
 30
0.0
 10
36.9585947431
 20
40.4891796761
 30
0.0
  0
SPLINE
  5
3F7
100
AcDbEntity
  8
0
100
AcDbSpline
 62
7
  6
BYLAYER
 70
0
 71
3
 72
10
 73
6
 74
0
 42
0.0000001
 43
0.0000001
 44
0.0000000001
 40
0.0
 40
0.0
 40
0.0
 40
0.0
 40
0.1568427275
 40
0.5148486743
 40
1.0
 40
1.0
 40
1.0
 40
1.0
 10
29.0864636721
 20
38.6352402099
 30
0.0
 10
29.0839270218
 20
38.6357962704
 30
0.0
 10
29.0809231747
 20
38.6460880401
 30
0.0
 10
29.0791989202
 20
38.6609251256
 30
0.0
 10
29.0790231591
 20
38.6754705417
 30
0.0
 10
29.0792383757
 20
38.6835004241
 30
0.0
  0
SPLINE
  5
3F8
100
AcDbEntity
  8
0
100
AcDbSpline
 62
7
  6
BYLAYER
 70
0
 71
3
 72
10
 73
6
 74
0
 42
0.0000001
 43
0.0000001
 44
0.0000000001
 40
0.0
 40
0.0
 40
0.0
 40
0.0
 40
0.3380881952
 40
0.6727023467
 40
1.0
 40
1.0
 40
1.0
 40
1.0
 10
29.0792383757
 20
38.6835004241
 30
0.0
 10
29.0882551626
 20
38.9575517379
 30
0.0
 10
29.1461198481
 20
39.5024154719
 30
0.0
 10
29.349682014
 20
40.2902498577
 30
0.0
 10
29.5606602749
 20
40.7865307184
 30
0.0
 10
29.6829764597
 20
41.0221182284
 30
0.0
  0
SPLINE
  5
3F9
100
AcDbEntity
  8
0
100
AcDbSpline
 62
7
  6
BYLAYER
 70
0
 71
3
 72
11
 73
7
 74
0
 42
0.0000001
 43
0.0000001
 44
0.0000000001
 40
0.0
 40
0.0
 40
0.0
 40
0.0
 40
0.4027326715
 40
0.7336198001
 40
0.9333090309
 40
1.0
 40
1.0
 40
1.0
 40
1.0
 10
29.6829764597
 20
41.0221182284
 30
0.0
 10
29.7056664361
 20
41.0660405271
 30
0.0
 10
29.7471926484
 20
41.143734473
 30
0.0
 10
29.7924156339
 20
41.2567208098
 30
0.0
 10
29.8233100888
 20
41.3093918083
 30
0.0
 10
29.8224054505
 20
41.3590659742
 30
0.0
 10
29.8142193234
 20
41.3591494597
 30
0.0
  0
SPLINE
  5
3FA
100
AcDbEntity
  8
0
100
AcDbSpline
 62
7
  6
BYLAYER
 70
0
 71
3
 72
10
 73
6
 74
0
 42
0.0000001
 43
0.0000001
 44
0.0000000001
 40
0.0
 40
0.0
 40
0.0
 40
0.0
 40
0.1173618566
 40
0.4654435871
 40
1.0
 40
1.0
 40
1.0
 40
1.0
 10
29.2753064557
 20
41.3591494597
 30
0.0
 10
29.2732513326
 20
41.3595685276
 30
0.0
 10
29.2766816255
 20
41.3720710305
 30
0.0
 10
29.2833105593
 20
41.3840156245
 30
0.0
 10
29.2918352466
 20
41.3991809341
 30
0.0
 10
29.2969035292
 20
41.4072788964
 30
0.0
  0
SPLINE
  5
3FB
100
AcDbEntity
  8
0
100
AcDbSpline
 62
7
  6
BYLAYER
 70
0
 71
3
 72
10
 73
6
 74
0
 42
0.0000001
 43
0.0000001
 44
0.0000000001
 40
0.0
 40
0.0
 40
0.0
 40
0.0
 40
0.3136373493
 40
0.643124819
 40
1.0
 40
1.0
 40
1.0
 40
1.0
 10
32.5790390411
 20
43.7391948655
 30
0.0
 10
32.5931318758
 20
43.7391898209
 30
0.0
 10
32.6223355374
 20
43.7329326161
 30
0.0
 10
32.6599540283
 20
43.7066152845
 30
0.0
 10
32.6780094504
 20
43.680794753
 30
0.0
 10
32.6851314371
 20
43.6664274347
 30
0.0
  0
SPLINE
  5
3FC
100
AcDbEntity
  8
0
100
AcDbSpline
 62
7
  6
BYLAYER
 70
0
 71
3
 72
10
 73
6
 74
0
 42
0.0000001
 43
0.0000001
 44
0.0000000001
 40
0.0
 40
0.0
 40
0.0
 40
0.0
 40
0.347700755
 40
0.6792509646
 40
1.0
 40
1.0
 40
1.0
 40
1.0
 10
38.216519172
 20
43.6413165955
 30
0.0
 10
38.210383795
 20
43.6598812827
 30
0.0
 10
38.1915658459
 20
43.6943861421
 30
0.0
 10
38.1464006831
 20
43.7304238808
 30
0.0
 10
38.1092350468
 20
43.7391638739
 30
0.0
 10
38.0911983729
 20
43.7391663718
 30
0.0
  0
SPLINE
  5
3FD
100
AcDbEntity
  8
0
100
AcDbSpline
 62
7
  6
BYLAYER
 70
0
 71
3
 72
10
 73
6
 74
0
 42
0.0000001
 43
0.0000001
 44
0.0000000001
 40
0.0
 40
0.0
 40
0.0
 40
0.0
 40
0.3096960561
 40
0.6432885189
 40
1.0
 40
1.0
 40
1.0
 40
1.0
 10
38.216519172
 20
43.6413165955
 30
0.0
 10
37.6455045725
 20
43.6442693631
 30
0.0
 10
36.4594139451
 20
43.6501216858
 30
0.0
 10
34.615617828
 20
43.6584749921
 30
0.0
 10
33.3428361194
 20
43.6637876969
 30
0.0
 10
32.6851314371
 20
43.6664274347
 30
0.0
  0
SPLINE
  5
3FE
100
AcDbEntity
  8
0
100
AcDbSpline
 62
7
  6
BYLAYER
 70
0
 71
3
 72
11
 73
7
 74
0
 42
0.0000001
 43
0.0000001
 44
0.0000000001
 40
0.0
 40
0.0
 40
0.0
 40
0.0
 40
0.2422228631
 40
0.5045429374
 40
0.7415144791
 40
1.0
 40
1.0
 40
1.0
 40
1.0
 10
34.5615750411
 20
39.2872352388
 30
0.0
 10
34.8946293489
 20
39.3790769406
 30
0.0
 10
35.5904091087
 20
39.5630868974
 30
0.0
 10
36.6178831492
 20
39.813891374
 30
0.0
 10
37.6666958351
 20
40.0750659481
 30
0.0
 10
38.3494864289
 20
40.2574285765
 30
0.0
 10
38.7048899259
 20
40.3554793222
 30
0.0
  0
SPLINE
  5
3FF
100
AcDbEntity
  8
0
100
AcDbSpline
 62
7
  6
BYLAYER
 70
0
 71
3
 72
24
 73
20
 74
0
 42
0.0000001
 43
0.0000001
 44
0.0000000001
 40
0.0
 40
0.0
 40
0.0
 40
0.0
 40
0.0072035215
 40
0.0119139084
 40
0.0172311275
 40
0.0229717276
 40
0.029060644
 40
0.0420547165
 40
0.0699492974
 40
0.0992696064
 40
0.1600108698
 40
0.222224634
 40
0.2852613757
 40
0.3488418828
 40
0.4771268428
 40
0.6065446538
 40
0.736892526
 40
0.8680720734
 40
1.0
 40
1.0
 40
1.0
 40
1.0
 10
38.7048704336
 20
40.3555843285
 30
0.0
 10
38.7122360647
 20
40.3574466056
 30
0.0
 10
38.7217655495
 20
40.3678133841
 30
0.0
 10
38.7299672589
 20
40.3837157116
 30
0.0
 10
38.7359699406
 20
40.3993423406
 30
0.0
 10
38.741090499
 20
40.4166736996
 30
0.0
 10
38.7470478397
 20
40.4421887773
 30
0.0
 10
38.7551212485
 20
40.4911051009
 30
0.0
 10
38.7623184113
 20
40.5648645085
 30
0.0
 10
38.7680849325
 20
40.6891617787
 30
0.0
 10
38.7677671156
 20
40.8498445512
 30
0.0
 10
38.7597212881
 20
41.0458694563
 30
0.0
 10
38.7454481594
 20
41.2445427269
 30
0.0
 10
38.7191601089
 20
41.5121177129
 30
0.0
 10
38.6740200092
 20
41.8480757806
 30
0.0
 10
38.6022379912
 20
42.2511151919
 30
0.0
 10
38.5132474567
 20
42.6538409949
 30
0.0
 10
38.4070795565
 20
43.0551151098
 30
0.0
 10
38.3247230785
 20
43.3202184594
 30
0.0
 10
38.2804267324
 20
43.4521208642
 30
0.0
  0
SPLINE
  5
400
100
AcDbEntity
  8
0
100
AcDbSpline
 62
7
  6
BYLAYER
 70
0
 71
3
 72
10
 73
6
 74
0
 42
0.0000001
 43
0.0000001
 44
0.0000000001
 40
0.0
 40
0.0
 40
0.0
 40
0.0
 40
0.2589051345
 40
0.5849797502
 40
1.0
 40
1.0
 40
1.0
 40
1.0
 10
32.68516858
 20
43.6664547209
 30
0.0
 10
32.643154058
 20
43.6619574371
 30
0.0
 10
32.5491933815
 20
43.6443664186
 30
0.0
 10
32.3876677056
 20
43.6212325625
 30
0.0
 10
32.2685660593
 20
43.5998636672
 30
0.0
 10
32.2014841338
 20
43.5904930264
 30
0.0
  0
SPLINE
  5
401
100
AcDbEntity
  8
0
100
AcDbSpline
 62
7
  6
BYLAYER
 70
0
 71
3
 72
16
 73
12
 74
0
 42
0.0000001
 43
0.0000001
 44
0.0000000001
 40
0.0
 40
0.0
 40
0.0
 40
0.0
 40
0.1983441836
 40
0.3587103981
 40
0.4894973606
 40
0.5979690409
 40
0.6896550998
 40
0.7721600879
 40
0.8633870982
 40
0.94094362
 40
1.0
 40
1.0
 40
1.0
 40
1.0
 10
34.446284005
 20
38.6849589933
 30
0.0
 10
34.4476938474
 20
38.7262137142
 30
0.0
 10
34.4504667799
 20
38.8008291099
 30
0.0
 10
34.4582355191
 20
38.9024265488
 30
0.0
 10
34.4669584613
 20
38.9851476573
 30
0.0
 10
34.4765906452
 20
39.053366204
 30
0.0
 10
34.4866513441
 20
39.1113165731
 30
0.0
 10
34.4983855047
 20
39.1653884547
 30
0.0
 10
34.5137843429
 20
39.215221854
 30
0.0
 10
34.5292046912
 20
39.260642799
 30
0.0
 10
34.5506011959
 20
39.2816855262
 30
0.0
 10
34.5615679617
 20
39.2872343865
 30
0.0
  0
SPLINE
  5
402
100
AcDbEntity
  8
0
100
AcDbSpline
 62
7
  6
BYLAYER
 70
0
 71
3
 72
10
 73
6
 74
0
 42
0.0000001
 43
0.0000001
 44
0.0000000001
 40
0.0
 40
0.0
 40
0.0
 40
0.0
 40
0.2973519088
 40
0.6284549198
 40
1.0
 40
1.0
 40
1.0
 40
1.0
 10
34.5615679617
 20
39.2872343865
 30
0.0
 10
34.507254304
 20
39.7610030883
 30
0.0
 10
34.2846110356
 20
40.7520480829
 30
0.0
 10
33.6423217226
 20
42.2296475781
 30
0.0
 10
33.0340729262
 20
43.1834309029
 30
0.0
 10
32.68516858
 20
43.6664547209
 30
0.0
  0
SPLINE
  5
403
100
AcDbEntity
  8
0
100
AcDbSpline
 62
7
  6
BYLAYER
 70
0
 71
3
 72
13
 73
9
 74
0
 42
0.0000001
 43
0.0000001
 44
0.0000000001
 40
0.0
 40
0.0
 40
0.0
 40
0.0
 40
0.1242209002
 40
0.2486153467
 40
0.3732196293
 40
0.4981314876
 40
0.7485911471
 40
1.0
 40
1.0
 40
1.0
 40
1.0
 10
34.1699028462
 20
38.6874387537
 30
0.0
 10
34.1640232937
 20
38.9095461701
 30
0.0
 10
34.1278805491
 20
39.3537524797
 30
0.0
 10
34.0054491792
 20
40.011059902
 30
0.0
 10
33.8193200141
 20
40.6544469173
 30
0.0
 10
33.4971796786
 20
41.489663623
 30
0.0
 10
32.9753367825
 20
42.4860504989
 30
0.0
 10
32.4700113351
 20
43.2297952143
 30
0.0
 10
32.2014841331
 20
43.5904930259
 30
0.0
  0
SPLINE
  5
404
100
AcDbEntity
  8
0
100
AcDbSpline
 62
7
  6
BYLAYER
 70
0
 71
3
 72
19
 73
15
 74
0
 42
0.0000001
 43
0.0000001
 44
0.0000000001
 40
0.0
 40
0.0
 40
0.0
 40
0.0
 40
0.036344493
 40
0.0882104975
 40
0.1507342143
 40
0.2240974979
 40
0.2833934309
 40
0.3509334604
 40
0.4277622819
 40
0.5151290392
 40
0.6144675636
 40
0.7273643033
 40
0.8553943192
 40
1.0
 40
1.0
 40
1.0
 40
1.0
 10
34.5637850176
 20
39.2682273313
 30
0.0
 10
34.5579979298
 20
39.2640735027
 30
0.0
 10
34.5480026955
 20
39.2488406259
 30
0.0
 10
34.5415623112
 20
39.2199820084
 30
0.0
 10
34.5348016851
 20
39.1838009264
 30
0.0
 10
34.5299606237
 20
39.1458337573
 30
0.0
 10
34.5259981401
 20
39.1067954957
 30
0.0
 10
34.5227558319
 20
39.0670061093
 30
0.0
 10
34.5197416683
 20
39.0216848476
 30
0.0
 10
34.5170272285
 20
38.9701019041
 30
0.0
 10
34.5146358871
 20
38.9114273863
 30
0.0
 10
34.512627212
 20
38.8447644405
 30
0.0
 10
34.5110734364
 20
38.7692148221
 30
0.0
 10
34.5104859308
 20
38.7157806287
 30
0.0
 10
34.5102651035
 20
38.687438739
 30
0.0
  0
SPLINE
  5
405
100
AcDbEntity
  8
0
100
AcDbSpline
 62
7
  6
BYLAYER
 70
0
 71
3
 72
12
 73
8
 74
0
 42
0.0000001
 43
0.0000001
 44
0.0000000001
 40
0.0
 40
0.0
 40
0.0
 40
0.0
 40
0.2332264411
 40
0.4773452798
 40
0.732702701
 40
0.8647676057
 40
1.0
 40
1.0
 40
1.0
 40
1.0
 10
38.708403831
 20
40.3265066826
 30
0.0
 10
38.3880636335
 20
40.2371817796
 30
0.0
 10
37.7300152517
 20
40.0629905115
 30
0.0
 10
36.7161286317
 20
39.8108056896
 30
0.0
 10
35.841054124
 20
39.5982236242
 30
0.0
 10
35.1179650391
 20
39.4177693331
 30
0.0
 10
34.74954365
 20
39.3199960578
 30
0.0
 10
34.563782414
 20
39.2682649993
 30
0.0
  0
SPLINE
  5
406
100
AcDbEntity
  8
0
100
AcDbSpline
 62
7
  6
BYLAYER
 70
0
 71
3
 72
11
 73
7
 74
0
 42
0.0000001
 43
0.0000001
 44
0.0000000001
 40
0.0
 40
0.0
 40
0.0
 40
0.0
 40
0.2733859241
 40
0.5323808689
 40
0.7710970932
 40
1.0
 40
1.0
 40
1.0
 40
1.0
 10
34.5102651035
 20
38.687438739
 30
0.0
 10
34.5099372389
 20
38.6632052738
 30
0.0
 10
34.5152256799
 20
38.6157520991
 30
0.0
 10
34.5400750192
 20
38.5510306338
 30
0.0
 10
34.5849780562
 20
38.5017689792
 30
0.0
 10
34.6272649017
 20
38.4891840461
 30
0.0
 10
34.6475571618
 20
38.4891840461
 30
0.0
  0
SPLINE
  5
407
100
AcDbEntity
  8
0
100
AcDbSpline
 62
7
  6
BYLAYER
 70
0
 71
3
 72
11
 73
7
 74
0
 42
0.0000001
 43
0.0000001
 44
0.0000000001
 40
0.0
 40
0.0
 40
0.0
 40
0.0
 40
0.260265983
 40
0.5145984944
 40
0.7604084206
 40
1.0
 40
1.0
 40
1.0
 40
1.0
 10
38.7214807735
 20
38.6874388443
 30
0.0
 10
38.7216864518
 20
38.6616575791
 30
0.0
 10
38.7312339918
 20
38.6102710858
 30
0.0
 10
38.7713921797
 20
38.5445122403
 30
0.0
 10
38.8319115623
 20
38.4998265506
 30
0.0
 10
38.8805732149
 20
38.4891856152
 30
0.0
 10
38.9043072832
 20
38.4891840464
 30
0.0
  0
SPLINE
  5
408
100
AcDbEntity
  8
0
100
AcDbSpline
 62
7
  6
BYLAYER
 70
0
 71
3
 72
11
 73
7
 74
0
 42
0.0000001
 43
0.0000001
 44
0.0000000001
 40
0.0
 40
0.0
 40
0.0
 40
0.0
 40
0.1408198734
 40
0.360276983
 40
0.6576073651
 40
1.0
 40
1.0
 40
1.0
 40
1.0
 10
39.3572945108
 20
38.4891840461
 30
0.0
 10
39.367742527
 20
38.4891832439
 30
0.0
 10
39.3922738398
 20
38.5071485461
 30
0.0
 10
39.4115478373
 20
38.5520589821
 30
0.0
 10
39.4262999818
 20
38.6144811687
 30
0.0
 10
39.4294247033
 20
38.6620352565
 30
0.0
 10
39.4295047494
 20
38.687438674
 30
0.0
  0
SPLINE
  5
409
100
AcDbEntity
  8
0
100
AcDbSpline
 62
7
  6
BYLAYER
 70
0
 71
3
 72
11
 73
7
 74
0
 42
0.0000001
 43
0.0000001
 44
0.0000000001
 40
0.0
 40
0.0
 40
0.0
 40
0.0
 40
0.3358891317
 40
0.6292859054
 40
0.8500860425
 40
1.0
 40
1.0
 40
1.0
 40
1.0
 10
38.2090510087
 20
38.687438674
 30
0.0
 10
38.209139947
 20
38.6620188393
 30
0.0
 10
38.2126998668
 20
38.6142626287
 30
0.0
 10
38.2289527343
 20
38.5516546909
 30
0.0
 10
38.2513278677
 20
38.5060716125
 30
0.0
 10
38.2778856783
 20
38.4891832616
 30
0.0
 10
38.2892311223
 20
38.4891840461
 30
0.0
  0
SPLINE
  5
40A
100
AcDbEntity
  8
0
100
AcDbSpline
 62
7
  6
BYLAYER
 70
0
 71
3
 72
13
 73
9
 74
0
 42
0.0000001
 43
0.0000001
 44
0.0000000001
 40
0.0
 40
0.0
 40
0.0
 40
0.0
 40
0.0805959091
 40
0.2063752519
 40
0.3428310994
 40
0.5186472379
 40
0.7379144893
 40
1.0
 40
1.0
 40
1.0
 40
1.0
 10
38.7084037723
 20
40.3265103649
 30
0.0
 10
38.7204056796
 20
40.3297315301
 30
0.0
 10
38.744750315
 20
40.3550135766
 30
0.0
 10
38.7603818876
 20
40.4054871923
 30
0.0
 10
38.774103198
 20
40.4717596881
 30
0.0
 10
38.783099746
 20
40.5532919618
 30
0.0
 10
38.7886656743
 20
40.6544979022
 30
0.0
 10
38.7892955989
 20
40.7287402138
 30
0.0
 10
38.7889429634
 20
40.7691482384
 30
0.0
  0
SPLINE
  5
40B
100
AcDbEntity
  8
0
100
AcDbSpline
 62
7
  6
BYLAYER
 70
0
 71
3
 72
13
 73
9
 74
0
 42
0.0000001
 43
0.0000001
 44
0.0000000001
 40
0.0
 40
0.0
 40
0.0
 40
0.0
 40
0.1203089548
 40
0.2567797716
 40
0.4142311066
 40
0.5967067661
 40
0.7965414858
 40
1.0
 40
1.0
 40
1.0
 40
1.0
 10
38.7889429634
 20
40.7691482384
 30
0.0
 10
38.7879968765
 20
40.8773689814
 30
0.0
 10
38.7755683589
 20
41.1082693055
 30
0.0
 10
38.7327538516
 20
41.4786007515
 30
0.0
 10
38.6589819805
 20
41.9010055479
 30
0.0
 10
38.5469422127
 20
42.3737727903
 30
0.0
 10
38.3928617961
 20
42.8780560114
 30
0.0
 10
38.2637407862
 20
43.2174537387
 30
0.0
 10
38.1926121108
 20
43.3860895298
 30
0.0
  0
SPLINE
  5
40C
100
AcDbEntity
  8
0
100
AcDbSpline
 62
7
  6
BYLAYER
 70
0
 71
3
 72
24
 73
20
 74
0
 42
0.0000001
 43
0.0000001
 44
0.0000000001
 40
0.0
 40
0.0
 40
0.0
 40
0.0
 40
0.2198544898
 40
0.3255600232
 40
0.4257759459
 40
0.5185635184
 40
0.6021738894
 40
0.6749368117
 40
0.7352641956
 40
0.7820705994
 40
0.8159050915
 40
0.8285491481
 40
0.8389413263
 40
0.8479675636
 40
0.8569040293
 40
0.867027001
 40
0.8791286439
 40
0.9103142075
 40
1.0
 40
1.0
 40
1.0
 40
1.0
 10
38.1926151284
 20
43.3860886456
 30
0.0
 10
38.2029238303
 20
43.3901584899
 30
0.0
 10
38.2181100541
 20
43.3963904686
 30
0.0
 10
38.2377490315
 20
43.4050530796
 30
0.0
 10
38.2513981257
 20
43.411416545
 30
0.0
 10
38.263879174
 20
43.4176385349
 30
0.0
 10
38.274940774
 20
43.4235955076
 30
0.0
 10
38.2843401251
 20
43.4291661789
 30
0.0
 10
38.2918758495
 20
43.4342337998
 30
0.0
 10
38.2973772612
 20
43.438737709
 30
0.0
 10
38.3005718234
 20
43.4422588759
 30
0.0
 10
38.3019211891
 20
43.4448077566
 30
0.0
 10
38.3023217193
 20
43.4463973252
 30
0.0
 10
38.302165306
 20
43.4478572937
 30
0.0
 10
38.3014187353
 20
43.449106922
 30
0.0
 10
38.300167933
 20
43.4500950392
 30
0.0
 10
38.29770947
 20
43.4512292834
 30
0.0
 10
38.2910687213
 20
43.4525225193
 30
0.0
 10
38.2849367158
 20
43.4523781156
 30
0.0
 10
38.2804229355
 20
43.4521206476
 30
0.0
  0
SPLINE
  5
40D
100
AcDbEntity
  8
0
100
AcDbSpline
 62
7
  6
BYLAYER
 70
0
 71
3
 72
28
 73
24
 74
0
 42
0.0000001
 43
0.0000001
 44
0.0000000001
 40
0.0
 40
0.0
 40
0.0
 40
0.0
 40
0.1124428261
 40
0.2139543634
 40
0.3057330195
 40
0.3888360605
 40
0.4641513022
 40
0.5324549813
 40
0.5943669334
 40
0.6505398248
 40
0.7015033265
 40
0.7476744846
 40
0.7894009346
 40
0.8269796596
 40
0.8606367589
 40
0.890572697
 40
0.9169406993
 40
0.9397971175
 40
0.9590745091
 40
0.9746845427
 40
0.98631373
 40
0.9943138437
 40
1.0
 40
1.0
 40
1.0
 40
1.0
 10
39.617472953
 20
43.59062179
 30
0.0
 10
39.6562256144
 20
43.4905430532
 30
0.0
 10
39.7301743193
 20
43.3001965817
 30
0.0
 10
39.8355782122
 20
43.0280951403
 30
0.0
 10
39.9304585665
 20
42.7819480619
 30
0.0
 10
40.0158286123
 20
42.558931671
 30
0.0
 10
40.0927171293
 20
42.3566601544
 30
0.0
 10
40.1620509045
 20
42.1731549462
 30
0.0
 10
40.2247023509
 20
42.0066559933
 30
0.0
 10
40.281464078
 20
41.8556238889
 30
0.0
 10
40.3330567007
 20
41.7186986927
 30
0.0
 10
40.3800908313
 20
41.5947906256
 30
0.0
 10
40.4230943036
 20
41.4830178676
 30
0.0
 10
40.4625201337
 20
41.3826679568
 30
0.0
 10
40.4987856947
 20
41.2931723487
 30
0.0
 10
40.5322175461
 20
41.2140799116
 30
0.0
 10
40.5632243368
 20
41.1451748476
 30
0.0
 10
40.5917719682
 20
41.0863366207
 30
0.0
 10
40.618552557
 20
41.0381201833
 30
0.0
 10
40.642541319
 20
41.0007448807
 30
0.0
 10
40.6645631495
 20
40.974947184
 30
0.0
 10
40.6849197126
 20
40.9613510124
 30
0.0
 10
40.6988137226
 20
40.9593846738
 30
0.0
 10
40.7040166923
 20
40.9609281603
 30
0.0
  0
SPLINE
  5
40E
100
AcDbEntity
  8
0
100
AcDbSpline
 62
7
  6
BYLAYER
 70
0
 71
3
 72
10
 73
6
 74
0
 42
0.0000001
 43
0.0000001
 44
0.0000000001
 40
0.0
 40
0.0
 40
0.0
 40
0.0
 40
0.2427929748
 40
0.5955094083
 40
1.0
 40
1.0
 40
1.0
 40
1.0
 10
39.8321764779
 20
43.6328919634
 30
0.0
 10
39.8144743586
 20
43.6339824536
 30
0.0
 10
39.7708904199
 20
43.6269764968
 30
0.0
 10
39.7008538908
 20
43.6070388459
 30
0.0
 10
39.6465139888
 20
43.5960683084
 30
0.0
 10
39.6174728549
 20
43.5906217947
 30
0.0
  0
SPLINE
  5
40F
100
AcDbEntity
  8
0
100
AcDbSpline
 62
7
  6
BYLAYER
 70
0
 71
3
 72
17
 73
13
 74
0
 42
0.0000001
 43
0.0000001
 44
0.0000000001
 40
0.0
 40
0.0
 40
0.0
 40
0.0
 40
0.0367077687
 40
0.0947324989
 40
0.1733637465
 40
0.2490239802
 40
0.3304226759
 40
0.4263482374
 40
0.5387397675
 40
0.6699718259
 40
0.8227694921
 40
1.0
 40
1.0
 40
1.0
 40
1.0
 10
43.4404274752
 20
42.4029694488
 30
0.0
 10
43.4504210806
 20
42.413302079
 30
0.0
 10
43.4646491773
 20
42.4494266036
 30
0.0
 10
43.4742171209
 20
42.5161393095
 30
0.0
 10
43.4810391424
 20
42.599265049
 30
0.0
 10
43.4842560128
 20
42.6914599982
 30
0.0
 10
43.4853278262
 20
42.790547532
 30
0.0
 10
43.4842627485
 20
42.9039965166
 30
0.0
 10
43.480819348
 20
43.0369269047
 30
0.0
 10
43.4745165402
 20
43.1920425288
 30
0.0
 10
43.4647831833
 20
43.372415329
 30
0.0
 10
43.4561876583
 20
43.5013724414
 30
0.0
 10
43.4511994808
 20
43.5705966911
 30
0.0
  0
SPLINE
  5
410
100
AcDbEntity
  8
0
100
AcDbSpline
 62
7
  6
BYLAYER
 70
0
 71
3
 72
10
 73
6
 74
0
 42
0.0000001
 43
0.0000001
 44
0.0000000001
 40
0.0
 40
0.0
 40
0.0
 40
0.0
 40
0.4027054552
 40
0.7730832454
 40
1.0
 40
1.0
 40
1.0
 40
1.0
 10
43.4511994808
 20
43.5705966911
 30
0.0
 10
43.4468838332
 20
43.5768501886
 30
0.0
 10
43.4380694768
 20
43.5885765644
 30
0.0
 10
43.428671419
 20
43.6046931608
 30
0.0
 10
43.4191635452
 20
43.6123451621
 30
0.0
 10
43.4149438739
 20
43.6130694463
 30
0.0
  0
SPLINE
  5
411
100
AcDbEntity
  8
0
100
AcDbSpline
 62
7
  6
BYLAYER
 70
0
 71
3
 72
10
 73
6
 74
0
 42
0.0000001
 43
0.0000001
 44
0.0000000001
 40
0.0
 40
0.0
 40
0.0
 40
0.0
 40
0.3008899043
 40
0.6344339926
 40
1.0
 40
1.0
 40
1.0
 40
1.0
 10
43.4149438739
 20
43.6130694463
 30
0.0
 10
43.0556048619
 20
43.6151435456
 30
0.0
 10
42.2979283831
 20
43.6193303048
 30
0.0
 10
41.103673647
 20
43.6261207826
 30
0.0
 10
40.2687559309
 20
43.6304728059
 30
0.0
 10
39.8321766458
 20
43.6328920195
 30
0.0
  0
SPLINE
  5
412
100
AcDbEntity
  8
0
100
AcDbSpline
 62
7
  6
BYLAYER
 70
0
 71
3
 72
29
 73
25
 74
0
 42
0.0000001
 43
0.0000001
 44
0.0000000001
 40
0.0
 40
0.0
 40
0.0
 40
0.0
 40
0.1306961566
 40
0.2615608166
 40
0.3923446562
 40
0.5227743381
 40
0.6524723059
 40
0.716848605
 40
0.7807054068
 40
0.8437134476
 40
0.8747004147
 40
0.9050910104
 40
0.91997404
 40
0.9345340757
 40
0.9486484822
 40
0.9621544501
 40
0.9686108976
 40
0.9747498766
 40
0.9804550132
 40
0.9856262266
 40
0.990180421
 40
0.9940348284
 40
0.9972099474
 40
1.0
 40
1.0
 40
1.0
 40
1.0
 10
39.8321207586
 20
43.6328830686
 30
0.0
 10
39.8678917301
 20
43.5163994227
 30
0.0
 10
39.939673857
 20
43.2833416231
 30
0.0
 10
40.0471160822
 20
42.9336804203
 30
0.0
 10
40.1536861357
 20
42.584011751
 30
0.0
 10
40.2588918202
 20
42.235066022
 30
0.0
 10
40.3455247507
 20
41.9451889869
 30
0.0
 10
40.4146622764
 20
41.7148638627
 30
0.0
 10
40.4664898816
 20
41.5442619353
 30
0.0
 10
40.5103863388
 20
41.4037856703
 30
0.0
 10
40.5464219924
 20
41.2935553953
 30
0.0
 10
40.5695577584
 20
41.2263192837
 30
0.0
 10
40.5886224115
 20
41.1738914228
 30
0.0
 10
40.6031459862
 20
41.1359643575
 30
0.0
 10
40.6180536915
 20
41.0995684834
 30
0.0
 10
40.6310811999
 20
41.0705806707
 30
0.0
 10
40.6418469211
 20
41.0487528977
 30
0.0
 10
40.6499385531
 20
41.0337255907
 30
0.0
 10
40.6581824056
 20
41.0201597046
 30
0.0
 10
40.6665753403
 20
41.0084521785
 30
0.0
 10
40.6750816857
 20
40.9990196407
 30
0.0
 10
40.6835761768
 20
40.9922526654
 30
0.0
 10
40.6921371168
 20
40.9884996723
 30
0.0
 10
40.6979971916
 20
40.9888741304
 30
0.0
 10
40.7004337154
 20
40.9897851188
 30
0.0
  0
SPLINE
  5
413
100
AcDbEntity
  8
0
100
AcDbSpline
 62
7
  6
BYLAYER
 70
0
 71
3
 72
10
 73
6
 74
0
 42
0.0000001
 43
0.0000001
 44
0.0000000001
 40
0.0
 40
0.0
 40
0.0
 40
0.0
 40
0.3395744251
 40
0.6674761796
 40
1.0
 40
1.0
 40
1.0
 40
1.0
 10
40.7004331022
 20
40.9897876914
 30
0.0
 10
41.0295344303
 20
41.1090942935
 30
0.0
 10
41.6673604996
 20
41.3688018279
 30
0.0
 10
42.5935416575
 20
41.8249853049
 30
0.0
 10
43.1641900054
 20
42.1999946861
 30
0.0
 10
43.4404274752
 20
42.4029694488
 30
0.0
  0
SPLINE
  5
414
100
AcDbEntity
  8
0
100
AcDbSpline
 62
7
  6
BYLAYER
 70
0
 71
3
 72
10
 73
6
 74
0
 42
0.0000001
 43
0.0000001
 44
0.0000000001
 40
0.0
 40
0.0
 40
0.0
 40
0.0
 40
0.3325112287
 40
0.6604076361
 40
1.0
 40
1.0
 40
1.0
 40
1.0
 10
43.4435565793
 20
42.3783460026
 30
0.0
 10
43.1677391066
 20
42.1745192629
 30
0.0
 10
42.5971604095
 20
41.7987262671
 30
0.0
 10
41.6712288722
 20
41.340848574
 30
0.0
 10
41.0332191446
 20
41.0805500096
 30
0.0
 10
40.7040166923
 20
40.9609281603
 30
0.0
  0
LINE
  5
415
100
AcDbEntity
  8
0
100
AcDbLine
 62
7
  6
BYLAYER
 10
46.2267053899
 20
38.6874387572
 11
46.1780639106
 21
43.5409293637
  0
SPLINE
  5
416
100
AcDbEntity
  8
0
100
AcDbSpline
 62
7
  6
BYLAYER
 70
0
 71
3
 72
10
 73
6
 74
0
 42
0.0000001
 43
0.0000001
 44
0.0000000001
 40
0.0
 40
0.0
 40
0.0
 40
0.0
 40
0.4755933998
 40
0.8274382203
 40
1.0
 40
1.0
 40
1.0
 40
1.0
 10
45.5833654649
 20
40.9374387399
 30
0.0
 10
45.5626726179
 20
40.8682703853
 30
0.0
 10
45.5194700476
 20
40.7470623197
 30
0.0
 10
45.467533459
 20
40.6138613163
 30
0.0
 10
45.4066709314
 20
40.5405647899
 30
0.0
 10
45.3804777712
 20
40.5409293529
 30
0.0
  0
SPLINE
  5
417
100
AcDbEntity
  8
0
100
AcDbSpline
 62
7
  6
BYLAYER
 70
0
 71
3
 72
10
 73
6
 74
0
 42
0.0000001
 43
0.0000001
 44
0.0000000001
 40
0.0
 40
0.0
 40
0.0
 40
0.0
 40
0.1898493887
 40
0.5517237895
 40
1.0
 40
1.0
 40
1.0
 40
1.0
 10
43.7525452616
 20
40.5409293529
 30
0.0
 10
43.7205675626
 20
40.5380184523
 30
0.0
 10
43.6371092218
 20
40.6067718409
 30
0.0
 10
43.5537024558
 20
40.746022472
 30
0.0
 10
43.4874429405
 20
40.8686079255
 30
0.0
 10
43.4556502575
 20
40.9374387469
 30
0.0
  0
SPLINE
  5
418
100
AcDbEntity
  8
0
100
AcDbSpline
 62
7
  6
BYLAYER
 70
0
 71
3
 72
11
 73
7
 74
0
 42
0.0000001
 43
0.0000001
 44
0.0000000001
 40
0.0
 40
0.0
 40
0.0
 40
0.0
 40
0.2487552179
 40
0.498241947
 40
0.7487547561
 40
1.0
 40
1.0
 40
1.0
 40
1.0
 10
46.4245510346
 20
38.4891840461
 30
0.0
 10
46.3989492532
 20
38.4891843168
 30
0.0
 10
46.3471073665
 20
38.4995141141
 30
0.0
 10
46.2815750247
 20
38.5436304953
 30
0.0
 10
46.2375211755
 20
38.6094793639
 30
0.0
 10
46.226928638
 20
38.661581667
 30
0.0
 10
46.2267054088
 20
38.6874387572
 30
0.0
  0
SPLINE
  5
419
100
AcDbEntity
  8
0
100
AcDbSpline
 62
7
  6
BYLAYER
 70
0
 71
3
 72
11
 73
7
 74
0
 42
0.0000001
 43
0.0000001
 44
0.0000000001
 40
0.0
 40
0.0
 40
0.0
 40
0.0
 40
0.2577999799
 40
0.5110655938
 40
0.7578619689
 40
1.0
 40
1.0
 40
1.0
 40
1.0
 10
40.7225523005
 20
38.6874387572
 30
0.0
 10
40.7227626501
 20
38.661638009
 30
0.0
 10
40.7325826243
 20
38.6100642158
 30
0.0
 10
40.7737762994
 20
38.544270338
 30
0.0
 10
40.835645812
 20
38.4997348287
 30
0.0
 10
40.8851558659
 20
38.4891843174
 30
0.0
 10
40.9093899639
 20
38.4891840461
 30
0.0
  0
SPLINE
  5
41A
100
AcDbEntity
  8
0
100
AcDbSpline
 62
7
  6
BYLAYER
 70
0
 71
3
 72
10
 73
6
 74
0
 42
0.0000001
 43
0.0000001
 44
0.0000000001
 40
0.0
 40
0.0
 40
0.0
 40
0.0
 40
0.3655576266
 40
0.6971941618
 40
1.0
 40
1.0
 40
1.0
 40
1.0
 10
43.4588393371
 20
43.5409293532
 30
0.0
 10
43.4659161631
 20
43.4534619269
 30
0.0
 10
43.4781608468
 20
43.2865351605
 30
0.0
 10
43.4908522447
 20
43.0468029391
 30
0.0
 10
43.4951229394
 20
42.8945334305
 30
0.0
 10
43.4957572667
 20
42.8218467147
 30
0.0
  0
SPLINE
  5
41B
100
AcDbEntity
  8
0
100
AcDbSpline
 62
7
  6
BYLAYER
 70
0
 71
3
 72
12
 73
8
 74
0
 42
0.0000001
 43
0.0000001
 44
0.0000000001
 40
0.0
 40
0.0
 40
0.0
 40
0.0
 40
0.2973826642
 40
0.5415680045
 40
0.7395250638
 40
0.9052486788
 40
1.0
 40
1.0
 40
1.0
 40
1.0
 10
43.4957572667
 20
42.8218467147
 30
0.0
 10
43.4961482042
 20
42.7770497181
 30
0.0
 10
43.4958594682
 20
42.6953950834
 30
0.0
 10
43.4916917018
 20
42.5842489374
 30
0.0
 10
43.483247159
 20
42.4924228652
 30
0.0
 10
43.4715173974
 20
42.4257780759
 30
0.0
 10
43.4551705521
 20
42.3866436989
 30
0.0
 10
43.4435565802
 20
42.3783459427
 30
0.0
  0
SPLINE
  5
41C
100
AcDbEntity
  8
0
100
AcDbSpline
 62
7
  6
BYLAYER
 70
0
 71
3
 72
20
 73
16
 74
0
 42
0.0000001
 43
0.0000001
 44
0.0000000001
 40
0.0
 40
0.0
 40
0.0
 40
0.0
 40
0.2117652962
 40
0.3983421625
 40
0.5610934211
 40
0.7011067107
 40
0.76285533
 40
0.8187411418
 40
0.8682362243
 40
0.9107228018
 40
0.9455294628
 40
0.9720026495
 40
0.981982476
 40
0.9898010341
 40
1.0
 40
1.0
 40
1.0
 40
1.0
 10
43.4556500047
 20
40.9374377074
 30
0.0
 10
43.4681786764
 20
40.9265278089
 30
0.0
 10
43.4907788562
 20
40.9048457749
 30
0.0
 10
43.5190486326
 20
40.8709806852
 30
0.0
 10
43.5399820402
 20
40.8386867081
 30
0.0
 10
43.5522342575
 20
40.8127199753
 30
0.0
 10
43.5585614251
 20
40.7935024708
 30
0.0
 10
43.5616859011
 20
40.7807550164
 30
0.0
 10
43.5635633198
 20
40.769295768
 30
0.0
 10
43.5643726893
 20
40.7593694576
 30
0.0
 10
43.5642609111
 20
40.7512154234
 30
0.0
 10
43.5635640901
 20
40.745654634
 30
0.0
 10
43.5625348799
 20
40.7423012248
 30
0.0
 10
43.5616526781
 20
40.7403493684
 30
0.0
 10
43.560415987
 20
40.7391838408
 30
0.0
 10
43.559615875
 20
40.7391840281
 30
0.0
  0
SPLINE
  5
41D
100
AcDbEntity
  8
0
100
AcDbSpline
 62
7
  6
BYLAYER
 70
0
 71
3
 72
13
 73
9
 74
0
 42
0.0000001
 43
0.0000001
 44
0.0000000001
 40
0.0
 40
0.0
 40
0.0
 40
0.0
 40
0.2435845153
 40
0.3738379716
 40
0.5058042791
 40
0.6367956779
 40
0.7644013958
 40
1.0
 40
1.0
 40
1.0
 40
1.0
 10
43.752545163
 20
40.5409293524
 30
0.0
 10
43.7523361919
 20
40.5657523889
 30
0.0
 10
43.7450316323
 20
40.6042796556
 30
0.0
 10
43.721447562
 20
40.6503799152
 30
0.0
 10
43.6965470787
 20
40.6821509963
 30
0.0
 10
43.6656834889
 20
40.7077599817
 30
0.0
 10
43.6211516578
 20
40.7318087582
 30
0.0
 10
43.5836246379
 20
40.7391840403
 30
0.0
 10
43.5596145731
 20
40.7391840281
 30
0.0
  0
SPLINE
  5
41E
100
AcDbEntity
  8
0
100
AcDbSpline
 62
7
  6
BYLAYER
 70
0
 71
3
 72
10
 73
6
 74
0
 42
0.0000001
 43
0.0000001
 44
0.0000000001
 40
0.0
 40
0.0
 40
0.0
 40
0.0
 40
0.358750632
 40
0.7089944153
 40
1.0
 40
1.0
 40
1.0
 40
1.0
 10
45.1842907657
 20
40.7391840461
 30
0.0
 10
45.2388752344
 20
40.7391840461
 30
0.0
 10
45.3461508985
 20
40.7664156273
 30
0.0
 10
45.4819317482
 20
40.8365314399
 30
0.0
 10
45.5558710442
 20
40.9027327525
 30
0.0
 10
45.5833654646
 20
40.937438739
 30
0.0
  0
SPLINE
  5
41F
100
AcDbEntity
  8
0
100
AcDbSpline
 62
7
  6
BYLAYER
 70
0
 71
3
 72
11
 73
7
 74
0
 42
0.0000001
 43
0.0000001
 44
0.0000000001
 40
0.0
 40
0.0
 40
0.0
 40
0.0
 40
0.3230476089
 40
0.6089449825
 40
0.8329011089
 40
1.0
 40
1.0
 40
1.0
 40
1.0
 10
43.4204992774
 20
40.937438739
 30
0.0
 10
43.4203927041
 20
40.9119814997
 30
0.0
 10
43.4159712619
 20
40.8638174848
 30
0.0
 10
43.3965880796
 20
40.8006639574
 30
0.0
 10
43.3679927214
 20
40.7543160722
 30
0.0
 10
43.3377289836
 20
40.7391840461
 30
0.0
 10
43.324560913
 20
40.7391840461
 30
0.0
  0
SPLINE
  5
420
100
AcDbEntity
  8
0
100
AcDbSpline
 62
7
  6
BYLAYER
 70
0
 71
3
 72
11
 73
7
 74
0
 42
0.0000001
 43
0.0000001
 44
0.0000000001
 40
0.0
 40
0.0
 40
0.0
 40
0.0
 40
0.3826252271
 40
0.7064121656
 40
0.9227782403
 40
1.0
 40
1.0
 40
1.0
 40
1.0
 10
41.9767958541
 20
40.93743871
 30
0.0
 10
41.9767873654
 20
40.9121048864
 30
0.0
 10
41.9754911491
 20
40.8668030083
 30
0.0
 10
41.9774002431
 20
40.8005456637
 30
0.0
 10
41.9688193283
 20
40.7699402716
 30
0.0
 10
41.9742299585
 20
40.7391821807
 30
0.0
 10
41.969117064
 20
40.7391840461
 30
0.0
  0
SPLINE
  5
421
100
AcDbEntity
  8
0
100
AcDbSpline
 62
7
  6
BYLAYER
 70
0
 71
3
 72
11
 73
7
 74
0
 42
0.0000001
 43
0.0000001
 44
0.0000000001
 40
0.0
 40
0.0
 40
0.0
 40
0.0
 40
0.3783744314
 40
0.6948486089
 40
0.908560294
 40
1.0
 40
1.0
 40
1.0
 40
1.0
 10
29.1468229926
 20
41.487438739
 30
0.0
 10
29.14260394
 20
41.4622314784
 30
0.0
 10
29.1365697576
 20
41.4162814169
 30
0.0
 10
29.134850198
 20
41.3524698614
 30
0.0
 10
29.1349582013
 20
41.3154053089
 30
0.0
 10
29.1441934015
 20
41.2891840461
 30
0.0
 10
29.1503698419
 20
41.2891840461
 30
0.0
  0
SPLINE
  5
422
100
AcDbEntity
  8
0
100
AcDbSpline
 62
7
  6
BYLAYER
 70
0
 71
3
 72
18
 73
14
 74
0
 42
0.0000001
 43
0.0000001
 44
0.0000000001
 40
0.0
 40
0.0
 40
0.0
 40
0.0
 40
0.1758939809
 40
0.3552834838
 40
0.5281644622
 40
0.6832687144
 40
0.8104059172
 40
0.861845074
 40
0.9046280325
 40
0.9386588518
 40
0.9647738783
 40
0.9844295157
 40
1.0
 40
1.0
 40
1.0
 40
1.0
 10
27.8693004223
 20
41.487438802
 30
0.0
 10
27.8693187339
 20
41.4753501779
 30
0.0
 10
27.8697429569
 20
41.4509316771
 30
0.0
 10
27.8715574661
 20
41.4146705506
 30
0.0
 10
27.8746873089
 20
41.3799294739
 30
0.0
 10
27.8789390429
 20
41.3489287005
 30
0.0
 10
27.8835799779
 20
41.3264359191
 30
0.0
 10
27.8878707785
 20
41.3118309357
 30
0.0
 10
27.8909497051
 20
41.3035612321
 30
0.0
 10
27.8941002254
 20
41.2972057329
 30
0.0
 10
27.8972891904
 20
41.2927075375
 30
0.0
 10
27.9005299495
 20
41.2899044263
 30
0.0
 10
27.9029586522
 20
41.2891837303
 30
0.0
 10
27.9040287624
 20
41.2891837312
 30
0.0
  0
SPLINE
  5
423
100
AcDbEntity
  8
0
100
AcDbSpline
 62
7
  6
BYLAYER
 70
0
 71
3
 72
11
 73
7
 74
0
 42
0.0000001
 43
0.0000001
 44
0.0000000001
 40
0.0
 40
0.0
 40
0.0
 40
0.0
 40
0.2489949793
 40
0.4983067348
 40
0.7485437934
 40
1.0
 40
1.0
 40
1.0
 40
1.0
 10
27.9040287624
 20
41.2891837312
 30
0.0
 10
27.885009646
 20
41.289184181
 30
0.0
 10
27.8467406927
 20
41.2833821556
 30
0.0
 10
27.7942871565
 20
41.2586701447
 30
0.0
 10
27.75130117
 20
41.2194889064
 30
0.0
 10
27.7310694335
 20
41.1862148931
 30
0.0
 10
27.7235936686
 20
41.168522348
 30
0.0
  0
SPLINE
  5
424
100
AcDbEntity
  8
0
100
AcDbSpline
 62
7
  6
BYLAYER
 70
0
 71
3
 72
15
 73
11
 74
0
 42
0.0000001
 43
0.0000001
 44
0.0000000001
 40
0.0
 40
0.0
 40
0.0
 40
0.0
 40
0.0170630081
 40
0.0414776862
 40
0.1140272017
 40
0.2191997446
 40
0.3527134547
 40
0.5079023748
 40
0.6743729598
 40
1.0
 40
1.0
 40
1.0
 40
1.0
 10
27.7235936686
 20
41.168522348
 30
0.0
 10
27.7222889537
 20
41.1684680755
 30
0.0
 10
27.7191089169
 20
41.1687096828
 30
0.0
 10
27.7105013194
 20
41.1701469427
 30
0.0
 10
27.6955073034
 20
41.1740589468
 30
0.0
 10
27.6727753278
 20
41.1811627603
 30
0.0
 10
27.6442972551
 20
41.1910647577
 30
0.0
 10
27.611673871
 20
41.2032823378
 30
0.0
 10
27.5655946326
 20
41.2214713949
 30
0.0
 10
27.5308870023
 20
41.2361079292
 30
0.0
 10
27.5080642651
 20
41.2461155007
 30
0.0
  0
SPLINE
  5
425
100
AcDbEntity
  8
0
100
AcDbSpline
 62
7
  6
BYLAYER
 70
0
 71
3
 72
11
 73
7
 74
0
 42
0.0000001
 43
0.0000001
 44
0.0000000001
 40
0.0
 40
0.0
 40
0.0
 40
0.0
 40
0.3283132092
 40
0.6308968966
 40
0.8714286196
 40
1.0
 40
1.0
 40
1.0
 40
1.0
 10
27.4682768426
 20
41.090929169
 30
0.0
 10
27.4944876556
 20
41.0906856017
 30
0.0
 10
27.5448550417
 20
41.0903442988
 30
0.0
 10
27.6144328206
 20
41.0900445796
 30
0.0
 10
27.668047906
 20
41.0903432555
 30
0.0
 10
27.6975324242
 20
41.09039362
 30
0.0
 10
27.7077833334
 20
41.0909295869
 30
0.0
  0
SPLINE
  5
426
100
AcDbEntity
  8
0
100
AcDbSpline
 62
7
  6
BYLAYER
 70
0
 71
3
 72
11
 73
7
 74
0
 42
0.0000001
 43
0.0000001
 44
0.0000000001
 40
0.0
 40
0.0
 40
0.0
 40
0.0
 40
0.1196049212
 40
0.3461497732
 40
0.6568703171
 40
1.0
 40
1.0
 40
1.0
 40
1.0
 10
27.6909808861
 20
38.687439417
 30
0.0
 10
27.68123386
 20
38.6869138006
 30
0.0
 10
27.6529683249
 20
38.686834199
 30
0.0
 10
27.5993714126
 20
38.6865073995
 30
0.0
 10
27.52751561
 20
38.6868039027
 30
0.0
 10
27.4741561882
 20
38.6871694799
 30
0.0
 10
27.4461540065
 20
38.6874385456
 30
0.0
  0
SPLINE
  5
427
100
AcDbEntity
  8
0
100
AcDbSpline
 62
7
  6
BYLAYER
 70
0
 71
3
 72
11
 73
7
 74
0
 42
0.0000001
 43
0.0000001
 44
0.0000000001
 40
0.0
 40
0.0
 40
0.0
 40
0.0
 40
0.3615360933
 40
0.6709821568
 40
0.8876948335
 40
1.0
 40
1.0
 40
1.0
 40
1.0
 10
27.4461596587
 20
38.687438739
 30
0.0
 10
27.4462126309
 20
38.6620747412
 30
0.0
 10
27.4480743514
 20
38.6152186003
 30
0.0
 10
27.4582984999
 20
38.5525846471
 30
0.0
 10
27.4690132159
 20
38.5114138932
 30
0.0
 10
27.4861421444
 20
38.4891840461
 30
0.0
 10
27.4940210651
 20
38.4891840461
 30
0.0
  0
SPLINE
  5
428
100
AcDbEntity
  8
0
100
AcDbSpline
 62
7
  6
BYLAYER
 70
0
 71
3
 72
9
 73
5
 74
0
 42
0.0000001
 43
0.0000001
 44
0.0000000001
 40
0.0
 40
0.0
 40
0.0
 40
0.0
 40
0.4892320111
 40
1.0
 40
1.0
 40
1.0
 40
1.0
 10
23.8923792992
 20
41.0431396167
 30
0.0
 10
23.9103890875
 20
41.032518228
 30
0.0
 10
23.9459449669
 20
41.0086702706
 30
0.0
 10
23.9790602404
 20
40.9814770915
 30
0.0
 10
23.9949101373
 20
40.9664676824
 30
0.0
  0
SPLINE
  5
429
100
AcDbEntity
  8
0
100
AcDbSpline
 62
7
  6
BYLAYER
 70
0
 71
3
 72
14
 73
10
 74
0
 42
0.0000001
 43
0.0000001
 44
0.0000000001
 40
0.0
 40
0.0
 40
0.0
 40
0.0
 40
0.0985126882
 40
0.2198692956
 40
0.3295807217
 40
0.4516764987
 40
0.5999777637
 40
0.7805237525
 40
1.0
 40
1.0
 40
1.0
 40
1.0
 10
23.9948910553
 20
40.9664597953
 30
0.0
 10
23.9607629345
 20
40.9173317293
 30
0.0
 10
23.8628920925
 20
40.8229642301
 30
0.0
 10
23.6882748904
 20
40.7224505177
 30
0.0
 10
23.4856887719
 20
40.6499658039
 30
0.0
 10
23.2602856865
 20
40.5985331281
 30
0.0
 10
22.9884597738
 20
40.5629323256
 30
0.0
 10
22.6558917756
 20
40.5435705631
 30
0.0
 10
22.4129455899
 20
40.540572246
 30
0.0
 10
22.2796757434
 20
40.5409293673
 30
0.0
  0
SPLINE
  5
42A
100
AcDbEntity
  8
0
100
AcDbSpline
 62
7
  6
BYLAYER
 70
0
 71
3
 72
18
 73
14
 74
0
 42
0.0000001
 43
0.0000001
 44
0.0000000001
 40
0.0
 40
0.0
 40
0.0
 40
0.0
 40
0.1740227987
 40
0.3516234094
 40
0.5230060584
 40
0.6771136811
 40
0.8039914646
 40
0.8556448292
 40
0.8989144086
 40
0.9337623873
 40
0.9610913503
 40
0.982411024
 40
1.0
 40
1.0
 40
1.0
 40
1.0
 10
22.2796748115
 20
40.5409293564
 30
0.0
 10
22.2796537753
 20
40.5530065888
 30
0.0
 10
22.2791672951
 20
40.5774106839
 30
0.0
 10
22.2770857765
 20
40.6136575801
 30
0.0
 10
22.2734933157
 20
40.6484020755
 30
0.0
 10
22.2686091464
 20
40.6794302958
 30
0.0
 10
22.2632745439
 20
40.7019355205
 30
0.0
 10
22.2583516642
 20
40.7165318395
 30
0.0
 10
22.2548061481
 20
40.7248247861
 30
0.0
 10
22.251169792
 20
40.7312016769
 30
0.0
 10
22.2474814444
 20
40.7357185868
 30
0.0
 10
22.2437307515
 20
40.7384986271
 30
0.0
 10
22.2410157847
 20
40.7391830075
 30
0.0
 10
22.2397951028
 20
40.7391830137
 30
0.0
  0
SPLINE
  5
42B
100
AcDbEntity
  8
0
100
AcDbSpline
 62
7
  6
BYLAYER
 70
0
 71
3
 72
14
 73
10
 74
0
 42
0.0000001
 43
0.0000001
 44
0.0000000001
 40
0.0
 40
0.0
 40
0.0
 40
0.0
 40
0.1140719714
 40
0.1731013719
 40
0.2330742405
 40
0.3553906919
 40
0.48067125
 40
0.7372597264
 40
1.0
 40
1.0
 40
1.0
 40
1.0
 10
23.892397669
 20
41.0431320647
 30
0.0
 10
23.8469430996
 20
40.996549644
 30
0.0
 10
23.7621858535
 20
40.9414279726
 30
0.0
 10
23.6404979902
 20
40.8881490131
 30
0.0
 10
23.5098547314
 20
40.8440139403
 30
0.0
 10
23.3386201018
 20
40.8040734805
 30
0.0
 10
23.053582571
 20
40.7636930893
 30
0.0
 10
22.6860079267
 20
40.7417806392
 30
0.0
 10
22.3897034482
 20
40.7391789055
 30
0.0
 10
22.2397944451
 20
40.7391830137
 30
0.0
  0
SPLINE
  5
42C
100
AcDbEntity
  8
0
100
AcDbSpline
 62
7
  6
BYLAYER
 70
0
 71
3
 72
10
 73
6
 74
0
 42
0.0000001
 43
0.0000001
 44
0.0000000001
 40
0.0
 40
0.0
 40
0.0
 40
0.0
 40
0.3390436772
 40
0.674333738
 40
1.0
 40
1.0
 40
1.0
 40
1.0
 10
18.3278269958
 20
40.7391840461
 30
0.0
 10
18.3119650324
 20
40.7391840461
 30
0.0
 10
18.2804140879
 20
40.7395293887
 30
0.0
 10
18.2336635019
 20
40.7415272929
 30
0.0
 10
18.2028345158
 20
40.7440886198
 30
0.0
 10
18.187687585
 20
40.7457346743
 30
0.0
  0
SPLINE
  5
42D
100
AcDbEntity
  8
0
100
AcDbSpline
 62
7
  6
BYLAYER
 70
0
 71
3
 72
11
 73
7
 74
0
 42
0.0000001
 43
0.0000001
 44
0.0000000001
 40
0.0
 40
0.0
 40
0.0
 40
0.0
 40
0.2191719927
 40
0.4597273786
 40
0.7228617061
 40
1.0
 40
1.0
 40
1.0
 40
1.0
 10
18.187687585
 20
40.7457346743
 30
0.0
 10
18.1431541117
 20
40.75538349
 30
0.0
 10
18.0539513084
 20
40.7985259977
 30
0.0
 10
17.9524674028
 20
40.9133692244
 30
0.0
 10
17.88702793
 20
41.0643654202
 30
0.0
 10
17.8716789422
 20
41.1772036908
 30
0.0
 10
17.8712995339
 20
41.2348206383
 30
0.0
  0
SPLINE
  5
42E
100
AcDbEntity
  8
0
100
AcDbSpline
 62
7
  6
BYLAYER
 70
0
 71
3
 72
11
 73
7
 74
0
 42
0.0000001
 43
0.0000001
 44
0.0000000001
 40
0.0
 40
0.0
 40
0.0
 40
0.0
 40
0.252000506
 40
0.5000061976
 40
0.7480083224
 40
1.0
 40
1.0
 40
1.0
 40
1.0
 10
16.8360200003
 20
38.4891840461
 30
0.0
 10
16.8099489225
 20
38.4896929953
 30
0.0
 10
16.7576122256
 20
38.4993364633
 30
0.0
 10
16.6917378428
 20
38.5436398244
 30
0.0
 10
16.646861559
 20
38.609124298
 30
0.0
 10
16.6367630849
 20
38.6613739817
 30
0.0
 10
16.6360276157
 20
38.687438739
 30
0.0
  0
SPLINE
  5
42F
100
AcDbEntity
  8
0
100
AcDbSpline
 62
7
  6
BYLAYER
 70
0
 71
3
 72
11
 73
7
 74
0
 42
0.0000001
 43
0.0000001
 44
0.0000000001
 40
0.0
 40
0.0
 40
0.0
 40
0.0
 40
0.0761847471
 40
0.2929516554
 40
0.6173476573
 40
1.0
 40
1.0
 40
1.0
 40
1.0
 10
16.6360276157
 20
38.687438739
 30
0.0
 10
16.6411021846
 20
38.6871940376
 30
0.0
 10
16.660621267
 20
38.6865340483
 30
0.0
 10
16.7017883606
 20
38.6867945591
 30
0.0
 10
16.763372417
 20
38.6868307505
 30
0.0
 10
16.8105102634
 20
38.6872161358
 30
0.0
 10
16.8360200003
 20
38.687438739
 30
0.0
  0
SPLINE
  5
430
100
AcDbEntity
  8
0
100
AcDbSpline
 62
7
  6
BYLAYER
 70
0
 71
3
 72
10
 73
6
 74
0
 42
0.0000001
 43
0.0000001
 44
0.0000000001
 40
0.0
 40
0.0
 40
0.0
 40
0.0
 40
0.3507127041
 40
0.6745230275
 40
1.0
 40
1.0
 40
1.0
 40
1.0
 10
22.4226008866
 20
41.2348184557
 30
0.0
 10
22.3802849899
 20
41.1669314448
 30
0.0
 10
22.293486583
 20
41.0398227956
 30
0.0
 10
22.1520874905
 20
40.8600392779
 30
0.0
 10
22.040185781
 20
40.7616330874
 30
0.0
 10
21.9811994985
 20
40.7165542127
 30
0.0
  0
SPLINE
  5
431
100
AcDbEntity
  8
0
100
AcDbSpline
 62
7
  6
BYLAYER
 70
0
 71
3
 72
10
 73
6
 74
0
 42
0.0000001
 43
0.0000001
 44
0.0000000001
 40
0.0
 40
0.0
 40
0.0
 40
0.0
 40
0.3008579583
 40
0.6415107003
 40
1.0
 40
1.0
 40
1.0
 40
1.0
 10
21.9811994985
 20
40.7165542127
 30
0.0
 10
21.9307767863
 20
40.6785651438
 30
0.0
 10
21.8112006391
 20
40.6133910683
 30
0.0
 10
21.6088186926
 20
40.5532510246
 30
0.0
 10
21.4615284949
 20
40.5408254733
 30
0.0
 10
21.3863034972
 20
40.5409293532
 30
0.0
  0
SPLINE
  5
432
100
AcDbEntity
  8
0
100
AcDbSpline
 62
7
  6
BYLAYER
 70
0
 71
3
 72
10
 73
6
 74
0
 42
0.0000001
 43
0.0000001
 44
0.0000000001
 40
0.0
 40
0.0
 40
0.0
 40
0.0
 40
0.345114224
 40
0.6811682845
 40
1.0
 40
1.0
 40
1.0
 40
1.0
 10
18.3160808672
 20
40.5409293532
 30
0.0
 10
18.2436642863
 20
40.5405219211
 30
0.0
 10
18.1003082841
 20
40.5527352563
 30
0.0
 10
17.8969779043
 20
40.6100529617
 30
0.0
 10
17.7753561092
 20
40.6772908639
 30
0.0
 10
17.7211856305
 20
40.7165531674
 30
0.0
  0
SPLINE
  5
433
100
AcDbEntity
  8
0
100
AcDbSpline
 62
7
  6
BYLAYER
 70
0
 71
3
 72
10
 73
6
 74
0
 42
0.0000001
 43
0.0000001
 44
0.0000000001
 40
0.0
 40
0.0
 40
0.0
 40
0.0
 40
0.3304994117
 40
0.6515754447
 40
1.0
 40
1.0
 40
1.0
 40
1.0
 10
17.7211856305
 20
40.7165531674
 30
0.0
 10
17.6614642085
 20
40.7625550609
 30
0.0
 10
17.5490335575
 20
40.8611542415
 30
0.0
 10
17.4080433344
 20
41.0412833973
 30
0.0
 10
17.3218755235
 20
41.167413417
 30
0.0
 10
17.2797809046
 20
41.2348227289
 30
0.0
  0
SPLINE
  5
434
100
AcDbEntity
  8
0
100
AcDbSpline
 62
7
  6
BYLAYER
 70
0
 71
3
 72
10
 73
6
 74
0
 42
0.0000001
 43
0.0000001
 44
0.0000000001
 40
0.0
 40
0.0
 40
0.0
 40
0.0
 40
0.2703604491
 40
0.6155330639
 40
1.0
 40
1.0
 40
1.0
 40
1.0
 10
22.0107582867
 20
41.2348239466
 30
0.0
 10
22.0478724571
 20
41.2345162137
 30
0.0
 10
22.1323738775
 20
41.2342281383
 30
0.0
 10
22.2696552012
 20
41.2342545568
 30
0.0
 10
22.3698208656
 20
41.2345654897
 30
0.0
 10
22.4226004103
 20
41.2348157771
 30
0.0
  0
LINE
  5
435
100
AcDbEntity
  8
0
100
AcDbLine
 62
7
  6
BYLAYER
 10
22.0107582867
 20
41.2348239466
 11
22.0230899095
 21
43.5904898397
  0
LINE
  5
436
100
AcDbEntity
  8
0
100
AcDbLine
 62
7
  6
BYLAYER
 10
17.6792944528
 20
43.5904898438
 11
17.691623283
 21
41.2348246018
  0
SPLINE
  5
437
100
AcDbEntity
  8
0
100
AcDbSpline
 62
7
  6
BYLAYER
 70
0
 71
3
 72
10
 73
6
 74
0
 42
0.0000001
 43
0.0000001
 44
0.0000000001
 40
0.0
 40
0.0
 40
0.0
 40
0.0
 40
0.3844694627
 40
0.7296445531
 40
1.0
 40
1.0
 40
1.0
 40
1.0
 10
17.2797813813
 20
41.2348197561
 30
0.0
 10
17.3325612397
 20
41.2345680797
 30
0.0
 10
17.432727536
 20
41.2342551284
 30
0.0
 10
17.5700087904
 20
41.2342274549
 30
0.0
 10
17.6545098253
 20
41.2345159955
 30
0.0
 10
17.691623283
 20
41.2348246018
 30
0.0
  0
SPLINE
  5
438
100
AcDbEntity
  8
0
100
AcDbSpline
 62
7
  6
BYLAYER
 70
0
 71
3
 72
10
 73
6
 74
0
 42
0.0000001
 43
0.0000001
 44
0.0000000001
 40
0.0
 40
0.0
 40
0.0
 40
0.0
 40
0.3438696153
 40
0.6792479818
 40
1.0
 40
1.0
 40
1.0
 40
1.0
 10
17.69133256
 20
41.2348207783
 30
0.0
 10
17.691664709
 20
41.1885819985
 30
0.0
 10
17.7027928803
 20
41.0969441554
 30
0.0
 10
17.7498639095
 20
40.9697348079
 30
0.0
 10
17.800855361
 20
40.8962003552
 30
0.0
 10
17.8302421393
 20
40.8646292992
 30
0.0
  0
SPLINE
  5
439
100
AcDbEntity
  8
0
100
AcDbSpline
 62
7
  6
BYLAYER
 70
0
 71
3
 72
10
 73
6
 74
0
 42
0.0000001
 43
0.0000001
 44
0.0000000001
 40
0.0
 40
0.0
 40
0.0
 40
0.0
 40
0.307868064
 40
0.6462127858
 40
1.0
 40
1.0
 40
1.0
 40
1.0
 10
17.8302421393
 20
40.8646292992
 30
0.0
 10
17.87365562
 20
40.8357453135
 30
0.0
 10
17.9731930223
 20
40.7873681579
 30
0.0
 10
18.1386349984
 20
40.7469080671
 30
0.0
 10
18.2561592831
 20
40.7391840461
 30
0.0
 10
18.3160808676
 20
40.7391840461
 30
0.0
  0
SPLINE
  5
43A
100
AcDbEntity
  8
0
100
AcDbSpline
 62
7
  6
BYLAYER
 70
0
 71
3
 72
12
 73
8
 74
0
 42
0.0000001
 43
0.0000001
 44
0.0000000001
 40
0.0
 40
0.0
 40
0.0
 40
0.0
 40
0.1547280274
 40
0.329189617
 40
0.5316107712
 40
0.7587040868
 40
1.0
 40
1.0
 40
1.0
 40
1.0
 10
18.5253651367
 20
40.7391840461
 30
0.0
 10
18.4923868439
 20
40.7391840461
 30
0.0
 10
18.4215245697
 20
40.7584142825
 30
0.0
 10
18.3338704478
 20
40.83424391
 30
0.0
 10
18.2665474307
 20
40.9457964645
 30
0.0
 10
18.2236287928
 20
41.0833195423
 30
0.0
 10
18.2135480357
 20
41.1833924151
 30
0.0
 10
18.2132678812
 20
41.2348207783
 30
0.0
  0
SPLINE
  5
43B
100
AcDbEntity
  8
0
100
AcDbSpline
 62
7
  6
BYLAYER
 70
0
 71
3
 72
10
 73
6
 74
0
 42
0.0000001
 43
0.0000001
 44
0.0000000001
 40
0.0
 40
0.0
 40
0.0
 40
0.0
 40
0.3207520619
 40
0.6561304231
 40
1.0
 40
1.0
 40
1.0
 40
1.0
 10
21.872142749
 20
40.8646298622
 30
0.0
 10
21.9015294219
 20
40.896200913
 30
0.0
 10
21.9525206797
 20
40.9697352928
 30
0.0
 10
21.9995915276
 20
41.0969444285
 30
0.0
 10
22.010719656
 20
41.1885820911
 30
0.0
 10
22.0110518043
 20
41.2348207783
 30
0.0
  0
SPLINE
  5
43C
100
AcDbEntity
  8
0
100
AcDbSpline
 62
7
  6
BYLAYER
 70
0
 71
3
 72
12
 73
8
 74
0
 42
0.0000001
 43
0.0000001
 44
0.0000000001
 40
0.0
 40
0.0
 40
0.0
 40
0.0
 40
0.2412958315
 40
0.4683891752
 40
0.6708103539
 40
0.8452719611
 40
1.0
 40
1.0
 40
1.0
 40
1.0
 10
21.4891164354
 20
41.2348207783
 30
0.0
 10
21.4888362811
 20
41.183392433
 30
0.0
 10
21.4787555288
 20
41.0833195731
 30
0.0
 10
21.4358369038
 20
40.9457964991
 30
0.0
 10
21.3685138882
 20
40.8342439277
 30
0.0
 10
21.2808597637
 20
40.7584142867
 30
0.0
 10
21.2099974839
 20
40.7391840461
 30
0.0
 10
21.177019189
 20
40.7391840461
 30
0.0
  0
SPLINE
  5
43D
100
AcDbEntity
  8
0
100
AcDbSpline
 62
7
  6
BYLAYER
 70
0
 71
3
 72
10
 73
6
 74
0
 42
0.0000001
 43
0.0000001
 44
0.0000000001
 40
0.0
 40
0.0
 40
0.0
 40
0.0
 40
0.358205815
 40
0.6999079059
 40
1.0
 40
1.0
 40
1.0
 40
1.0
 10
21.3863034966
 20
40.7391840461
 30
0.0
 10
21.4469741771
 20
40.7391840461
 30
0.0
 10
21.5658375102
 20
40.74707293
 30
0.0
 10
21.7311399237
 20
40.7881856484
 30
0.0
 10
21.82989671
 20
40.8363680291
 30
0.0
 10
21.872142749
 20
40.8646298622
 30
0.0
  0
SPLINE
  5
43E
100
AcDbEntity
  8
0
100
AcDbSpline
 62
7
  6
BYLAYER
 70
0
 71
3
 72
13
 73
9
 74
0
 42
0.0000001
 43
0.0000001
 44
0.0000000001
 40
0.0
 40
0.0
 40
0.0
 40
0.0
 40
0.1041130282
 40
0.241649149
 40
0.3761434629
 40
0.5438190377
 40
0.7492669122
 40
1.0
 40
1.0
 40
1.0
 40
1.0
 10
27.8837516134
 20
44.56163822
 30
0.0
 10
27.7003519563
 20
44.5515771704
 30
0.0
 10
27.2746866857
 20
44.5280345675
 30
0.0
 10
26.6121959592
 20
44.4898528555
 30
0.0
 10
25.8378342783
 20
44.4438616867
 30
0.0
 10
24.9439495557
 20
44.3895086654
 30
0.0
 10
23.8454490847
 20
44.3215082655
 30
0.0
 10
23.0422547107
 20
44.2708348265
 30
0.0
 10
22.6007557585
 20
44.2435473665
 30
0.0
  0
SPLINE
  5
43F
100
AcDbEntity
  8
0
100
AcDbSpline
 62
7
  6
BYLAYER
 70
0
 71
3
 72
23
 73
19
 74
0
 42
0.0000001
 43
0.0000001
 44
0.0000000001
 40
0.0
 40
0.0
 40
0.0
 40
0.0
 40
0.0050594266
 40
0.0181768889
 40
0.0393077496
 40
0.0684071599
 40
0.1054042353
 40
0.1501960887
 40
0.2026771258
 40
0.2627275937
 40
0.3302069358
 40
0.404993309
 40
0.4869681942
 40
0.5760016637
 40
0.6719553698
 40
0.7747019052
 40
0.8840988083
 40
1.0
 40
1.0
 40
1.0
 40
1.0
 10
48.5998722098
 20
44.239183649
 30
0.0
 10
48.5649332501
 20
44.2396213273
 30
0.0
 10
48.4394287047
 20
44.2424649361
 30
0.0
 10
48.1680094793
 20
44.2475988629
 30
0.0
 10
47.7306050873
 20
44.2565890631
 30
0.0
 10
47.1283108012
 20
44.2686009076
 30
0.0
 10
46.3626403717
 20
44.2839138407
 30
0.0
 10
45.4355190323
 20
44.3022602659
 30
0.0
 10
44.3492116535
 20
44.3235301897
 30
0.0
 10
43.1062380204
 20
44.3473173807
 30
0.0
 10
41.709232031
 20
44.3733040338
 30
0.0
 10
40.1608142534
 20
44.4008867757
 30
0.0
 10
38.4635323588
 20
44.4294327555
 30
0.0
 10
36.6200467794
 20
44.4581444528
 30
0.0
 10
34.6330835606
 20
44.4863666205
 30
0.0
 10
32.5054577893
 20
44.5135042971
 30
0.0
 10
30.2400407894
 20
44.5390807415
 30
0.0
 10
28.6841479722
 20
44.5542916685
 30
0.0
 10
27.8837381296
 20
44.5616235502
 30
0.0
  0
SPLINE
  5
440
100
AcDbEntity
  8
0
100
AcDbSpline
 62
7
  6
BYLAYER
 70
0
 71
3
 72
12
 73
8
 74
0
 42
0.0000001
 43
0.0000001
 44
0.0000000001
 40
0.0
 40
0.0
 40
0.0
 40
0.0
 40
0.2827099509
 40
0.4166911096
 40
0.5447321378
 40
0.7824315161
 40
1.0
 40
1.0
 40
1.0
 40
1.0
 10
27.8837381296
 20
44.5616235502
 30
0.0
 10
27.8657580263
 20
44.5897174467
 30
0.0
 10
27.8346794642
 20
44.6285105378
 30
0.0
 10
27.7863415421
 20
44.6710388172
 30
0.0
 10
27.7375697943
 20
44.7044214887
 30
0.0
 10
27.6734762274
 20
44.7317344211
 30
0.0
 10
27.6195530145
 20
44.7391839104
 30
0.0
 10
27.5938836639
 20
44.7391840461
 30
0.0
  0
SPLINE
  5
441
100
AcDbEntity
  8
0
100
AcDbSpline
 62
7
  6
BYLAYER
 70
0
 71
3
 72
11
 73
7
 74
0
 42
0.0000001
 43
0.0000001
 44
0.0000000001
 40
0.0
 40
0.0
 40
0.0
 40
0.0
 40
0.3963326611
 40
0.7189527648
 40
0.9286532168
 40
1.0
 40
1.0
 40
1.0
 40
1.0
 10
48.1867013186
 20
44.243547307
 30
0.0
 10
48.2412925871
 20
44.2434662969
 30
0.0
 10
48.3351270595
 20
44.2406466917
 30
0.0
 10
48.4806720777
 20
44.2483519123
 30
0.0
 10
48.53025508
 20
44.2309809918
 30
0.0
 10
48.6050865974
 20
44.247512443
 30
0.0
 10
48.5998707793
 20
44.2391834071
 30
0.0
  0
SPLINE
  5
442
100
AcDbEntity
  8
0
100
AcDbSpline
 62
7
  6
BYLAYER
 70
0
 71
3
 72
12
 73
8
 74
0
 42
0.0000001
 43
0.0000001
 44
0.0000000001
 40
0.0
 40
0.0
 40
0.0
 40
0.0
 40
0.2988226248
 40
0.5688637394
 40
0.7852904414
 40
0.9298776152
 40
1.0
 40
1.0
 40
1.0
 40
1.0
 10
48.1867013693
 20
44.2435473138
 30
0.0
 10
48.1866238184
 20
44.2947223673
 30
0.0
 10
48.183753798
 20
44.3923748632
 30
0.0
 10
48.1730745874
 20
44.5256438207
 30
0.0
 10
48.1540066131
 20
44.6346244018
 30
0.0
 10
48.1371018863
 20
44.7013878908
 30
0.0
 10
48.1118894526
 20
44.7391840461
 30
0.0
 10
48.0998805864
 20
44.7391840461
 30
0.0
  0
SPLINE
  5
443
100
AcDbEntity
  8
0
100
AcDbSpline
 62
7
  6
BYLAYER
 70
0
 71
3
 72
14
 73
10
 74
0
 42
0.0000001
 43
0.0000001
 44
0.0000000001
 40
0.0
 40
0.0
 40
0.0
 40
0.0
 40
0.1155874732
 40
0.2379667394
 40
0.3659435352
 40
0.4969778526
 40
0.6286106044
 40
0.7582126385
 40
1.0
 40
1.0
 40
1.0
 40
1.0
 10
23.928415103
 20
44.7391812199
 30
0.0
 10
23.9580982118
 20
44.7391823674
 30
0.0
 10
24.0193407187
 20
44.7333952966
 30
0.0
 10
24.1101493167
 20
44.7069656863
 30
0.0
 10
24.1972322149
 20
44.6606908206
 30
0.0
 10
24.2754164771
 20
44.5967139457
 30
0.0
 10
24.3385909309
 20
44.5172818935
 30
0.0
 10
24.3983732476
 20
44.402098982
 30
0.0
 10
24.4169566796
 20
44.3056366799
 30
0.0
 10
24.4174866993
 20
44.2435474337
 30
0.0
  0
SPLINE
  5
444
100
AcDbEntity
  8
0
100
AcDbSpline
 62
7
  6
BYLAYER
 70
0
 71
3
 72
19
 73
15
 74
0
 42
0.0000001
 43
0.0000001
 44
0.0000000001
 40
0.0
 40
0.0
 40
0.0
 40
0.0
 40
0.1757229892
 40
0.3549919973
 40
0.5278258557
 40
0.6829533021
 40
0.7504641817
 40
0.810198797
 40
0.8616861209
 40
0.9045160111
 40
0.9385878082
 40
0.9647352379
 40
0.9844136274
 40
1.0
 40
1.0
 40
1.0
 40
1.0
 10
27.6353499108
 20
44.243547424
 30
0.0
 10
27.6353041545
 20
44.2737404149
 30
0.0
 10
27.6342447845
 20
44.3347376748
 30
0.0
 10
27.6297178574
 20
44.4253373925
 30
0.0
 10
27.6218915113
 20
44.5121598464
 30
0.0
 10
27.6126901379
 20
44.5795296828
 30
0.0
 10
27.6035113398
 20
44.6271835739
 30
0.0
 10
27.5964164905
 20
44.6570745411
 30
0.0
 10
27.5889483421
 20
44.6824850294
 30
0.0
 10
27.5812498977
 20
44.7031842468
 30
0.0
 10
27.5733687996
 20
44.7190943484
 30
0.0
 10
27.5653906398
 20
44.7303564376
 30
0.0
 10
27.557281813
 20
44.7373757629
 30
0.0
 10
27.5512027544
 20
44.739180053
 30
0.0
 10
27.5485246772
 20
44.739179163
 30
0.0
  0
SPLINE
  5
445
100
AcDbEntity
  8
0
100
AcDbSpline
 62
7
  6
BYLAYER
 70
0
 71
3
 72
35
 73
31
 74
0
 42
0.0000001
 43
0.0000001
 44
0.0000000001
 40
0.0
 40
0.0
 40
0.0
 40
0.0
 40
0.0965754516
 40
0.186684698
 40
0.2679099011
 40
0.3045902468
 40
0.3383586343
 40
0.3690326989
 40
0.3965181931
 40
0.4207667248
 40
0.4417792603
 40
0.4596588429
 40
0.4747134507
 40
0.4875193302
 40
0.493385126
 40
0.499087201
 40
0.5048026905
 40
0.5107072752
 40
0.523652254
 40
0.5388956953
 40
0.5569839902
 40
0.5782054831
 40
0.6026521609
 40
0.6303182604
 40
0.6611506194
 40
0.6950519596
 40
0.7318403943
 40
0.8132142807
 40
0.90339753
 40
1.0
 40
1.0
 40
1.0
 40
1.0
 10
23.0414145471
 20
39.0391847075
 30
0.0
 10
23.0471264358
 20
39.1747099505
 30
0.0
 10
23.063430076
 20
39.4365067631
 30
0.0
 10
23.1034805828
 20
39.8107900899
 30
0.0
 10
23.1498172645
 20
40.0994606879
 30
0.0
 10
23.1942896251
 20
40.3078444085
 30
0.0
 10
23.2293059728
 20
40.4455369886
 30
0.0
 10
23.2669124344
 20
40.5691144182
 30
0.0
 10
23.3067809728
 20
40.6778568532
 30
0.0
 10
23.3486079963
 20
40.7711947078
 30
0.0
 10
23.3921154713
 20
40.8486549471
 30
0.0
 10
23.4372290313
 20
40.909862045
 30
0.0
 10
23.4838236253
 20
40.9546638482
 30
0.0
 10
23.5255301816
 20
40.9786450746
 30
0.0
 10
23.5586998854
 20
40.9877651234
 30
0.0
 10
23.5830168804
 20
40.989931086
 30
0.0
 10
23.6073684956
 20
40.9875614579
 30
0.0
 10
23.6407344731
 20
40.9781572004
 30
0.0
 10
23.6828230491
 20
40.9538568376
 30
0.0
 10
23.7301755511
 20
40.9087864289
 30
0.0
 10
23.776383718
 20
40.8473441945
 30
0.0
 10
23.8213011596
 20
40.769699081
 30
0.0
 10
23.8648365201
 20
40.676237758
 30
0.0
 10
23.906703749
 20
40.567442758
 30
0.0
 10
23.9465922564
 20
40.4438877998
 30
0.0
 10
23.9841657752
 20
40.3062904212
 30
0.0
 10
24.0325081321
 20
40.0982092159
 30
0.0
 10
24.084273905
 20
39.809994016
 30
0.0
 10
24.1314540928
 20
39.436190215
 30
0.0
 10
24.1527825126
 20
39.1746131101
 30
0.0
 10
24.1611000294
 20
39.0391847796
 30
0.0
  0
SPLINE
  5
446
100
AcDbEntity
  8
0
100
AcDbSpline
 62
7
  6
BYLAYER
 70
0
 71
3
 72
10
 73
6
 74
0
 42
0.0000001
 43
0.0000001
 44
0.0000000001
 40
0.0
 40
0.0
 40
0.0
 40
0.0
 40
0.4448097107
 40
0.8011710221
 40
1.0
 40
1.0
 40
1.0
 40
1.0
 10
24.1611000294
 20
39.0391847796
 30
0.0
 10
24.1904746197
 20
39.0387642025
 30
0.0
 10
24.2434231094
 20
39.0398749037
 30
0.0
 10
24.309367291
 20
39.0379295911
 30
0.0
 10
24.3461856383
 20
39.0406436179
 30
0.0
 10
24.3592359965
 20
39.0391840533
 30
0.0
  0
SPLINE
  5
447
100
AcDbEntity
  8
0
100
AcDbSpline
 62
7
  6
BYLAYER
 70
0
 71
3
 72
11
 73
7
 74
0
 42
0.0000001
 43
0.0000001
 44
0.0000000001
 40
0.0
 40
0.0
 40
0.0
 40
0.0
 40
0.004911043
 40
0.2061679985
 40
0.5610561548
 40
1.0
 40
1.0
 40
1.0
 40
1.0
 10
23.2353409815
 20
39.0391840533
 30
0.0
 10
23.2356564838
 20
39.0392192585
 30
0.0
 10
23.2087789092
 20
39.0384681689
 30
0.0
 10
23.1960457691
 20
39.0397947059
 30
0.0
 10
23.1164481478
 20
39.0389134449
 30
0.0
 10
23.0697887675
 20
39.0391303143
 30
0.0
 10
23.0414145471
 20
39.0391847075
 30
0.0
  0
SPLINE
  5
448
100
AcDbEntity
  8
0
100
AcDbSpline
 62
7
  6
BYLAYER
 70
0
 71
3
 72
24
 73
20
 74
0
 42
0.0000001
 43
0.0000001
 44
0.0000000001
 40
0.0
 40
0.0
 40
0.0
 40
0.0
 40
0.0213137067
 40
0.0430269258
 40
0.065469457
 40
0.0889685425
 40
0.1137760513
 40
0.1398670587
 40
0.1671326212
 40
0.1954501797
 40
0.2547586282
 40
0.3169528149
 40
0.3811816484
 40
0.4469627304
 40
0.5139056447
 40
0.5817662332
 40
0.7194670518
 40
0.8590569433
 40
1.0
 40
1.0
 40
1.0
 40
1.0
 10
27.7799254436
 20
38.4891844065
 30
0.0
 10
27.7812495885
 20
38.4324382291
 30
0.0
 10
27.7791665398
 20
38.3177123168
 30
0.0
 10
27.7613100607
 20
38.1440784177
 30
0.0
 10
27.7281411433
 20
37.9667824048
 30
0.0
 10
27.6791470843
 20
37.7846680198
 30
0.0
 10
27.6142210684
 20
37.5973216823
 30
0.0
 10
27.533943226
 20
37.4051330614
 30
0.0
 10
27.4389833497
 20
37.2093293144
 30
0.0
 10
27.2914639619
 20
36.9411321879
 30
0.0
 10
27.0740553639
 20
36.6059211516
 30
0.0
 10
26.7745300847
 20
36.2118665338
 30
0.0
 10
26.4403402887
 20
35.8237871313
 30
0.0
 10
26.0780470151
 20
35.4442387386
 30
0.0
 10
25.692827234
 20
35.0739481131
 30
0.0
 10
25.1511579052
 20
34.5907739604
 30
0.0
 10
24.4361320187
 20
34.0122729998
 30
0.0
 10
23.5365340994
 20
33.3549758437
 30
0.0
 10
22.9158324467
 20
32.938826488
 30
0.0
 10
22.6007589601
 20
32.7348207791
 30
0.0
  0
SPLINE
  5
449
100
AcDbEntity
  8
0
100
AcDbSpline
 62
7
  6
BYLAYER
 70
0
 71
3
 72
10
 73
6
 74
0
 42
0.0000001
 43
0.0000001
 44
0.0000000001
 40
0.0
 40
0.0
 40
0.0
 40
0.0
 40
0.3491952393
 40
0.675179158
 40
1.0
 40
1.0
 40
1.0
 40
1.0
 10
17.2797834671
 20
35.7435473023
 30
0.0
 10
17.3218822303
 20
35.8111615776
 30
0.0
 10
17.4088493751
 20
35.9383393252
 30
0.0
 10
17.5501696277
 20
36.1181729301
 30
0.0
 10
17.6622644445
 20
36.2169014297
 30
0.0
 10
17.7211874465
 20
36.2618162716
 30
0.0
  0
SPLINE
  5
44A
100
AcDbEntity
  8
0
100
AcDbSpline
 62
7
  6
BYLAYER
 70
0
 71
3
 72
10
 73
6
 74
0
 42
0.0000001
 43
0.0000001
 44
0.0000000001
 40
0.0
 40
0.0
 40
0.0
 40
0.0
 40
0.3256422582
 40
0.6442794303
 40
1.0
 40
1.0
 40
1.0
 40
1.0
 10
17.7211874465
 20
36.2618162716
 30
0.0
 10
17.7771513161
 20
36.3010251533
 30
0.0
 10
17.8960942761
 20
36.3681334521
 30
0.0
 10
18.0995507602
 20
36.4256591327
 30
0.0
 10
18.2414398337
 20
36.4367969527
 30
0.0
 10
18.3160808672
 20
36.437438739
 30
0.0
  0
SPLINE
  5
44B
100
AcDbEntity
  8
0
100
AcDbSpline
 62
7
  6
BYLAYER
 70
0
 71
3
 72
10
 73
6
 74
0
 42
0.0000001
 43
0.0000001
 44
0.0000000001
 40
0.0
 40
0.0
 40
0.0
 40
0.0
 40
0.3494651204
 40
0.6682110668
 40
1.0
 40
1.0
 40
1.0
 40
1.0
 10
21.3863034972
 20
36.437438739
 30
0.0
 10
21.4596324663
 20
36.4370182036
 30
0.0
 10
21.6001802404
 20
36.425856152
 30
0.0
 10
21.8039413383
 20
36.3693853931
 30
0.0
 10
21.9240068264
 20
36.3015191595
 30
0.0
 10
21.9811970073
 20
36.2618155255
 30
0.0
  0
SPLINE
  5
44C
100
AcDbEntity
  8
0
100
AcDbSpline
 62
7
  6
BYLAYER
 70
0
 71
3
 72
10
 73
6
 74
0
 42
0.0000001
 43
0.0000001
 44
0.0000000001
 40
0.0
 40
0.0
 40
0.0
 40
0.0
 40
0.3147645186
 40
0.6528805502
 40
1.0
 40
1.0
 40
1.0
 40
1.0
 10
21.9811970073
 20
36.2618155255
 30
0.0
 10
22.0387950211
 20
36.2189534545
 30
0.0
 10
22.1507877109
 20
36.1193057885
 30
0.0
 10
22.2924744517
 20
35.939860385
 30
0.0
 10
22.380997077
 20
35.8109124004
 30
0.0
 10
22.4226008949
 20
35.7435478314
 30
0.0
  0
SPLINE
  5
44D
100
AcDbEntity
  8
0
100
AcDbSpline
 62
7
  6
BYLAYER
 70
0
 71
3
 72
10
 73
6
 74
0
 42
0.0000001
 43
0.0000001
 44
0.0000000001
 40
0.0
 40
0.0
 40
0.0
 40
0.0
 40
0.3844695536
 40
0.7296445082
 40
1.0
 40
1.0
 40
1.0
 40
1.0
 10
22.42260042
 20
35.7435508042
 30
0.0
 10
22.3698208741
 20
35.7438016897
 30
0.0
 10
22.2696552054
 20
35.744113494
 30
0.0
 10
22.1323748062
 20
35.7441404716
 30
0.0
 10
22.0478743123
 20
35.7438522095
 30
0.0
 10
22.0107610755
 20
35.7435441007
 30
0.0
  0
LINE
  5
44E
100
AcDbEntity
  8
0
100
AcDbLine
 62
7
  6
BYLAYER
 10
22.0230871218
 20
33.3878782707
 11
22.0107610755
 21
35.7435441007
  0
SPLINE
  5
44F
100
AcDbEntity
  8
0
100
AcDbSpline
 62
7
  6
BYLAYER
 70
0
 71
3
 72
10
 73
6
 74
0
 42
0.0000001
 43
0.0000001
 44
0.0000000001
 40
0.0
 40
0.0
 40
0.0
 40
0.0
 40
0.3225845416
 40
0.6454598564
 40
1.0
 40
1.0
 40
1.0
 40
1.0
 10
21.8721422238
 20
36.1137387941
 30
0.0
 10
21.8264758262
 20
36.143732743
 30
0.0
 10
21.7269150519
 20
36.1918867598
 30
0.0
 10
21.5613707666
 20
36.2315595261
 30
0.0
 10
21.4463514446
 20
36.2391840461
 30
0.0
 10
21.3863034972
 20
36.2391840461
 30
0.0
  0
SPLINE
  5
450
100
AcDbEntity
  8
0
100
AcDbSpline
 62
7
  6
BYLAYER
 70
0
 71
3
 72
10
 73
6
 74
0
 42
0.0000001
 43
0.0000001
 44
0.0000000001
 40
0.0
 40
0.0
 40
0.0
 40
0.0
 40
0.3438696153
 40
0.6792479818
 40
1.0
 40
1.0
 40
1.0
 40
1.0
 10
22.0110518043
 20
35.7435473138
 30
0.0
 10
22.0107196553
 20
35.7897860938
 30
0.0
 10
21.9995914839
 20
35.8814239372
 30
0.0
 10
21.9525204543
 20
36.0086332852
 30
0.0
 10
21.9015290025
 20
36.0821677381
 30
0.0
 10
21.8721422238
 20
36.1137387941
 30
0.0
  0
SPLINE
  5
451
100
AcDbEntity
  8
0
100
AcDbSpline
 62
7
  6
BYLAYER
 70
0
 71
3
 72
10
 73
6
 74
0
 42
0.0000001
 43
0.0000001
 44
0.0000000001
 40
0.0
 40
0.0
 40
0.0
 40
0.0
 40
0.3559957761
 40
0.6792184269
 40
1.0
 40
1.0
 40
1.0
 40
1.0
 10
18.3160808672
 20
36.2391840461
 30
0.0
 10
18.2557861783
 20
36.2391840461
 30
0.0
 10
18.140455721
 20
36.231511171
 30
0.0
 10
17.9749478768
 20
36.1916713254
 30
0.0
 10
17.875641595
 20
36.1435843452
 30
0.0
 10
17.8302425612
 20
36.1137392461
 30
0.0
  0
SPLINE
  5
452
100
AcDbEntity
  8
0
100
AcDbSpline
 62
7
  6
BYLAYER
 70
0
 71
3
 72
10
 73
6
 74
0
 42
0.0000001
 43
0.0000001
 44
0.0000000001
 40
0.0
 40
0.0
 40
0.0
 40
0.0
 40
0.3207519832
 40
0.6561303538
 40
1.0
 40
1.0
 40
1.0
 40
1.0
 10
17.8302425612
 20
36.1137392461
 30
0.0
 10
17.8008556979
 20
36.082168186
 30
0.0
 10
17.7498640906
 20
36.0086336745
 30
0.0
 10
17.7027929154
 20
35.8814241565
 30
0.0
 10
17.6916647096
 20
35.7897861681
 30
0.0
 10
17.69133256
 20
35.7435473138
 30
0.0
  0
SPLINE
  5
453
100
AcDbEntity
  8
0
100
AcDbSpline
 62
7
  6
BYLAYER
 70
0
 71
3
 72
12
 73
8
 74
0
 42
0.0000001
 43
0.0000001
 44
0.0000000001
 40
0.0
 40
0.0
 40
0.0
 40
0.0
 40
0.2412966685
 40
0.4683907037
 40
0.6708123464
 40
0.8452742419
 40
1.0
 40
1.0
 40
1.0
 40
1.0
 10
18.2132679289
 20
35.7435473138
 30
0.0
 10
18.2135480843
 20
35.7949758388
 30
0.0
 10
18.2236289015
 20
35.89504903
 30
0.0
 10
18.2665478117
 20
36.0325724771
 30
0.0
 10
18.3338712421
 20
36.1441251823
 30
0.0
 10
18.4215255174
 20
36.2199542374
 30
0.0
 10
18.4923873658
 20
36.2391840461
 30
0.0
 10
18.5253651753
 20
36.2391840461
 30
0.0
  0
LINE
  5
454
100
AcDbEntity
  8
0
100
AcDbLine
 62
7
  6
BYLAYER
 10
17.6916232881
 20
35.7435441232
 11
17.6792944538
 21
33.3878782541
  0
SPLINE
  5
455
100
AcDbEntity
  8
0
100
AcDbSpline
 62
7
  6
BYLAYER
 70
0
 71
3
 72
10
 73
6
 74
0
 42
0.0000001
 43
0.0000001
 44
0.0000000001
 40
0.0
 40
0.0
 40
0.0
 40
0.0
 40
0.2703554801
 40
0.6155304424
 40
1.0
 40
1.0
 40
1.0
 40
1.0
 10
17.6916232881
 20
35.7435441232
 30
0.0
 10
17.6545100539
 20
35.7438523935
 30
0.0
 10
17.5700095589
 20
35.7441407465
 30
0.0
 10
17.4327291584
 20
35.7441135439
 30
0.0
 10
17.3325634879
 20
35.7438013679
 30
0.0
 10
17.2797839422
 20
35.7435502263
 30
0.0
  0
SPLINE
  5
456
100
AcDbEntity
  8
0
100
AcDbSpline
 62
7
  6
BYLAYER
 70
0
 71
3
 72
12
 73
8
 74
0
 42
0.0000001
 43
0.0000001
 44
0.0000000001
 40
0.0
 40
0.0
 40
0.0
 40
0.0
 40
0.2412951737
 40
0.4683878964
 40
0.6708085252
 40
0.845269667
 40
1.0
 40
1.0
 40
1.0
 40
1.0
 10
21.4891165077
 20
35.7435473963
 30
0.0
 10
21.488836348
 20
35.7949757355
 30
0.0
 10
21.4787555858
 20
35.8950485819
 30
0.0
 10
21.4358369531
 20
36.0325716358
 30
0.0
 10
21.3685139201
 20
36.1441241842
 30
0.0
 10
21.2808593761
 20
36.2199542033
 30
0.0
 10
21.209996317
 20
36.2391843472
 30
0.0
 10
21.1770174472
 20
36.2391840461
 30
0.0
  0
SPLINE
  5
457
100
AcDbEntity
  8
0
100
AcDbSpline
 62
7
  6
BYLAYER
 70
0
 71
3
 72
28
 73
24
 74
0
 42
0.0000001
 43
0.0000001
 44
0.0000000001
 40
0.0
 40
0.0
 40
0.0
 40
0.0
 40
0.027577602
 40
0.0976437366
 40
0.1745861625
 40
0.2579245047
 40
0.3470062878
 40
0.4427931244
 40
0.537093663
 40
0.6185161419
 40
0.6519094
 40
0.6841035445
 40
0.7386248453
 40
0.7623478798
 40
0.7857859236
 40
0.8067921
 40
0.8279768022
 40
0.8472661495
 40
0.8670667192
 40
0.9043504345
 40
0.9407622637
 40
0.976941812
 40
1.0
 40
1.0
 40
1.0
 40
1.0
 10
33.7913050848
 20
38.4482557285
 30
0.0
 10
33.7904476568
 20
38.4046511622
 30
0.0
 10
33.7825688804
 20
38.250345308
 30
0.0
 10
33.7376622929
 20
37.9766404034
 30
0.0
 10
33.6204830936
 20
37.6299589551
 30
0.0
 10
33.4323232597
 20
37.2812008069
 30
0.0
 10
33.1693985169
 20
36.9457629177
 30
0.0
 10
32.8394764303
 20
36.6488395389
 30
0.0
 10
32.4722896831
 20
36.4217126833
 30
0.0
 10
32.1617051521
 20
36.3017085996
 30
0.0
 10
31.9343052237
 20
36.251649136
 30
0.0
 10
31.7454357786
 20
36.2294901233
 30
0.0
 10
31.5692014374
 20
36.2357814971
 30
0.0
 10
31.4117708095
 20
36.2700177763
 30
0.0
 10
31.3096161272
 20
36.3053458037
 30
0.0
 10
31.2161202729
 20
36.3509339371
 30
0.0
 10
31.1341608557
 20
36.4036786165
 30
0.0
 10
31.060215815
 20
36.4641153941
 30
0.0
 10
30.9750649996
 20
36.5500551744
 30
0.0
 10
30.8865988123
 20
36.6695328732
 30
0.0
 10
30.8051541202
 20
36.8235535201
 30
0.0
 10
30.7501736339
 20
36.9647574764
 30
0.0
 10
30.7225470128
 20
37.0543108613
 30
0.0
 10
30.7126251684
 20
37.0894008104
 30
0.0
  0
SPLINE
  5
458
100
AcDbEntity
  8
0
100
AcDbSpline
 62
7
  6
BYLAYER
 70
0
 71
3
 72
12
 73
8
 74
0
 42
0.0000001
 43
0.0000001
 44
0.0000000001
 40
0.0
 40
0.0
 40
0.0
 40
0.0
 40
0.1562762818
 40
0.3497873946
 40
0.5818172677
 40
0.8474560888
 40
1.0
 40
1.0
 40
1.0
 40
1.0
 10
30.7125955747
 20
37.0893892808
 30
0.0
 10
30.6924412299
 20
37.1605064685
 30
0.0
 10
30.6501639262
 20
37.3205036093
 30
0.0
 10
30.5912369154
 20
37.5894310195
 30
0.0
 10
30.5396286733
 20
37.9124797078
 30
0.0
 10
30.5129065191
 20
38.2192118776
 30
0.0
 10
30.5083586167
 20
38.4170317302
 30
0.0
 10
30.5083960627
 20
38.4891842018
 30
0.0
  0
LINE
  5
459
100
AcDbEntity
  8
0
100
AcDbLine
 62
7
  6
BYLAYER
 10
22.1011921822
 20
38.4891840461
 11
22.1208709413
 21
36.234201622
  0
SPLINE
  5
45A
100
AcDbEntity
  8
0
100
AcDbSpline
 62
7
  6
BYLAYER
 70
0
 71
3
 72
10
 73
6
 74
0
 42
0.0000001
 43
0.0000001
 44
0.0000000001
 40
0.0
 40
0.0
 40
0.0
 40
0.0
 40
0.3320044843
 40
0.6652041952
 40
1.0
 40
1.0
 40
1.0
 40
1.0
 10
33.3597051158
 20
38.4891840461
 30
0.0
 10
33.3590486321
 20
38.4846639416
 30
0.0
 10
33.3577797119
 20
38.4756003552
 30
0.0
 10
33.3561124459
 20
38.4619440651
 30
0.0
 10
33.3549536585
 20
38.4528275445
 30
0.0
 10
33.3543787861
 20
38.4482576309
 30
0.0
  0
SPLINE
  5
45B
100
AcDbEntity
  8
0
100
AcDbSpline
 62
7
  6
BYLAYER
 70
0
 71
3
 72
11
 73
7
 74
0
 42
0.0000001
 43
0.0000001
 44
0.0000000001
 40
0.0
 40
0.0
 40
0.0
 40
0.0
 40
0.2837151628
 40
0.5500898007
 40
0.7901753601
 40
1.0
 40
1.0
 40
1.0
 40
1.0
 10
33.3597051158
 20
38.4890482649
 30
0.0
 10
33.3699119296
 20
38.54595654
 30
0.0
 10
33.399069607
 20
38.6551346973
 30
0.0
 10
33.4758709344
 20
38.7984739615
 30
0.0
 10
33.5786734092
 20
38.9055829237
 30
0.0
 10
33.6702607409
 20
38.9391840461
 30
0.0
 10
33.7130194556
 20
38.9391840461
 30
0.0
  0
SPLINE
  5
45C
100
AcDbEntity
  8
0
100
AcDbSpline
 62
7
  6
BYLAYER
 70
0
 71
3
 72
11
 73
7
 74
0
 42
0.0000001
 43
0.0000001
 44
0.0000000001
 40
0.0
 40
0.0
 40
0.0
 40
0.0
 40
0.2972042819
 40
0.5543152891
 40
0.7929234979
 40
1.0
 40
1.0
 40
1.0
 40
1.0
 10
27.88377451
 20
32.4167411494
 30
0.0
 10
28.2819959877
 20
32.784740735
 30
0.0
 10
28.9937997788
 20
33.5065402591
 30
0.0
 10
29.8776338987
 20
34.6571039934
 30
0.0
 10
30.5034428257
 20
35.7821310503
 30
0.0
 10
30.7784026733
 20
36.5522465888
 30
0.0
 10
30.871798686
 20
36.9183118156
 30
0.0
  0
SPLINE
  5
45D
100
AcDbEntity
  8
0
100
AcDbSpline
 62
7
  6
BYLAYER
 70
0
 71
3
 72
19
 73
15
 74
0
 42
0.0000001
 43
0.0000001
 44
0.0000000001
 40
0.0
 40
0.0
 40
0.0
 40
0.0
 40
0.0753130657
 40
0.1456342156
 40
0.2131313982
 40
0.2664468717
 40
0.3339749261
 40
0.4059867617
 40
0.4935415346
 40
0.5927305407
 40
0.7085455583
 40
0.8108956786
 40
0.9051922304
 40
1.0
 40
1.0
 40
1.0
 40
1.0
 10
30.871798686
 20
36.9183118156
 30
0.0
 10
30.901936393
 20
36.7886492767
 30
0.0
 10
30.9836179229
 20
36.5427872785
 30
0.0
 10
31.1859989712
 20
36.2172490888
 30
0.0
 10
31.4744512162
 20
36.0194318501
 30
0.0
 10
31.8059146487
 20
35.9516280523
 30
0.0
 10
32.1497591491
 20
35.9873764508
 30
0.0
 10
32.5298677597
 20
36.1249726373
 30
0.0
 10
32.9217826477
 20
36.366848191
 30
0.0
 10
33.3158201951
 20
36.7333506875
 30
0.0
 10
33.641718966
 20
37.195849286
 30
0.0
 10
33.8589769603
 20
37.7076819337
 30
0.0
 10
33.9640337499
 20
38.2151489801
 30
0.0
 10
33.9665290194
 20
38.55190571
 30
0.0
 10
33.951809551
 20
38.7188346453
 30
0.0
  0
SPLINE
  5
45E
100
AcDbEntity
  8
0
100
AcDbSpline
 62
7
  6
BYLAYER
 70
0
 71
3
 72
10
 73
6
 74
0
 42
0.0000001
 43
0.0000001
 44
0.0000000001
 40
0.0
 40
0.0
 40
0.0
 40
0.0
 40
0.369654489
 40
0.699113116
 40
1.0
 40
1.0
 40
1.0
 40
1.0
 10
33.9518089327
 20
38.718834805
 30
0.0
 10
33.9669476698
 20
38.7586807481
 30
0.0
 10
34.0034540938
 20
38.8315525417
 30
0.0
 10
34.0857800444
 20
38.9164134686
 30
0.0
 10
34.1594164089
 20
38.9391840461
 30
0.0
 10
34.1941116939
 20
38.9391840461
 30
0.0
  0
SPLINE
  5
45F
100
AcDbEntity
  8
0
100
AcDbSpline
 62
7
  6
BYLAYER
 70
0
 71
3
 72
23
 73
19
 74
0
 42
0.0000001
 43
0.0000001
 44
0.0000000001
 40
0.0
 40
0.0
 40
0.0
 40
0.0
 40
0.1159004921
 40
0.2252972521
 40
0.3280440233
 40
0.4239982692
 40
0.5130323906
 40
0.5950076684
 40
0.6697939881
 40
0.7372730953
 40
0.7973233988
 40
0.8498042542
 40
0.8945958822
 40
0.9315928258
 40
0.9606922464
 40
0.9818231028
 40
0.9949405623
 40
1.0
 40
1.0
 40
1.0
 40
1.0
 10
27.8837653372
 20
32.416749646
 30
0.0
 10
28.6841692925
 20
32.424081378
 30
0.0
 10
30.2400542408
 20
32.4392916949
 30
0.0
 10
32.5054640937
 20
32.4648648407
 30
0.0
 10
34.6330914617
 20
32.4919995549
 30
0.0
 10
36.6200619536
 20
32.5202190926
 30
0.0
 10
38.463556037
 20
32.5489311741
 30
0.0
 10
40.1608424879
 20
32.5774800121
 30
0.0
 10
41.7092588906
 20
32.6050655543
 30
0.0
 10
43.1062598746
 20
32.6310539706
 30
0.0
 10
44.3492278528
 20
32.65484117
 30
0.0
 10
45.4355298736
 20
32.6761098325
 30
0.0
 10
46.362646302
 20
32.6944544125
 30
0.0
 10
47.1283133451
 20
32.7097663643
 30
0.0
 10
47.7306059722
 20
32.7217776516
 30
0.0
 10
48.168009781
 20
32.7307699054
 30
0.0
 10
48.4394286842
 20
32.735902143
 30
0.0
 10
48.5649330959
 20
32.7387484479
 30
0.0
 10
48.5998721084
 20
32.7391843365
 30
0.0
  0
SPLINE
  5
460
100
AcDbEntity
  8
0
100
AcDbSpline
 62
7
  6
BYLAYER
 70
0
 71
3
 72
12
 73
8
 74
0
 42
0.0000001
 43
0.0000001
 44
0.0000000001
 40
0.0
 40
0.0
 40
0.0
 40
0.0
 40
0.2825062241
 40
0.4164446195
 40
0.5444782691
 40
0.7822587928
 40
1.0
 40
1.0
 40
1.0
 40
1.0
 10
27.8837943228
 20
32.4167235126
 30
0.0
 10
27.8658253931
 20
32.3886516158
 30
0.0
 10
27.8347663609
 20
32.3498827018
 30
0.0
 10
27.7864574066
 20
32.3073685722
 30
0.0
 10
27.7376887331
 20
32.2739765425
 30
0.0
 10
27.6735732936
 20
32.2466428913
 30
0.0
 10
27.6196206458
 20
32.2391835138
 30
0.0
 10
27.593931315
 20
32.2391840461
 30
0.0
  0
SPLINE
  5
461
100
AcDbEntity
  8
0
100
AcDbSpline
 62
7
  6
BYLAYER
 70
0
 71
3
 72
13
 73
9
 74
0
 42
0.0000001
 43
0.0000001
 44
0.0000000001
 40
0.0
 40
0.0
 40
0.0
 40
0.0
 40
0.0997398088
 40
0.2382271446
 40
0.3743400274
 40
0.5434307491
 40
0.7500491491
 40
1.0
 40
1.0
 40
1.0
 40
1.0
 10
27.8837967256
 20
32.4167164354
 30
0.0
 10
27.70836599
 20
32.4303748992
 30
0.0
 10
27.2882792345
 20
32.4468482264
 30
0.0
 10
26.6291926615
 20
32.4883787661
 30
0.0
 10
25.8477295102
 20
32.5336048965
 30
0.0
 10
24.9464678689
 20
32.588934072
 30
0.0
 10
23.8447267235
 20
32.6562105207
 30
0.0
 10
23.0409759952
 20
32.7091487608
 30
0.0
 10
22.6007589606
 20
32.7348207783
 30
0.0
  0
SPLINE
  5
462
100
AcDbEntity
  8
0
100
AcDbSpline
 62
7
  6
BYLAYER
 70
0
 71
3
 72
11
 73
7
 74
0
 42
0.0000001
 43
0.0000001
 44
0.0000000001
 40
0.0
 40
0.0
 40
0.0
 40
0.0
 40
0.2805904809
 40
0.5511586553
 40
0.7928691741
 40
1.0
 40
1.0
 40
1.0
 40
1.0
 10
27.9771525644
 20
38.9391840461
 30
0.0
 10
28.229116988
 20
38.9425323765
 30
0.0
 10
28.7241215683
 20
38.9378060869
 30
0.0
 10
29.4361537492
 20
38.9392550323
 30
0.0
 10
30.0822234633
 20
38.9399592823
 30
0.0
 10
30.4853194862
 20
38.9375740722
 30
0.0
 10
30.6713281063
 20
38.9391856957
 30
0.0
  0
SPLINE
  5
463
100
AcDbEntity
  8
0
100
AcDbSpline
 62
7
  6
BYLAYER
 70
0
 71
3
 72
19
 73
15
 74
0
 42
0.0000001
 43
0.0000001
 44
0.0000000001
 40
0.0
 40
0.0
 40
0.0
 40
0.0
 40
0.1332403822
 40
0.2547602535
 40
0.365561882
 40
0.4665854222
 40
0.558618393
 40
0.6423613055
 40
0.7184027215
 40
0.7873081275
 40
0.8495713575
 40
0.9054668507
 40
0.9548215967
 40
1.0
 40
1.0
 40
1.0
 40
1.0
 10
27.9771525644
 20
38.9391840461
 30
0.0
 10
27.9754947569
 20
38.9161416331
 30
0.0
 10
27.9713169948
 20
38.8721471309
 30
0.0
 10
27.962195703
 20
38.8093974033
 30
0.0
 10
27.9509098546
 20
38.7526842716
 30
0.0
 10
27.9377672136
 20
38.7016351042
 30
0.0
 10
27.9229997297
 20
38.6559363724
 30
0.0
 10
27.9067675612
 20
38.6153629414
 30
0.0
 10
27.8891516026
 20
38.5797846177
 30
0.0
 10
27.8701471026
 20
38.5492136854
 30
0.0
 10
27.8496868325
 20
38.5239091922
 30
0.0
 10
27.8277652805
 20
38.5045687749
 30
0.0
 10
27.8044736033
 20
38.4921554075
 30
0.0
 10
27.7879909554
 20
38.4892158785
 30
0.0
 10
27.7801577113
 20
38.4891898094
 30
0.0
  0
SPLINE
  5
464
100
AcDbEntity
  8
0
100
AcDbSpline
 62
7
  6
BYLAYER
 70
0
 71
3
 72
20
 73
16
 74
0
 42
0.0000001
 43
0.0000001
 44
0.0000000001
 40
0.0
 40
0.0
 40
0.0
 40
0.0
 40
0.1704414008
 40
0.2858501283
 40
0.3900186934
 40
0.4802816645
 40
0.5203778364
 40
0.557380773
 40
0.5929474322
 40
0.6286196295
 40
0.7012255453
 40
0.7788964606
 40
0.8647831076
 40
0.9302132768
 40
1.0
 40
1.0
 40
1.0
 40
1.0
 10
30.7126307237
 20
37.0894016909
 30
0.0
 10
30.7312757238
 20
37.0923566551
 30
0.0
 10
30.7630882003
 20
37.0947444418
 30
0.0
 10
30.8062049009
 20
37.0902393261
 30
0.0
 10
30.839512801
 20
37.0812892978
 30
0.0
 10
30.8629949153
 20
37.0696765495
 30
0.0
 10
30.8779561381
 20
37.0586662352
 30
0.0
 10
30.887062787
 20
37.0500881771
 30
0.0
 10
30.8946773498
 20
37.0407783037
 30
0.0
 10
30.902951091
 20
37.0271123573
 30
0.0
 10
30.909349998
 20
37.0070967623
 30
0.0
 10
30.9083230994
 20
36.9804935484
 30
0.0
 10
30.8998185348
 20
36.9562378209
 30
0.0
 10
30.8868188721
 20
36.9353730599
 30
0.0
 10
30.8771098979
 20
36.9239001875
 30
0.0
 10
30.8717666196
 20
36.9183150889
 30
0.0
  0
SPLINE
  5
465
100
AcDbEntity
  8
0
100
AcDbSpline
 62
7
  6
BYLAYER
 70
0
 71
3
 72
11
 73
7
 74
0
 42
0.0000001
 43
0.0000001
 44
0.0000000001
 40
0.0
 40
0.0
 40
0.0
 40
0.0
 40
0.2198054431
 40
0.4835447074
 40
0.7393324036
 40
1.0
 40
1.0
 40
1.0
 40
1.0
 10
30.8717487701
 20
36.9183235965
 30
0.0
 10
30.8322969579
 20
37.0625491368
 30
0.0
 10
30.7562728149
 20
37.382851409
 30
0.0
 10
30.6772163157
 20
37.8802280657
 30
0.0
 10
30.6440483111
 20
38.4107106971
 30
0.0
 10
30.6564196725
 20
38.7624834364
 30
0.0
 10
30.671272224
 20
38.9391811411
 30
0.0
  0
SPLINE
  5
466
100
AcDbEntity
  8
0
100
AcDbSpline
 62
7
  6
BYLAYER
 70
0
 71
3
 72
12
 73
8
 74
0
 42
0.0000001
 43
0.0000001
 44
0.0000000001
 40
0.0
 40
0.0
 40
0.0
 40
0.0
 40
0.1917976261
 40
0.2177460757
 40
0.3619341096
 40
0.6433633213
 40
1.0
 40
1.0
 40
1.0
 40
1.0
 10
30.671272224
 20
38.9391811411
 30
0.0
 10
30.6871778799
 20
38.9396736844
 30
0.0
 10
30.7027031092
 20
38.9392108957
 30
0.0
 10
30.7381151771
 20
38.9391470764
 30
0.0
 10
30.6595595172
 20
38.939236191
 30
0.0
 10
30.6219157271
 20
38.9390925236
 30
0.0
 10
30.5603513307
 20
38.93937356
 30
0.0
 10
30.5307620464
 20
38.9391936236
 30
0.0
  0
SPLINE
  5
467
100
AcDbEntity
  8
0
100
AcDbSpline
 62
7
  6
BYLAYER
 70
0
 71
3
 72
10
 73
6
 74
0
 42
0.0000001
 43
0.0000001
 44
0.0000000001
 40
0.0
 40
0.0
 40
0.0
 40
0.0
 40
0.3789144322
 40
0.7176681349
 40
1.0
 40
1.0
 40
1.0
 40
1.0
 10
33.7912920933
 20
38.4482576309
 30
0.0
 10
33.8146919002
 20
38.4804829233
 30
0.0
 10
33.8576620614
 20
38.542526424
 30
0.0
 10
33.9125876533
 20
38.6321942271
 30
0.0
 10
33.941262359
 20
38.6910984735
 30
0.0
 10
33.9518089327
 20
38.718834805
 30
0.0
  0
SPLINE
  5
468
100
AcDbEntity
  8
0
100
AcDbSpline
 62
7
  6
BYLAYER
 70
0
 71
3
 72
11
 73
7
 74
0
 42
0.0000001
 43
0.0000001
 44
0.0000000001
 40
0.0
 40
0.0
 40
0.0
 40
0.0
 40
0.0713475632
 40
0.281048967
 40
0.603669204
 40
1.0
 40
1.0
 40
1.0
 40
1.0
 10
48.59987291
 20
32.7391818166
 30
0.0
 10
48.6050694368
 20
32.7308405409
 30
0.0
 10
48.5302832989
 20
32.7474082897
 30
0.0
 10
48.4806568522
 20
32.7300037405
 30
0.0
 10
48.3351337853
 20
32.7377265239
 30
0.0
 10
48.2412923397
 20
32.7349019717
 30
0.0
 10
48.1867010282
 20
32.7348208001
 30
0.0
  0
SPLINE
  5
469
100
AcDbEntity
  8
0
100
AcDbSpline
 62
7
  6
BYLAYER
 70
0
 71
3
 72
12
 73
8
 74
0
 42
0.0000001
 43
0.0000001
 44
0.0000000001
 40
0.0
 40
0.0
 40
0.0
 40
0.0
 40
0.2988229308
 40
0.5688645166
 40
0.7852913005
 40
0.9298780403
 40
1.0
 40
1.0
 40
1.0
 40
1.0
 10
48.1867013693
 20
32.7348207783
 30
0.0
 10
48.1866238183
 20
32.6836456713
 30
0.0
 10
48.1837537901
 20
32.5859930419
 30
0.0
 10
48.173074557
 20
32.4527239285
 30
0.0
 10
48.1540065322
 20
32.343743352
 30
0.0
 10
48.1371017979
 20
32.2769799405
 30
0.0
 10
48.1118893801
 20
32.2391840461
 30
0.0
 10
48.0998805864
 20
32.2391840461
 30
0.0
  0
LINE
  5
46A
100
AcDbEntity
  8
0
100
AcDbLine
 62
7
  6
BYLAYER
 10
48.6002919249
 20
38.4920408155
 11
48.6002720826
 21
38.9391840461
  0
LINE
  5
46B
100
AcDbEntity
  8
0
100
AcDbLine
 62
7
  6
BYLAYER
 10
48.6002720826
 20
38.9391840461
 11
48.1870978164
 21
38.9391840446
  0
SPLINE
  5
46C
100
AcDbEntity
  8
0
100
AcDbSpline
 62
7
  6
BYLAYER
 70
0
 71
3
 72
11
 73
7
 74
0
 42
0.0000001
 43
0.0000001
 44
0.0000000001
 40
0.0
 40
0.0
 40
0.0
 40
0.0
 40
0.3967554438
 40
0.7184711329
 40
0.9280104937
 40
1.0
 40
1.0
 40
1.0
 40
1.0
 10
48.1871169466
 20
38.4891840458
 30
0.0
 10
48.2417619451
 20
38.4892849245
 30
0.0
 10
48.3346526551
 20
38.4876171424
 30
0.0
 10
48.4830000139
 20
38.4950531907
 30
0.0
 10
48.5269340691
 20
38.4836063861
 30
0.0
 10
48.6080816048
 20
38.4981751662
 30
0.0
 10
48.6002919249
 20
38.4920408155
 30
0.0
  0
SPLINE
  5
46D
100
AcDbEntity
  8
0
100
AcDbSpline
 62
7
  6
BYLAYER
 70
0
 71
3
 72
11
 73
7
 74
0
 42
0.0000001
 43
0.0000001
 44
0.0000000001
 40
0.0
 40
0.0
 40
0.0
 40
0.0
 40
0.2527663384
 40
0.5032165846
 40
0.7535088569
 40
1.0
 40
1.0
 40
1.0
 40
1.0
 10
46.7127101653
 20
38.4891840461
 30
0.0
 10
46.7123186177
 20
38.2092982294
 30
0.0
 10
46.6670036832
 20
37.6511239242
 30
0.0
 10
46.4671189145
 20
36.8375307599
 30
0.0
 10
46.1422893882
 20
36.0727537612
 30
0.0
 10
45.8466469309
 20
35.605450294
 30
0.0
 10
45.6821347673
 20
35.3876644094
 30
0.0
  0
SPLINE
  5
46E
100
AcDbEntity
  8
0
100
AcDbSpline
 62
7
  6
BYLAYER
 70
0
 71
3
 72
11
 73
7
 74
0
 42
0.0000001
 43
0.0000001
 44
0.0000000001
 40
0.0
 40
0.0
 40
0.0
 40
0.0
 40
0.2410231595
 40
0.4903676956
 40
0.7431426582
 40
1.0
 40
1.0
 40
1.0
 40
1.0
 10
45.6821347673
 20
35.3876644094
 30
0.0
 10
45.8245778036
 20
35.6079925946
 30
0.0
 10
46.0795927735
 20
36.0796544214
 30
0.0
 10
46.356102976
 20
36.842772201
 30
0.0
 10
46.5256149566
 20
37.6540096
 30
0.0
 10
46.5632124588
 20
38.2095848284
 30
0.0
 10
46.5628211454
 20
38.4891840461
 30
0.0
  0
SPLINE
  5
46F
100
AcDbEntity
  8
0
100
AcDbSpline
 62
7
  6
BYLAYER
 70
0
 71
3
 72
11
 73
7
 74
0
 42
0.0000001
 43
0.0000001
 44
0.0000000001
 40
0.0
 40
0.0
 40
0.0
 40
0.0
 40
0.2527663385
 40
0.5032165848
 40
0.753508857
 40
1.0
 40
1.0
 40
1.0
 40
1.0
 10
46.3654138099
 20
38.4891840461
 30
0.0
 10
46.3650222623
 20
38.2092982293
 30
0.0
 10
46.3197073278
 20
37.651123924
 30
0.0
 10
46.1198225591
 20
36.8375307596
 30
0.0
 10
45.7949930327
 20
36.072753761
 30
0.0
 10
45.4993505755
 20
35.6054502939
 30
0.0
 10
45.3348384119
 20
35.3876644094
 30
0.0
  0
SPLINE
  5
470
100
AcDbEntity
  8
0
100
AcDbSpline
 62
7
  6
BYLAYER
 70
0
 71
3
 72
11
 73
7
 74
0
 42
0.0000001
 43
0.0000001
 44
0.0000000001
 40
0.0
 40
0.0
 40
0.0
 40
0.0
 40
0.2410231618
 40
0.4903677003
 40
0.7431426654
 40
1.0
 40
1.0
 40
1.0
 40
1.0
 10
45.3348384119
 20
35.3876644094
 30
0.0
 10
45.4772814482
 20
35.6079925945
 30
0.0
 10
45.7322964181
 20
36.0796544213
 30
0.0
 10
46.0088066206
 20
36.8427722009
 30
0.0
 10
46.1783185991
 20
37.6540095895
 30
0.0
 10
46.215916102
 20
38.209584807
 30
0.0
 10
46.2155247903
 20
38.4891840141
 30
0.0
  0
SPLINE
  5
471
100
AcDbEntity
  8
0
100
AcDbSpline
 62
7
  6
BYLAYER
 70
0
 71
3
 72
18
 73
14
 74
0
 42
0.0000001
 43
0.0000001
 44
0.0000000001
 40
0.0
 40
0.0
 40
0.0
 40
0.0
 40
0.1261395805
 40
0.2521203807
 40
0.3778557402
 40
0.5031660026
 40
0.6280552292
 40
0.6903336839
 40
0.7524638866
 40
0.8144980918
 40
0.8764303681
 40
0.9382530981
 40
1.0
 40
1.0
 40
1.0
 40
1.0
 10
46.194920903
 20
38.4891837379
 30
0.0
 10
46.1944802849
 20
38.2027700192
 30
0.0
 10
46.1498412665
 20
37.6294129221
 30
0.0
 10
45.9526395067
 20
36.7910463316
 30
0.0
 10
45.6267284489
 20
35.9953911076
 30
0.0
 10
45.1767793885
 20
35.2653906292
 30
0.0
 10
44.7026646501
 20
34.7319566981
 30
0.0
 10
44.271780797
 20
34.3637994052
 30
0.0
 10
43.9247072124
 20
34.1201866951
 30
0.0
 10
43.5558968508
 20
33.9125420074
 30
0.0
 10
43.1688296721
 20
33.7429795334
 30
0.0
 10
42.7671811857
 20
33.6138072205
 30
0.0
 10
42.4919456424
 20
33.5561554249
 30
0.0
 10
42.3533654511
 20
33.5348837209
 30
0.0
  0
SPLINE
  5
472
100
AcDbEntity
  8
0
100
AcDbSpline
 62
7
  6
BYLAYER
 70
0
 71
3
 72
15
 73
11
 74
0
 42
0.0000001
 43
0.0000001
 44
0.0000000001
 40
0.0
 40
0.0
 40
0.0
 40
0.0
 40
0.1239461239
 40
0.2481226895
 40
0.3725771197
 40
0.4973878146
 40
0.6225141397
 40
0.7480273772
 40
0.8738880684
 40
1.0
 40
1.0
 40
1.0
 40
1.0
 10
41.1578274152
 20
33.5348840995
 30
0.0
 10
40.9633544977
 20
33.564744096
 30
0.0
 10
40.577996437
 20
33.6540619734
 30
0.0
 10
40.0254984842
 20
33.8705271696
 30
0.0
 10
39.5083582349
 20
34.1643188716
 30
0.0
 10
39.0348619757
 20
34.5264098869
 30
0.0
 10
38.6119308761
 20
34.9486604888
 30
0.0
 10
38.2442149048
 20
35.4217393529
 30
0.0
 10
37.9355547181
 20
35.9369097424
 30
0.0
 10
37.7705680527
 20
36.302395186
 30
0.0
 10
37.6985777237
 20
36.489192976
 30
0.0
  0
SPLINE
  5
473
100
AcDbEntity
  8
0
100
AcDbSpline
 62
7
  6
BYLAYER
 70
0
 71
3
 72
10
 73
6
 74
0
 42
0.0000001
 43
0.0000001
 44
0.0000000001
 40
0.0
 40
0.0
 40
0.0
 40
0.0
 40
0.1570165738
 40
0.498469106
 40
1.0
 40
1.0
 40
1.0
 40
1.0
 10
46.7832491354
 20
38.3431278822
 30
0.0
 10
46.7750831104
 20
38.3433461302
 30
0.0
 10
46.7588099393
 20
38.3713041156
 30
0.0
 10
46.7493193025
 20
38.4183599581
 30
0.0
 10
46.7427703623
 20
38.4632293248
 30
0.0
 10
46.7400911667
 20
38.4891840461
 30
0.0
  0
SPLINE
  5
474
100
AcDbEntity
  8
0
100
AcDbSpline
 62
7
  6
BYLAYER
 70
0
 71
3
 72
10
 73
6
 74
0
 42
0.0000001
 43
0.0000001
 44
0.0000000001
 40
0.0
 40
0.0
 40
0.0
 40
0.0
 40
0.1004139707
 40
0.4468213723
 40
1.0
 40
1.0
 40
1.0
 40
1.0
 10
46.5797640394
 20
41.0378634916
 30
0.0
 10
46.5835865302
 20
41.0374393512
 30
0.0
 10
46.5717177833
 20
41.0108220964
 30
0.0
 10
46.5519258018
 20
40.9924644254
 30
0.0
 10
46.527617976
 20
40.9618671042
 30
0.0
 10
46.5133451856
 20
40.9462086364
 30
0.0
  0
SPLINE
  5
475
100
AcDbEntity
  8
0
100
AcDbSpline
 62
7
  6
BYLAYER
 70
0
 71
3
 72
10
 73
6
 74
0
 42
0.0000001
 43
0.0000001
 44
0.0000000001
 40
0.0
 40
0.0
 40
0.0
 40
0.0
 40
0.4850620643
 40
0.8369234122
 40
1.0
 40
1.0
 40
1.0
 40
1.0
 10
46.6254695692
 20
40.9462087338
 30
0.0
 10
46.6427272856
 20
40.9625251952
 30
0.0
 10
46.6729155102
 20
40.9911084685
 30
0.0
 10
46.7106549074
 20
41.0198526643
 30
0.0
 10
46.7316139852
 20
41.0372553145
 30
0.0
 10
46.7395754288
 20
41.0378634916
 30
0.0
  0
LINE
  5
476
100
AcDbEntity
  8
0
100
AcDbLine
 62
7
  6
BYLAYER
 10
46.7512002908
 20
41.0378634916
 11
46.9001072901
 21
41.1891840461
  0
LINE
  5
477
100
AcDbEntity
  8
0
100
AcDbLine
 62
7
  6
BYLAYER
 10
46.369979141
 20
41.1891840461
 11
46.2208036234
 21
41.0378624916
  0
SPLINE
  5
478
100
AcDbEntity
  8
0
100
AcDbSpline
 62
7
  6
BYLAYER
 70
0
 71
3
 72
10
 73
6
 74
0
 42
0.0000001
 43
0.0000001
 44
0.0000000001
 40
0.0
 40
0.0
 40
0.0
 40
0.0
 40
0.100399901
 40
0.4468104286
 40
1.0
 40
1.0
 40
1.0
 40
1.0
 10
46.2324676841
 20
41.0378634916
 30
0.0
 10
46.2362897583
 20
41.0374404393
 30
0.0
 10
46.2244229518
 20
41.0108210876
 30
0.0
 10
46.2046295121
 20
40.9924666951
 30
0.0
 10
46.1803219009
 20
40.9618674534
 30
0.0
 10
46.1660488302
 20
40.9462086364
 30
0.0
  0
SPLINE
  5
479
100
AcDbEntity
  8
0
100
AcDbSpline
 62
7
  6
BYLAYER
 70
0
 71
3
 72
10
 73
6
 74
0
 42
0.0000001
 43
0.0000001
 44
0.0000000001
 40
0.0
 40
0.0
 40
0.0
 40
0.0
 40
0.4850657189
 40
0.8369268808
 40
1.0
 40
1.0
 40
1.0
 40
1.0
 10
46.2781732139
 20
40.9462087338
 30
0.0
 10
46.2954310686
 20
40.9625253089
 30
0.0
 10
46.3256194191
 20
40.9911088158
 30
0.0
 10
46.3633588568
 20
41.0198526351
 30
0.0
 10
46.3843177813
 20
41.0372555625
 30
0.0
 10
46.3922790734
 20
41.0378634916
 30
0.0
  0
SPLINE
  5
47A
100
AcDbEntity
  8
0
100
AcDbSpline
 62
7
  6
BYLAYER
 70
0
 71
3
 72
11
 73
7
 74
0
 42
0.0000001
 43
0.0000001
 44
0.0000000001
 40
0.0
 40
0.0
 40
0.0
 40
0.0
 40
0.2540521528
 40
0.506574044
 40
0.755711713
 40
1.0
 40
1.0
 40
1.0
 40
1.0
 10
46.5249300503
 20
38.4887175254
 30
0.0
 10
46.528276951
 20
38.2131026491
 30
0.0
 10
46.4978705721
 20
37.6622952493
 30
0.0
 10
46.3389199045
 20
36.8552932073
 30
0.0
 10
46.0718628529
 20
36.0884632432
 30
0.0
 10
45.8224419786
 20
35.6121262267
 30
0.0
 10
45.682126039
 20
35.3872737992
 30
0.0
  0
SPLINE
  5
47B
100
AcDbEntity
  8
0
100
AcDbSpline
 62
7
  6
BYLAYER
 70
0
 71
3
 72
11
 73
7
 74
0
 42
0.0000001
 43
0.0000001
 44
0.0000000001
 40
0.0
 40
0.0
 40
0.0
 40
0.0
 40
0.2492000892
 40
0.4990712152
 40
0.7494429595
 40
1.0
 40
1.0
 40
1.0
 40
1.0
 10
45.6821262073
 20
35.3872813305
 30
0.0
 10
45.8422796281
 20
35.6098840469
 30
0.0
 10
46.1281045395
 20
36.0821227495
 30
0.0
 10
46.4365469141
 20
36.8507201414
 30
0.0
 10
46.6189599709
 20
37.6600665779
 30
0.0
 10
46.652455059
 20
38.2130387922
 30
0.0
 10
46.6476003283
 20
38.4887174512
 30
0.0
  0
SPLINE
  5
47C
100
AcDbEntity
  8
0
100
AcDbSpline
 62
7
  6
BYLAYER
 70
0
 71
3
 72
10
 73
6
 74
0
 42
0.0000001
 43
0.0000001
 44
0.0000000001
 40
0.0
 40
0.0
 40
0.0
 40
0.0
 40
0.3137028486
 40
0.6493038172
 40
1.0
 40
1.0
 40
1.0
 40
1.0
 10
46.7400911667
 20
38.4891840461
 30
0.0
 10
46.7386863319
 20
38.5046857539
 30
0.0
 10
46.7364076966
 20
38.5368297393
 30
0.0
 10
46.7344649491
 20
38.5864167069
 30
0.0
 10
46.7342136465
 20
38.6204746662
 30
0.0
 10
46.7343257109
 20
38.6378750657
 30
0.0
  0
SPLINE
  5
47D
100
AcDbEntity
  8
0
100
AcDbSpline
 62
7
  6
BYLAYER
 70
0
 71
3
 72
11
 73
7
 74
0
 42
0.0000001
 43
0.0000001
 44
0.0000000001
 40
0.0
 40
0.0
 40
0.0
 40
0.0
 40
0.0099456851
 40
0.2027971539
 40
0.5503753474
 40
1.0
 40
1.0
 40
1.0
 40
1.0
 10
46.2208052268
 20
41.0378615033
 30
0.0
 10
46.2204024311
 20
41.0378405118
 30
0.0
 10
46.2364505497
 20
41.0337903915
 30
0.0
 10
46.245834846
 20
41.0401889897
 30
0.0
 10
46.2945398352
 20
41.0361112966
 30
0.0
 10
46.3241639587
 20
41.0376881976
 30
0.0
 10
46.3423974472
 20
41.0378605166
 30
0.0
  0
SPLINE
  5
47E
100
AcDbEntity
  8
0
100
AcDbSpline
 62
7
  6
BYLAYER
 70
0
 71
3
 72
29
 73
25
 74
0
 42
0.0000001
 43
0.0000001
 44
0.0000000001
 40
0.0
 40
0.0
 40
0.0
 40
0.0
 40
0.211080916
 40
0.4194270301
 40
0.518042389
 40
0.6105355047
 40
0.6950936204
 40
0.7699040941
 40
0.8856520299
 40
0.9265676976
 40
0.9563825333
 40
0.9671760551
 40
0.9752539712
 40
0.9782815823
 40
0.9806392788
 40
0.9823316224
 40
0.9833673649
 40
0.9837862
 40
0.9841893465
 40
0.9852015857
 40
0.9868605953
 40
0.9891706174
 40
0.9921315215
 40
1.0
 40
1.0
 40
1.0
 40
1.0
 10
46.3166389577
 20
38.4904929237
 30
0.0
 10
46.3077873066
 20
38.4904929346
 30
0.0
 10
46.2901986854
 20
38.490476205
 30
0.0
 10
46.26847471
 20
38.4904171081
 30
0.0
 10
46.2517237875
 20
38.4903445938
 30
0.0
 10
46.2401639195
 20
38.4902799145
 30
0.0
 10
46.2296024006
 20
38.4902047733
 30
0.0
 10
46.2180658784
 20
38.4900979166
 30
0.0
 10
46.2083599317
 20
38.4899741797
 30
0.0
 10
46.2005413285
 20
38.4898059145
 30
0.0
 10
46.1971246919
 20
38.4897052451
 30
0.0
 10
46.1950839772
 20
38.4896157211
 30
0.0
 10
46.1941686382
 20
38.4895644831
 30
0.0
 10
46.1936034821
 20
38.4895184092
 30
0.0
 10
46.1933125495
 20
38.4894918819
 30
0.0
 10
46.1930910247
 20
38.4894558449
 30
0.0
 10
46.1929801358
 20
38.4894421827
 30
0.0
 10
46.1928797226
 20
38.4893935355
 30
0.0
 10
46.1929760874
 20
38.4893427081
 30
0.0
 10
46.1930860595
 20
38.4893307846
 30
0.0
 10
46.1933021406
 20
38.4892946319
 30
0.0
 10
46.1935874112
 20
38.4892692765
 30
0.0
 10
46.1941388569
 20
38.4892246319
 30
0.0
 10
46.1945913553
 20
38.4892002998
 30
0.0
 10
46.194920903
 20
38.4891837379
 30
0.0
  0
SPLINE
  5
47F
100
AcDbEntity
  8
0
100
AcDbSpline
 62
7
  6
BYLAYER
 70
0
 71
3
 72
10
 73
6
 74
0
 42
0.0000001
 43
0.0000001
 44
0.0000000001
 40
0.0
 40
0.0
 40
0.0
 40
0.0
 40
0.3345979719
 40
0.6681313077
 40
1.0
 40
1.0
 40
1.0
 40
1.0
 10
46.75875313
 20
38.6378970755
 30
0.0
 10
46.7592114315
 20
38.6062724424
 30
0.0
 10
46.7693320046
 20
38.5427543547
 30
0.0
 10
46.8134693461
 20
38.4573947197
 30
0.0
 10
46.8594275273
 20
38.4127150138
 30
0.0
 10
46.8848881972
 20
38.3943893712
 30
0.0
  0
SPLINE
  5
480
100
AcDbEntity
  8
0
100
AcDbSpline
 62
7
  6
BYLAYER
 70
0
 71
3
 72
10
 73
6
 74
0
 42
0.0000001
 43
0.0000001
 44
0.0000000001
 40
0.0
 40
0.0
 40
0.0
 40
0.0
 40
0.3254369509
 40
0.6587290853
 40
1.0
 40
1.0
 40
1.0
 40
1.0
 10
46.8848881972
 20
38.3943893712
 30
0.0
 10
46.8659203046
 20
38.3839915074
 30
0.0
 10
46.8278515259
 20
38.3623378743
 30
0.0
 10
46.7713548779
 20
38.3273098008
 30
0.0
 10
46.7335070638
 20
38.3032704068
 30
0.0
 10
46.7144744589
 20
38.2909296361
 30
0.0
  0
SPLINE
  5
481
100
AcDbEntity
  8
0
100
AcDbSpline
 62
7
  6
BYLAYER
 70
0
 71
3
 72
14
 73
10
 74
0
 42
0.0000001
 43
0.0000001
 44
0.0000000001
 40
0.0
 40
0.0
 40
0.0
 40
0.0
 40
0.1369332635
 40
0.2682597176
 40
0.3993111388
 40
0.5578951115
 40
0.6870866434
 40
0.8353995921
 40
1.0
 40
1.0
 40
1.0
 40
1.0
 10
42.3494124466
 20
33.3878750657
 30
0.0
 10
42.6652534241
 20
33.4410447738
 30
0.0
 10
43.2775829652
 20
33.603297447
 30
0.0
 10
44.106220222
 20
34.0501060414
 30
0.0
 10
44.867048649
 20
34.6842988715
 30
0.0
 10
45.4763761552
 20
35.4626596401
 30
0.0
 10
45.9401878353
 20
36.3757223069
 30
0.0
 10
46.244647861
 20
37.3710604258
 30
0.0
 10
46.3088785833
 20
38.1051592459
 30
0.0
 10
46.3166382887
 20
38.4900792169
 30
0.0
  0
SPLINE
  5
482
100
AcDbEntity
  8
0
100
AcDbSpline
 62
7
  6
BYLAYER
 70
0
 71
3
 72
11
 73
7
 74
0
 42
0.0000001
 43
0.0000001
 44
0.0000000001
 40
0.0
 40
0.0
 40
0.0
 40
0.0
 40
0.4119821253
 40
0.7408701896
 40
0.945809141
 40
1.0
 40
1.0
 40
1.0
 40
1.0
 10
46.7144744132
 20
38.290929633
 30
0.0
 10
46.7710947146
 20
38.2911246998
 30
0.0
 10
46.8729168647
 20
38.2914578371
 30
0.0
 10
47.0028999774
 20
38.291359933
 30
0.0
 10
47.083720872
 20
38.2918031483
 30
0.0
 10
47.1193276398
 20
38.2911216461
 30
0.0
 10
47.1267733937
 20
38.2909293926
 30
0.0
  0
SPLINE
  5
483
100
AcDbEntity
  8
0
100
AcDbSpline
 62
7
  6
BYLAYER
 70
0
 71
3
 72
11
 73
7
 74
0
 42
0.0000001
 43
0.0000001
 44
0.0000000001
 40
0.0
 40
0.0
 40
0.0
 40
0.0
 40
0.0540865282
 40
0.2589985438
 40
0.5879328373
 40
1.0
 40
1.0
 40
1.0
 40
1.0
 10
47.0818104045
 20
33.3878743179
 30
0.0
 10
47.0743782788
 20
33.3877301401
 30
0.0
 10
47.0387873277
 20
33.3872183544
 30
0.0
 10
46.9579826352
 20
33.3875535535
 30
0.0
 10
46.8279859491
 20
33.3874697967
 30
0.0
 10
46.7261481483
 20
33.387749185
 30
0.0
 10
46.6695170411
 20
33.3878750502
 30
0.0
  0
LINE
  5
484
100
AcDbEntity
  8
0
100
AcDbLine
 62
7
  6
BYLAYER
 10
47.0818104045
 20
33.3878743179
 11
47.1267733937
 21
38.2909293926
  0
SPLINE
  5
485
100
AcDbEntity
  8
0
100
AcDbSpline
 62
7
  6
BYLAYER
 70
0
 71
3
 72
11
 73
7
 74
0
 42
0.0000001
 43
0.0000001
 44
0.0000000001
 40
0.0
 40
0.0
 40
0.0
 40
0.0
 40
0.2493348052
 40
0.4990858586
 40
0.7493568279
 40
1.0
 40
1.0
 40
1.0
 40
1.0
 10
46.9531599037
 20
38.4891840454
 30
0.0
 10
46.9274312586
 20
38.4891820112
 30
0.0
 10
46.8753704737
 20
38.4788706355
 30
0.0
 10
46.809494048
 20
38.434796652
 30
0.0
 10
46.7651655534
 20
38.3689457158
 30
0.0
 10
46.7544971888
 20
38.3167918965
 30
0.0
 10
46.7542727359
 20
38.290929216
 30
0.0
  0
SPLINE
  5
486
100
AcDbEntity
  8
0
100
AcDbSpline
 62
7
  6
BYLAYER
 70
0
 71
3
 72
12
 73
8
 74
0
 42
0.0000001
 43
0.0000001
 44
0.0000000001
 40
0.0
 40
0.0
 40
0.0
 40
0.0
 40
0.0745832018
 40
0.2323218311
 40
0.4558656279
 40
0.7212283896
 40
1.0
 40
1.0
 40
1.0
 40
1.0
 10
46.7542712981
 20
38.2909293562
 30
0.0
 10
46.7395204885
 20
38.2915188894
 30
0.0
 10
46.6935186373
 20
38.2913481201
 30
0.0
 10
46.6033008384
 20
38.291919601
 30
0.0
 10
46.4753011548
 20
38.2917218431
 30
0.0
 10
46.3233536765
 20
38.2914923707
 30
0.0
 10
46.2156505798
 20
38.2911634715
 30
0.0
 10
46.1604725694
 20
38.2909292984
 30
0.0
  0
SPLINE
  5
487
100
AcDbEntity
  8
0
100
AcDbSpline
 62
7
  6
BYLAYER
 70
0
 71
3
 72
12
 73
8
 74
0
 42
0.0000001
 43
0.0000001
 44
0.0000000001
 40
0.0
 40
0.0
 40
0.0
 40
0.0
 40
0.2803833463
 40
0.5458331779
 40
0.7687184048
 40
0.9257198972
 40
1.0
 40
1.0
 40
1.0
 40
1.0
 10
46.1334155948
 20
33.3878754405
 30
0.0
 10
46.1879166568
 20
33.3877292378
 30
0.0
 10
46.2940162669
 20
33.3874604878
 30
0.0
 10
46.4434397993
 20
33.3872928078
 30
0.0
 10
46.5688833563
 20
33.3871881031
 30
0.0
 10
46.6571599919
 20
33.3875109805
 30
0.0
 10
46.7021227881
 20
33.3875080334
 30
0.0
 10
46.7165567798
 20
33.3878750593
 30
0.0
  0
LINE
  5
488
100
AcDbEntity
  8
0
100
AcDbLine
 62
7
  6
BYLAYER
 10
45.7604205683
 20
38.2909294099
 11
45.7221999839
 21
33.3878752534
  0
SPLINE
  5
489
100
AcDbEntity
  8
0
100
AcDbSpline
 62
7
  6
BYLAYER
 70
0
 71
3
 72
11
 73
7
 74
0
 42
0.0000001
 43
0.0000001
 44
0.0000000001
 40
0.0
 40
0.0
 40
0.0
 40
0.0
 40
0.3680995307
 40
0.6818917922
 40
0.8981528549
 40
1.0
 40
1.0
 40
1.0
 40
1.0
 10
46.1604734132
 20
38.2909294099
 30
0.0
 10
46.1604306895
 20
38.3162825851
 30
0.0
 10
46.158959894
 20
38.3628025633
 30
0.0
 10
46.1506720281
 20
38.4259788784
 30
0.0
 10
46.1423659311
 20
38.4649226971
 30
0.0
 10
46.1288703762
 20
38.4891849245
 30
0.0
 10
46.1218555556
 20
38.489184046
 30
0.0
  0
SPLINE
  5
48A
100
AcDbEntity
  8
0
100
AcDbSpline
 62
7
  6
BYLAYER
 70
0
 71
3
 72
11
 73
7
 74
0
 42
0.0000001
 43
0.0000001
 44
0.0000000001
 40
0.0
 40
0.0
 40
0.0
 40
0.0
 40
0.0786840301
 40
0.2949986202
 40
0.6182018369
 40
1.0
 40
1.0
 40
1.0
 40
1.0
 10
45.7717546058
 20
38.489184046
 30
0.0
 10
45.7698847539
 20
38.4842480578
 30
0.0
 10
45.7646589096
 20
38.4653959936
 30
0.0
 10
45.7638042999
 20
38.423978843
 30
0.0
 10
45.7606485847
 20
38.3631164729
 30
0.0
 10
45.7604330976
 20
38.3162641706
 30
0.0
 10
45.7604205676
 20
38.2909294099
 30
0.0
  0
SPLINE
  5
48B
100
AcDbEntity
  8
0
100
AcDbSpline
 62
7
  6
BYLAYER
 70
0
 71
3
 72
11
 73
7
 74
0
 42
0.0000001
 43
0.0000001
 44
0.0000000001
 40
0.0
 40
0.0
 40
0.0
 40
0.0
 40
0.3706577436
 40
0.6861718835
 40
0.9023364158
 40
1.0
 40
1.0
 40
1.0
 40
1.0
 10
46.6695170868
 20
33.3878750657
 30
0.0
 10
46.6694882759
 20
33.3688630617
 30
0.0
 10
46.6684849946
 20
33.3340903868
 30
0.0
 10
46.6629529567
 20
33.286469763
 30
0.0
 10
46.6572950473
 20
33.2580616773
 30
0.0
 10
46.6484802781
 20
33.2391840461
 30
0.0
 10
46.6434708519
 20
33.2391840461
 30
0.0
  0
SPLINE
  5
48C
100
AcDbEntity
  8
0
100
AcDbSpline
 62
7
  6
BYLAYER
 70
0
 71
3
 72
11
 73
7
 74
0
 42
0.0000001
 43
0.0000001
 44
0.0000000001
 40
0.0
 40
0.0
 40
0.0
 40
0.0
 40
0.0976636718
 40
0.3138284308
 40
0.6293428704
 40
1.0
 40
1.0
 40
1.0
 40
1.0
 10
27.478464894
 20
33.2391840461
 30
0.0
 10
27.4834743246
 20
33.2391840461
 30
0.0
 10
27.4922890965
 20
33.2580617019
 30
0.0
 10
27.4979470077
 20
33.2864698127
 30
0.0
 10
27.5034790384
 20
33.3340904344
 30
0.0
 10
27.504482318
 20
33.3688630933
 30
0.0
 10
27.5045111289
 20
33.3878750658
 30
0.0
  0
SPLINE
  5
48D
100
AcDbEntity
  8
0
100
AcDbSpline
 62
7
  6
BYLAYER
 70
0
 71
3
 72
10
 73
6
 74
0
 42
0.0000001
 43
0.0000001
 44
0.0000000001
 40
0.0
 40
0.0
 40
0.0
 40
0.0
 40
0.2998712383
 40
0.668848611
 40
1.0
 40
1.0
 40
1.0
 40
1.0
 10
32.2464180553
 20
33.3878750658
 30
0.0
 10
32.3699504296
 20
33.376817458
 30
0.0
 10
32.6465155735
 20
33.3643897601
 30
0.0
 10
33.0601828403
 20
33.3628512223
 30
0.0
 10
33.3496510656
 20
33.3765129474
 30
0.0
 10
33.4861426696
 20
33.3878750657
 30
0.0
  0
SPLINE
  5
48E
100
AcDbEntity
  8
0
100
AcDbSpline
 62
7
  6
BYLAYER
 70
0
 71
3
 72
18
 73
14
 74
0
 42
0.0000001
 43
0.0000001
 44
0.0000000001
 40
0.0
 40
0.0
 40
0.0
 40
0.0
 40
0.0153942827
 40
0.0348384243
 40
0.0608197393
 40
0.0943159991
 40
0.1357117996
 40
0.1851583902
 40
0.3083173827
 40
0.4619507424
 40
0.6363707763
 40
0.8197152466
 40
1.0
 40
1.0
 40
1.0
 40
1.0
 10
42.3533661525
 20
33.5348790917
 30
0.0
 10
42.352591394
 20
33.5348799688
 30
0.0
 10
42.3508318557
 20
33.5342504299
 30
0.0
 10
42.3487563961
 20
33.5319151336
 30
0.0
 10
42.3469064027
 20
33.5283810223
 30
0.0
 10
42.3452709698
 20
33.5235589734
 30
0.0
 10
42.3438700708
 20
33.5174534479
 30
0.0
 10
42.3422529342
 20
33.5067973469
 30
0.0
 10
42.3412670846
 20
33.4903787141
 30
0.0
 10
42.3416012237
 20
33.4676628975
 30
0.0
 10
42.3431571409
 20
33.4419653729
 30
0.0
 10
42.345752109
 20
33.4150067528
 30
0.0
 10
42.3480888109
 20
33.3968517324
 30
0.0
 10
42.3494123993
 20
33.3878754737
 30
0.0
  0
SPLINE
  5
48F
100
AcDbEntity
  8
0
100
AcDbSpline
 62
7
  6
BYLAYER
 70
0
 71
3
 72
15
 73
11
 74
0
 42
0.0000001
 43
0.0000001
 44
0.0000000001
 40
0.0
 40
0.0
 40
0.0
 40
0.0
 40
0.0372753043
 40
0.0659814622
 40
0.1021654281
 40
0.1973626892
 40
0.3228303251
 40
0.4761136373
 40
0.6477260451
 40
1.0
 40
1.0
 40
1.0
 40
1.0
 10
41.1578274152
 20
33.5348840995
 30
0.0
 10
41.155868729
 20
33.5348862763
 30
0.0
 10
41.1527392025
 20
33.5325056759
 30
0.0
 10
41.1493835503
 20
33.5284681235
 30
0.0
 10
41.1447726948
 20
33.5213475921
 30
0.0
 10
41.1389968279
 20
33.5091415579
 30
0.0
 10
41.1322635807
 20
33.4906496617
 30
0.0
 10
41.1257661943
 20
33.4678831864
 30
0.0
 10
41.117499662
 20
33.4332681067
 30
0.0
 10
41.1124424164
 20
33.4061797514
 30
0.0
 10
41.1096879252
 20
33.3878750701
 30
0.0
  0
SPLINE
  5
490
100
AcDbEntity
  8
0
100
AcDbSpline
 62
7
  6
BYLAYER
 70
0
 71
3
 72
15
 73
11
 74
0
 42
0.0000001
 43
0.0000001
 44
0.0000000001
 40
0.0
 40
0.0
 40
0.0
 40
0.0
 40
0.1256179774
 40
0.2511163366
 40
0.3764059795
 40
0.5014575294
 40
0.6263544072
 40
0.7510429487
 40
0.8755882801
 40
1.0
 40
1.0
 40
1.0
 40
1.0
 10
37.5152334231
 20
36.4892868749
 30
0.0
 10
37.5880829589
 20
36.2941381148
 30
0.0
 10
37.7560234218
 20
35.9119202058
 30
0.0
 10
38.0726888294
 20
35.3724029362
 30
0.0
 10
38.452206721
 20
34.8760172747
 30
0.0
 10
38.8907709373
 20
34.4321578772
 30
0.0
 10
39.3836416594
 20
34.0509042189
 30
0.0
 10
39.9236083919
 20
33.7411684494
 30
0.0
 10
40.5018739834
 20
33.5129017486
 30
0.0
 10
40.9057308069
 20
33.4188905873
 30
0.0
 10
41.109642468
 20
33.3875726263
 30
0.0
  0
SPLINE
  5
491
100
AcDbEntity
  8
0
100
AcDbSpline
 62
7
  6
BYLAYER
 70
0
 71
3
 72
12
 73
8
 74
0
 42
0.0000001
 43
0.0000001
 44
0.0000000001
 40
0.0
 40
0.0
 40
0.0
 40
0.0
 40
0.1828571893
 40
0.3756778136
 40
0.5689343576
 40
0.7769709719
 40
1.0
 40
1.0
 40
1.0
 40
1.0
 10
33.4861426695
 20
33.3878750657
 30
0.0
 10
33.7861417484
 20
33.4321789999
 30
0.0
 10
34.3928472215
 20
33.5988149116
 30
0.0
 10
35.2348244158
 20
34.0400991062
 30
0.0
 10
35.9948927385
 20
34.6780471547
 30
0.0
 10
36.6415434445
 20
35.4964151382
 30
0.0
 10
36.9562586021
 20
36.1444679374
 30
0.0
 10
37.0903400376
 20
36.4891840723
 30
0.0
  0
SPLINE
  5
492
100
AcDbEntity
  8
0
100
AcDbSpline
 62
7
  6
BYLAYER
 70
0
 71
3
 72
18
 73
14
 74
0
 42
0.0000001
 43
0.0000001
 44
0.0000000001
 40
0.0
 40
0.0
 40
0.0
 40
0.0
 40
0.1804540312
 40
0.3639107431
 40
0.5383817563
 40
0.6920002708
 40
0.8150818097
 40
0.8644766623
 40
0.9058191889
 40
0.9392659567
 40
0.9652066411
 40
0.9846228955
 40
1.0
 40
1.0
 40
1.0
 40
1.0
 10
33.4861428054
 20
33.3878750764
 30
0.0
 10
33.4848179331
 20
33.3968598924
 30
0.0
 10
33.4824797879
 20
33.4150292984
 30
0.0
 10
33.4798847031
 20
33.442005128
 30
0.0
 10
33.4783302992
 20
33.4677106157
 30
0.0
 10
33.4779981978
 20
33.4904247096
 30
0.0
 10
33.4789857058
 20
33.5068362711
 30
0.0
 10
33.480604086
 20
33.5174830655
 30
0.0
 10
33.4820053416
 20
33.523580643
 30
0.0
 10
33.4836407727
 20
33.5283951457
 30
0.0
 10
33.4854902697
 20
33.5319229319
 30
0.0
 10
33.4875648889
 20
33.5342531794
 30
0.0
 10
33.4893222847
 20
33.5348808449
 30
0.0
 10
33.49009619
 20
33.534879971
 30
0.0
  0
SPLINE
  5
493
100
AcDbEntity
  8
0
100
AcDbSpline
 62
7
  6
BYLAYER
 70
0
 71
3
 72
10
 73
6
 74
0
 42
0.0000001
 43
0.0000001
 44
0.0000000001
 40
0.0
 40
0.0
 40
0.0
 40
0.0
 40
0.497351159
 40
0.8399100283
 40
1.0
 40
1.0
 40
1.0
 40
1.0
 10
29.0135516125
 20
38.4891840461
 30
0.0
 10
29.0162260087
 20
38.463229202
 30
0.0
 10
29.0233136039
 20
38.4182767962
 30
0.0
 10
29.0349709403
 20
38.3710135814
 30
0.0
 10
29.0520972116
 20
38.3433883655
 30
0.0
 10
29.0604918851
 20
38.3431278822
 30
0.0
  0
SPLINE
  5
494
100
AcDbEntity
  8
0
100
AcDbSpline
 62
7
  6
BYLAYER
 70
0
 71
3
 72
15
 73
11
 74
0
 42
0.0000001
 43
0.0000001
 44
0.0000000001
 40
0.0
 40
0.0
 40
0.0
 40
0.0
 40
0.12611684
 40
0.2520375266
 40
0.3775527328
 40
0.502648623
 40
0.6274759172
 40
0.7519633465
 40
0.8761240783
 40
1.0
 40
1.0
 40
1.0
 40
1.0
 10
36.9585897537
 20
36.4891901404
 30
0.0
 10
36.8859990735
 20
36.3023492541
 30
0.0
 10
36.7194566956
 20
35.9368911527
 30
0.0
 10
36.408721001
 20
35.4220156957
 30
0.0
 10
36.0399433757
 20
34.9488030483
 30
0.0
 10
35.6161995077
 20
34.5263337286
 30
0.0
 10
35.1416743202
 20
34.1643071502
 30
0.0
 10
34.6235860084
 20
33.87060579
 30
0.0
 10
34.0704094375
 20
33.6541158075
 30
0.0
 10
33.6847017894
 20
33.5647534399
 30
0.0
 10
33.49009619
 20
33.534879971
 30
0.0
  0
SPLINE
  5
495
100
AcDbEntity
  8
0
100
AcDbSpline
 62
7
  6
BYLAYER
 70
0
 71
3
 72
18
 73
14
 74
0
 42
0.0000001
 43
0.0000001
 44
0.0000000001
 40
0.0
 40
0.0
 40
0.0
 40
0.0
 40
0.0617763215
 40
0.1236101335
 40
0.185538093
 40
0.2475557986
 40
0.3096608169
 40
0.3719091613
 40
0.4967369077
 40
0.6220054337
 40
0.7477346787
 40
0.8737559316
 40
1.0
 40
1.0
 40
1.0
 40
1.0
 10
32.2945579175
 20
33.5348871142
 30
0.0
 10
32.1560603972
 20
33.5561574216
 30
0.0
 10
31.8810320856
 20
33.61380078
 30
0.0
 10
31.479765615
 20
33.7429771037
 30
0.0
 10
31.093210884
 20
33.9125458071
 30
0.0
 10
30.7250356806
 20
34.1201983197
 30
0.0
 10
30.3787125448
 20
34.3638204965
 30
0.0
 10
29.9489723628
 20
34.7319890107
 30
0.0
 10
29.4764877675
 20
35.2654865141
 30
0.0
 10
29.0288199414
 20
35.9955557542
 30
0.0
 10
28.7054056154
 20
36.7912425766
 30
0.0
 10
28.5108204374
 20
37.6296172269
 30
0.0
 10
28.4680045173
 20
38.2028368611
 30
0.0
 10
28.4684637463
 20
38.4891838708
 30
0.0
  0
SPLINE
  5
496
100
AcDbEntity
  8
0
100
AcDbSpline
 62
7
  6
BYLAYER
 70
0
 71
3
 72
11
 73
7
 74
0
 42
0.0000001
 43
0.0000001
 44
0.0000000001
 40
0.0
 40
0.0
 40
0.0
 40
0.0
 40
0.2410221275
 40
0.4903664295
 40
0.7431422206
 40
1.0
 40
1.0
 40
1.0
 40
1.0
 10
29.5195606336
 20
35.3876644094
 30
0.0
 10
29.3771182137
 20
35.6079916561
 30
0.0
 10
29.1221037447
 20
36.0796521547
 30
0.0
 10
28.8455931599
 20
36.8427692889
 30
0.0
 10
28.6760805909
 20
37.6540077404
 30
0.0
 10
28.6384829423
 20
38.2095843515
 30
0.0
 10
28.6388742554
 20
38.4891840461
 30
0.0
  0
SPLINE
  5
497
100
AcDbEntity
  8
0
100
AcDbSpline
 62
7
  6
BYLAYER
 70
0
 71
3
 72
11
 73
7
 74
0
 42
0.0000001
 43
0.0000001
 44
0.0000000001
 40
0.0
 40
0.0
 40
0.0
 40
0.0
 40
0.2527667631
 40
0.5032178066
 40
0.7535098598
 40
1.0
 40
1.0
 40
1.0
 40
1.0
 10
28.8362815914
 20
38.4891840461
 30
0.0
 10
28.8366731265
 20
38.2092977591
 30
0.0
 10
28.8819882424
 20
37.6511220938
 30
0.0
 10
29.0818737403
 20
36.8375279349
 30
0.0
 10
29.4067036307
 20
36.0727516123
 30
0.0
 10
29.7023454925
 20
35.6054494062
 30
0.0
 10
29.8668569889
 20
35.3876644094
 30
0.0
  0
SPLINE
  5
498
100
AcDbEntity
  8
0
100
AcDbSpline
 62
7
  6
BYLAYER
 70
0
 71
3
 72
9
 73
5
 74
0
 42
0.0000001
 43
0.0000001
 44
0.0000000001
 40
0.0
 40
0.0
 40
0.0
 40
0.0
 40
0.6587456598
 40
1.0
 40
1.0
 40
1.0
 40
1.0
 10
29.0240061375
 20
38.4891853096
 30
0.0
 10
29.015697897
 20
38.4892958747
 30
0.0
 10
29.0113831637
 20
38.4894727518
 30
0.0
 10
28.9818747718
 20
38.4894624452
 30
0.0
 10
28.986170195
 20
38.4891853199
 30
0.0
  0
SPLINE
  5
499
100
AcDbEntity
  8
0
100
AcDbSpline
 62
7
  6
BYLAYER
 70
0
 71
3
 72
11
 73
7
 74
0
 42
0.0000001
 43
0.0000001
 44
0.0000000001
 40
0.0
 40
0.0
 40
0.0
 40
0.0
 40
0.2570947347
 40
0.5111275409
 40
0.7596630002
 40
1.0
 40
1.0
 40
1.0
 40
1.0
 10
28.9862023878
 20
38.4891843808
 30
0.0
 10
28.9858334756
 20
38.2093274102
 30
0.0
 10
29.0235304001
 20
37.652124004
 30
0.0
 10
29.1935996084
 20
36.8402035598
 30
0.0
 10
29.4704821428
 20
36.0775185037
 30
0.0
 10
29.7248429462
 20
35.60737976
 30
0.0
 10
29.8668569889
 20
35.3876644094
 30
0.0
  0
SPLINE
  5
49A
100
AcDbEntity
  8
0
100
AcDbSpline
 62
7
  6
BYLAYER
 70
0
 71
3
 72
11
 73
7
 74
0
 42
0.0000001
 43
0.0000001
 44
0.0000000001
 40
0.0
 40
0.0
 40
0.0
 40
0.0
 40
0.2537257772
 40
0.5071598445
 40
0.756601684
 40
1.0
 40
1.0
 40
1.0
 40
1.0
 10
29.0240633827
 20
38.4887806661
 30
0.0
 10
29.0205425195
 20
38.2135171313
 30
0.0
 10
29.0512154757
 20
37.6620696379
 30
0.0
 10
29.2102642024
 20
36.8540726383
 30
0.0
 10
29.4778950777
 20
36.0870576196
 30
0.0
 10
29.7268943569
 20
35.6112090577
 30
0.0
 10
29.8668657074
 20
35.3872742355
 30
0.0
  0
SPLINE
  5
49B
100
AcDbEntity
  8
0
100
AcDbSpline
 62
7
  6
BYLAYER
 70
0
 71
3
 72
10
 73
6
 74
0
 42
0.0000001
 43
0.0000001
 44
0.0000000001
 40
0.0
 40
0.0
 40
0.0
 40
0.0
 40
0.3474356233
 40
0.6829240112
 40
1.0
 40
1.0
 40
1.0
 40
1.0
 10
29.0052303701
 20
38.6378750657
 30
0.0
 10
29.0054117971
 20
38.6206230504
 30
0.0
 10
29.0062480013
 20
38.5867144957
 30
0.0
 10
29.0090214377
 20
38.537126676
 30
0.0
 10
29.0118695992
 20
38.5048393165
 30
0.0
 10
29.0135516125
 20
38.4891840461
 30
0.0
  0
SPLINE
  5
49C
100
AcDbEntity
  8
0
100
AcDbSpline
 62
7
  6
BYLAYER
 70
0
 71
3
 72
10
 73
6
 74
0
 42
0.0000001
 43
0.0000001
 44
0.0000000001
 40
0.0
 40
0.0
 40
0.0
 40
0.0
 40
0.485051866
 40
0.8369137856
 40
1.0
 40
1.0
 40
1.0
 40
1.0
 10
28.9235221832
 20
40.9462087374
 30
0.0
 10
28.9062648491
 20
40.9625248767
 30
0.0
 10
28.8760769642
 20
40.9911074948
 30
0.0
 10
28.8383377083
 20
41.0198527488
 30
0.0
 10
28.8173781928
 20
41.0372546445
 30
0.0
 10
28.8094163277
 20
41.0378634916
 30
0.0
  0
SPLINE
  5
49D
100
AcDbEntity
  8
0
100
AcDbSpline
 62
7
  6
BYLAYER
 70
0
 71
3
 72
10
 73
6
 74
0
 42
0.0000001
 43
0.0000001
 44
0.0000000001
 40
0.0
 40
0.0
 40
0.0
 40
0.0
 40
0.1004510096
 40
0.4468519556
 40
1.0
 40
1.0
 40
1.0
 40
1.0
 10
28.6219313613
 20
41.0378634916
 30
0.0
 10
28.6181077719
 20
41.0374365118
 30
0.0
 10
28.6299815408
 20
41.0108245851
 30
0.0
 10
28.6497699239
 20
40.9924584786
 30
0.0
 10
28.6740782124
 20
40.9618661463
 30
0.0
 10
28.6883502137
 20
40.9462086381
 30
0.0
  0
SPLINE
  5
49E
100
AcDbEntity
  8
0
100
AcDbSpline
 62
7
  6
BYLAYER
 70
0
 71
3
 72
10
 73
6
 74
0
 42
0.0000001
 43
0.0000001
 44
0.0000000001
 40
0.0
 40
0.0
 40
0.0
 40
0.0
 40
0.4850549746
 40
0.8369167117
 40
1.0
 40
1.0
 40
1.0
 40
1.0
 10
28.5762258279
 20
40.9462087373
 30
0.0
 10
28.558968378
 20
40.9625249752
 30
0.0
 10
28.5287803917
 20
40.991107793
 30
0.0
 10
28.4910410894
 20
41.019852723
 30
0.0
 10
28.470081709
 20
41.0372548455
 30
0.0
 10
28.4621199723
 20
41.0378634916
 30
0.0
  0
LINE
  5
49F
100
AcDbEntity
  8
0
100
AcDbLine
 62
7
  6
BYLAYER
 10
28.4504578734
 20
41.0378624914
 11
28.3015881108
 21
41.1891840461
  0
LINE
  5
4A0
100
AcDbEntity
  8
0
100
AcDbLine
 62
7
  6
BYLAYER
 10
28.8317162598
 20
41.1891840461
 11
28.9808917774
 21
41.0378624916
  0
SPLINE
  5
4A1
100
AcDbEntity
  8
0
100
AcDbSpline
 62
7
  6
BYLAYER
 70
0
 71
3
 72
10
 73
6
 74
0
 42
0.0000001
 43
0.0000001
 44
0.0000000001
 40
0.0
 40
0.0
 40
0.0
 40
0.0
 40
0.1004622534
 40
0.446861701
 40
1.0
 40
1.0
 40
1.0
 40
1.0
 10
28.9692276715
 20
41.0378635207
 30
0.0
 10
28.9653798969
 20
41.0378635206
 30
0.0
 10
28.9773183159
 20
41.0101138338
 30
0.0
 10
28.9970465834
 20
40.9929357296
 30
0.0
 10
29.0213525833
 20
40.961845876
 30
0.0
 10
29.0356463661
 20
40.9462088451
 30
0.0
  0
SPLINE
  5
4A2
100
AcDbEntity
  8
0
100
AcDbSpline
 62
7
  6
BYLAYER
 70
0
 71
3
 72
11
 73
7
 74
0
 42
0.0000001
 43
0.0000001
 44
0.0000000001
 40
0.0
 40
0.0
 40
0.0
 40
0.0
 40
0.2492000944
 40
0.4990712184
 40
0.7494429607
 40
1.0
 40
1.0
 40
1.0
 40
1.0
 10
29.8668655495
 20
35.3872813005
 30
0.0
 10
29.7067121156
 20
35.6098840179
 30
0.0
 10
29.4208871864
 20
36.0821227211
 30
0.0
 10
29.1124448114
 20
36.8507201254
 30
0.0
 10
28.9300317966
 20
37.6600665743
 30
0.0
 10
28.8965367228
 20
38.2130387906
 30
0.0
 10
28.9013914603
 20
38.4887174509
 30
0.0
  0
SPLINE
  5
4A3
100
AcDbEntity
  8
0
100
AcDbSpline
 62
7
  6
BYLAYER
 70
0
 71
3
 72
11
 73
7
 74
0
 42
0.0000001
 43
0.0000001
 44
0.0000000001
 40
0.0
 40
0.0
 40
0.0
 40
0.0
 40
0.2540521615
 40
0.5065740611
 40
0.7557117364
 40
1.0
 40
1.0
 40
1.0
 40
1.0
 10
28.6767653623
 20
38.4887175279
 30
0.0
 10
28.6734184248
 20
38.2131026478
 30
0.0
 10
28.7038247487
 20
37.6622952347
 30
0.0
 10
28.862775387
 20
36.8552931735
 30
0.0
 10
29.1298324688
 20
36.0884632424
 30
0.0
 10
29.3792533916
 20
35.6121262799
 30
0.0
 10
29.5195693594
 20
35.3872739057
 30
0.0
  0
SPLINE
  5
4A4
100
AcDbEntity
  8
0
100
AcDbSpline
 62
7
  6
BYLAYER
 70
0
 71
3
 72
11
 73
7
 74
0
 42
0.0000001
 43
0.0000001
 44
0.0000000001
 40
0.0
 40
0.0
 40
0.0
 40
0.0
 40
0.2458053557
 40
0.4953024265
 40
0.7470065662
 40
1.0
 40
1.0
 40
1.0
 40
1.0
 10
29.5195606336
 20
35.3876644094
 30
0.0
 10
29.3555291997
 20
35.6048608565
 30
0.0
 10
29.060645458
 20
36.0706704051
 30
0.0
 10
28.7353986811
 20
36.8349689461
 30
0.0
 10
28.5348949168
 20
37.649232296
 30
0.0
 10
28.4893710168
 20
38.2090465859
 30
0.0
 10
28.489006112
 20
38.4891831571
 30
0.0
  0
SPLINE
  5
4A5
100
AcDbEntity
  8
0
100
AcDbSpline
 62
7
  6
BYLAYER
 70
0
 71
3
 72
13
 73
9
 74
0
 42
0.0000001
 43
0.0000001
 44
0.0000000001
 40
0.0
 40
0.0
 40
0.0
 40
0.0
 40
0.0342312682
 40
0.1487311231
 40
0.3053753802
 40
0.5040323806
 40
0.7566218251
 40
1.0
 40
1.0
 40
1.0
 40
1.0
 10
28.489006112
 20
38.4891831571
 30
0.0
 10
28.4897495002
 20
38.4892167268
 30
0.0
 10
28.4929825423
 20
38.4892839998
 30
0.0
 10
28.4996211355
 20
38.4892833014
 30
0.0
 10
28.509833792
 20
38.4892040396
 30
0.0
 10
28.5230474519
 20
38.4890269601
 30
0.0
 10
28.5381455552
 20
38.4887685595
 30
0.0
 10
28.5489251125
 20
38.48855152
 30
0.0
 10
28.5542146602
 20
38.4884390585
 30
0.0
  0
SPLINE
  5
4A6
100
AcDbEntity
  8
0
100
AcDbSpline
 62
7
  6
BYLAYER
 70
0
 71
3
 72
11
 73
7
 74
0
 42
0.0000001
 43
0.0000001
 44
0.0000000001
 40
0.0
 40
0.0
 40
0.0
 40
0.0
 40
0.3367471496
 40
0.6447317715
 40
0.877532328
 40
1.0
 40
1.0
 40
1.0
 40
1.0
 10
28.2766187021
 20
41.0378605174
 30
0.0
 10
28.2961315786
 20
41.0376764339
 30
0.0
 10
28.3334907141
 20
41.0374554064
 30
0.0
 10
28.3843454131
 20
41.0372105489
 30
0.0
 10
28.422770555
 20
41.0374683179
 30
0.0
 10
28.4433698259
 20
41.0374795739
 30
0.0
 10
28.4504562691
 20
41.0378615029
 30
0.0
  0
SPLINE
  5
4A7
100
AcDbEntity
  8
0
100
AcDbSpline
 62
7
  6
BYLAYER
 70
0
 71
3
 72
11
 73
7
 74
0
 42
0.0000001
 43
0.0000001
 44
0.0000000001
 40
0.0
 40
0.0
 40
0.0
 40
0.0
 40
0.3376773322
 40
0.6450489132
 40
0.8774265769
 40
1.0
 40
1.0
 40
1.0
 40
1.0
 10
28.2946604837
 20
38.4891839605
 30
0.0
 10
28.3142189284
 20
38.489357262
 30
0.0
 10
28.3515803873
 20
38.4896000095
 30
0.0
 10
28.4024063875
 20
38.4898040703
 30
0.0
 10
28.4407628306
 20
38.4895970345
 30
0.0
 10
28.4613323989
 20
38.4895401782
 30
0.0
 10
28.4684232489
 20
38.4891839107
 30
0.0
  0
SPLINE
  5
4A8
100
AcDbEntity
  8
0
100
AcDbSpline
 62
7
  6
BYLAYER
 70
0
 71
3
 72
15
 73
11
 74
0
 42
0.0000001
 43
0.0000001
 44
0.0000000001
 40
0.0
 40
0.0
 40
0.0
 40
0.0
 40
0.0372451598
 40
0.0659252363
 40
0.1020786339
 40
0.1972130731
 40
0.3226362656
 40
0.4759135623
 40
0.6475590284
 40
1.0
 40
1.0
 40
1.0
 40
1.0
 10
32.2945579175
 20
33.5348871142
 30
0.0
 10
32.2926007722
 20
33.5348892809
 30
0.0
 10
32.2894731564
 20
33.5325123442
 30
0.0
 10
32.2861190047
 20
33.5284789123
 30
0.0
 10
32.2815099175
 20
33.5213646383
 30
0.0
 10
32.2757354097
 20
33.5091655119
 30
0.0
 10
32.269002815
 20
33.4906792805
 30
0.0
 10
32.2625044799
 20
33.4679134669
 30
0.0
 10
32.2542339635
 20
33.4332880536
 30
0.0
 10
32.2491741074
 20
33.4061888227
 30
0.0
 10
32.2464183551
 20
33.3878750436
 30
0.0
  0
SPLINE
  5
4A9
100
AcDbEntity
  8
0
100
AcDbSpline
 62
7
  6
BYLAYER
 70
0
 71
3
 72
14
 73
10
 74
0
 42
0.0000001
 43
0.0000001
 44
0.0000000001
 40
0.0
 40
0.0
 40
0.0
 40
0.0
 40
0.1610870641
 40
0.3122279612
 40
0.4476459668
 40
0.609624924
 40
0.7432143826
 40
0.8723818616
 40
1.0
 40
1.0
 40
1.0
 40
1.0
 10
28.2946554048
 20
38.4896429597
 30
0.0
 10
28.2985297699
 20
38.1132900002
 30
0.0
 10
28.3624875124
 20
37.381579205
 30
0.0
 10
28.6636110613
 20
36.3729296246
 30
0.0
 10
29.1409842542
 20
35.4344346814
 30
0.0
 10
29.7742486598
 20
34.6394266853
 30
0.0
 10
30.5502033076
 20
34.0102660156
 30
0.0
 10
31.3667148087
 20
33.5893127755
 30
0.0
 10
31.9518058931
 20
33.4338265286
 30
0.0
 10
32.2464180551
 20
33.3878750658
 30
0.0
  0
SPLINE
  5
4AA
100
AcDbEntity
  8
0
100
AcDbSpline
 62
7
  6
BYLAYER
 70
0
 71
3
 72
11
 73
7
 74
0
 42
0.0000001
 43
0.0000001
 44
0.0000000001
 40
0.0
 40
0.0
 40
0.0
 40
0.0
 40
0.2674784627
 40
0.5360107348
 40
0.7703856137
 40
1.0
 40
1.0
 40
1.0
 40
1.0
 10
27.5540605448
 20
38.2909293532
 30
0.0
 10
27.5952904334
 20
38.3041800322
 30
0.0
 10
27.6743865602
 20
38.3414649391
 30
0.0
 10
27.7752480956
 20
38.4182019205
 30
0.0
 10
27.8381084449
 20
38.5219908041
 30
0.0
 10
27.8522755601
 20
38.5975333092
 30
0.0
 10
27.8529561418
 20
38.634703449
 30
0.0
  0
SPLINE
  5
4AB
100
AcDbEntity
  8
0
100
AcDbSpline
 62
7
  6
BYLAYER
 70
0
 71
3
 72
11
 73
7
 74
0
 42
0.0000001
 43
0.0000001
 44
0.0000000001
 40
0.0
 40
0.0
 40
0.0
 40
0.0
 40
0.097664364
 40
0.3138287056
 40
0.6293425707
 40
1.0
 40
1.0
 40
1.0
 40
1.0
 10
27.5466698222
 20
38.4891840461
 30
0.0
 10
27.5399905289
 20
38.4891843437
 30
0.0
 10
27.5282371523
 20
38.4640137597
 30
0.0
 10
27.520693495
 20
38.4261365185
 30
0.0
 10
27.5133173329
 20
38.3626422381
 30
0.0
 10
27.5119796553
 20
38.3162787101
 30
0.0
 10
27.5119412404
 20
38.2909293734
 30
0.0
  0
SPLINE
  5
4AC
100
AcDbEntity
  8
0
100
AcDbSpline
 62
7
  6
BYLAYER
 70
0
 71
3
 72
10
 73
6
 74
0
 42
0.0000001
 43
0.0000001
 44
0.0000000001
 40
0.0
 40
0.0
 40
0.0
 40
0.0
 40
0.3370085164
 40
0.671407884
 40
1.0
 40
1.0
 40
1.0
 40
1.0
 10
18.3278269848
 20
36.437438739
 30
0.0
 10
18.3093099933
 20
36.4374863428
 30
0.0
 10
18.2724153654
 20
36.4368768725
 30
0.0
 10
18.2175290408
 20
36.4340444682
 30
0.0
 10
18.1812613769
 20
36.4304551599
 30
0.0
 10
18.1633397523
 20
36.4282678479
 30
0.0
  0
SPLINE
  5
4AD
100
AcDbEntity
  8
0
100
AcDbSpline
 62
7
  6
BYLAYER
 70
0
 71
3
 72
10
 73
6
 74
0
 42
0.0000001
 43
0.0000001
 44
0.0000000001
 40
0.0
 40
0.0
 40
0.0
 40
0.0
 40
0.3228157131
 40
0.6523084549
 40
1.0
 40
1.0
 40
1.0
 40
1.0
 10
17.721187268
 20
36.2618161566
 30
0.0
 10
17.6625079539
 20
36.2173361422
 30
0.0
 10
17.5502704215
 20
36.1182252916
 30
0.0
 10
17.4089368752
 20
35.9384234729
 30
0.0
 10
17.3216234961
 20
35.8109160759
 30
0.0
 10
17.2797814474
 20
35.7435457771
 30
0.0
  0
SPLINE
  5
4AE
100
AcDbEntity
  8
0
100
AcDbSpline
 62
7
  6
BYLAYER
 70
0
 71
3
 72
10
 73
6
 74
0
 42
0.0000001
 43
0.0000001
 44
0.0000000001
 40
0.0
 40
0.0
 40
0.0
 40
0.0
 40
0.3844694835
 40
0.7296445475
 40
1.0
 40
1.0
 40
1.0
 40
1.0
 10
17.2797819238
 20
35.7435487499
 30
0.0
 10
17.3325617161
 20
35.7438003286
 30
0.0
 10
17.4327278802
 20
35.7441131416
 30
0.0
 10
17.570008954
 20
35.7441407453
 30
0.0
 10
17.6545098747
 20
35.7438522568
 30
0.0
 10
17.691623285
 20
35.7435437248
 30
0.0
  0
LINE
  5
4AF
100
AcDbEntity
  8
0
100
AcDbLine
 62
7
  6
BYLAYER
 10
17.6792972406
 20
33.3878782707
 11
17.691623285
 21
35.7435437248
  0
SPLINE
  5
4B0
100
AcDbEntity
  8
0
100
AcDbSpline
 62
7
  6
BYLAYER
 70
0
 71
3
 72
10
 73
6
 74
0
 42
0.0000001
 43
0.0000001
 44
0.0000000001
 40
0.0
 40
0.0
 40
0.0
 40
0.0
 40
0.327368549
 40
0.6617226931
 40
1.0
 40
1.0
 40
1.0
 40
1.0
 10
18.187687449
 20
36.2326334035
 30
0.0
 10
18.2029137148
 20
36.2342866922
 30
0.0
 10
18.2337787105
 20
36.23684907
 30
0.0
 10
18.2805295675
 20
36.2388401372
 30
0.0
 10
18.3120008636
 20
36.2391840461
 30
0.0
 10
18.3278269849
 20
36.2391840461
 30
0.0
  0
SPLINE
  5
4B1
100
AcDbEntity
  8
0
100
AcDbSpline
 62
7
  6
BYLAYER
 70
0
 71
3
 72
11
 73
7
 74
0
 42
0.0000001
 43
0.0000001
 44
0.0000000001
 40
0.0
 40
0.0
 40
0.0
 40
0.0
 40
0.277138261
 40
0.5402726019
 40
0.7808280134
 40
1.0
 40
1.0
 40
1.0
 40
1.0
 10
17.8712994159
 20
35.7435474784
 30
0.0
 10
17.8716788264
 20
35.8011644136
 30
0.0
 10
17.8870278157
 20
35.9140026689
 30
0.0
 10
17.9524672872
 20
36.06499885
 30
0.0
 10
18.0539511905
 20
36.1798420686
 30
0.0
 10
18.143153983
 20
36.22298458
 30
0.0
 10
18.187687449
 20
36.2326334035
 30
0.0
  0
SPLINE
  5
4B2
100
AcDbEntity
  8
0
100
AcDbSpline
 62
7
  6
BYLAYER
 70
0
 71
3
 72
14
 73
10
 74
0
 42
0.0000001
 43
0.0000001
 44
0.0000000001
 40
0.0
 40
0.0
 40
0.0
 40
0.0
 40
0.2627969722
 40
0.519431193
 40
0.6447242246
 40
0.7670460091
 40
0.8270165792
 40
0.8860253862
 40
1.0
 40
1.0
 40
1.0
 40
1.0
 10
22.2397948627
 20
36.2391842095
 30
0.0
 10
22.3897337466
 20
36.2391859318
 30
0.0
 10
22.6860917648
 20
36.2365868579
 30
0.0
 10
23.0537258602
 20
36.2146620958
 30
0.0
 10
23.338792512
 20
36.1742622017
 30
0.0
 10
23.5100301514
 20
36.1343062173
 30
0.0
 10
23.640656351
 20
36.0901602754
 30
0.0
 10
23.7622747584
 20
36.0368946368
 30
0.0
 10
23.8469476526
 20
35.9817796171
 30
0.0
 10
23.8923631348
 20
35.9352381639
 30
0.0
  0
SPLINE
  5
4B3
100
AcDbEntity
  8
0
100
AcDbSpline
 62
7
  6
BYLAYER
 70
0
 71
3
 72
18
 73
14
 74
0
 42
0.0000001
 43
0.0000001
 44
0.0000000001
 40
0.0
 40
0.0
 40
0.0
 40
0.0
 40
0.0175886147
 40
0.0389077565
 40
0.0662359853
 40
0.1010830674
 40
0.1443516541
 40
0.1960040267
 40
0.3228802581
 40
0.4769875032
 40
0.6483711488
 40
0.8259740796
 40
1.0
 40
1.0
 40
1.0
 40
1.0
 10
22.2397949919
 20
36.2391842095
 30
0.0
 10
22.2410156544
 20
36.2391842116
 30
0.0
 10
22.2437305751
 20
36.2398685492
 30
0.0
 10
22.2474812346
 20
36.2426484791
 30
0.0
 10
22.2511695595
 20
36.2471652494
 30
0.0
 10
22.2548059046
 20
36.2535419763
 30
0.0
 10
22.2583514243
 20
36.2618347501
 30
0.0
 10
22.2632743405
 20
36.2764308739
 30
0.0
 10
22.2686090109
 20
36.2989359869
 30
0.0
 10
22.273493267
 20
36.3299642769
 30
0.0
 10
22.2770858116
 20
36.3647091336
 30
0.0
 10
22.2791673702
 20
36.4009566455
 30
0.0
 10
22.2796538424
 20
36.425361233
 30
0.0
 10
22.2796748631
 20
36.4374387385
 30
0.0
  0
SPLINE
  5
4B4
100
AcDbEntity
  8
0
100
AcDbSpline
 62
7
  6
BYLAYER
 70
0
 71
3
 72
9
 73
5
 74
0
 42
0.0000001
 43
0.0000001
 44
0.0000000001
 40
0.0
 40
0.0
 40
0.0
 40
0.0
 40
0.5107538726
 40
1.0
 40
1.0
 40
1.0
 40
1.0
 10
23.9948877066
 20
36.0119124807
 30
0.0
 10
23.9790408594
 20
35.9969019964
 30
0.0
 10
23.9459286941
 20
35.9697074668
 30
0.0
 10
23.9103745039
 20
35.9458599081
 30
0.0
 10
23.8923646628
 20
35.935239065
 30
0.0
  0
SPLINE
  5
4B5
100
AcDbEntity
  8
0
100
AcDbSpline
 62
7
  6
BYLAYER
 70
0
 71
3
 72
10
 73
6
 74
0
 42
0.0000001
 43
0.0000001
 44
0.0000000001
 40
0.0
 40
0.0
 40
0.0
 40
0.0
 40
0.351392009
 40
0.6828599972
 40
1.0
 40
1.0
 40
1.0
 40
1.0
 10
24.1642452866
 20
35.7435473431
 30
0.0
 10
24.1457081259
 20
35.7757812672
 30
0.0
 10
24.1089086856
 20
35.8379731899
 30
0.0
 10
24.0532580511
 20
35.9279993558
 30
0.0
 10
24.0144541929
 20
35.9846506292
 30
0.0
 10
23.9948853624
 20
36.0119141876
 30
0.0
  0
SPLINE
  5
4B6
100
AcDbEntity
  8
0
100
AcDbSpline
 62
7
  6
BYLAYER
 70
0
 71
3
 72
18
 73
14
 74
0
 42
0.0000001
 43
0.0000001
 44
0.0000000001
 40
0.0
 40
0.0
 40
0.0
 40
0.0
 40
0.0502171396
 40
0.1050631101
 40
0.1657474351
 40
0.2334827342
 40
0.3092414157
 40
0.3940688529
 40
0.4892088128
 40
0.5959014888
 40
0.7155620237
 40
0.8497880269
 40
1.0
 40
1.0
 40
1.0
 40
1.0
 10
23.9948853624
 20
36.0119141876
 30
0.0
 10
23.9769957269
 20
36.0366284703
 30
0.0
 10
23.9351924568
 20
36.085270598
 30
0.0
 10
23.8586759373
 20
36.1512240197
 30
0.0
 10
23.7650932132
 20
36.212114579
 30
0.0
 10
23.653546832
 20
36.2669747217
 30
0.0
 10
23.5231504902
 20
36.3149311902
 30
0.0
 10
23.3729354841
 20
36.3552950718
 30
0.0
 10
23.2016591727
 20
36.3876193132
 30
0.0
 10
23.0077234313
 20
36.4117203646
 30
0.0
 10
22.7891659031
 20
36.4277256919
 30
0.0
 10
22.5437572028
 20
36.4361710625
 30
0.0
 10
22.3709364736
 20
36.4374403927
 30
0.0
 10
22.2796747027
 20
36.4374387402
 30
0.0
  0
LINE
  5
4B7
100
AcDbEntity
  8
0
100
AcDbLine
 62
7
  6
BYLAYER
 10
24.1642453378
 20
35.7435473359
 11
24.1586743969
 21
33.3878750664
  0
LINE
  5
4B8
100
AcDbEntity
  8
0
100
AcDbLine
 62
7
  6
BYLAYER
 10
24.1586743969
 20
33.3878750664
 11
23.8862826717
 21
33.3878750624
  0
SPLINE
  5
4B9
100
AcDbEntity
  8
0
100
AcDbSpline
 62
7
  6
BYLAYER
 70
0
 71
3
 72
11
 73
7
 74
0
 42
0.0000001
 43
0.0000001
 44
0.0000000001
 40
0.0
 40
0.0
 40
0.0
 40
0.0
 40
0.0761847471
 40
0.2929516554
 40
0.6173476573
 40
1.0
 40
1.0
 40
1.0
 40
1.0
 10
16.6360276157
 20
38.2909293532
 30
0.0
 10
16.6411021846
 20
38.2911740545
 30
0.0
 10
16.660621267
 20
38.2918340438
 30
0.0
 10
16.7017883606
 20
38.291573533
 30
0.0
 10
16.763372417
 20
38.2915373416
 30
0.0
 10
16.8105102634
 20
38.2911519563
 30
0.0
 10
16.8360200003
 20
38.2909293532
 30
0.0
  0
SPLINE
  5
4BA
100
AcDbEntity
  8
0
100
AcDbSpline
 62
7
  6
BYLAYER
 70
0
 71
3
 72
11
 73
7
 74
0
 42
0.0000001
 43
0.0000001
 44
0.0000000001
 40
0.0
 40
0.0
 40
0.0
 40
0.0
 40
0.0107736229
 40
0.2035059754
 40
0.5503576076
 40
1.0
 40
1.0
 40
1.0
 40
1.0
 10
27.7555827448
 20
41.0378575428
 30
0.0
 10
27.7551461866
 20
41.0378344079
 30
0.0
 10
27.771406615
 20
41.0341222024
 30
0.0
 10
27.7806379274
 20
41.0399037739
 30
0.0
 10
27.8294259493
 20
41.0362406067
 30
0.0
 10
27.8590069787
 20
41.0376883336
 30
0.0
 10
27.8772516986
 20
41.0378605142
 30
0.0
  0
SPLINE
  5
4BB
100
AcDbEntity
  8
0
100
AcDbSpline
 62
7
  6
BYLAYER
 70
0
 71
3
 72
11
 73
7
 74
0
 42
0.0000001
 43
0.0000001
 44
0.0000000001
 40
0.0
 40
0.0
 40
0.0
 40
0.0
 40
0.4480629525
 40
0.795337841
 40
0.9889762871
 40
1.0
 40
1.0
 40
1.0
 40
1.0
 10
27.8529565205
 20
38.6347033579
 30
0.0
 10
27.8347759682
 20
38.6348644543
 30
0.0
 10
27.8052353307
 20
38.636302428
 30
0.0
 10
27.7564444818
 20
38.6326834715
 30
0.0
 10
27.747224255
 20
38.6383978896
 30
0.0
 10
27.7308408464
 20
38.6347258144
 30
0.0
 10
27.7312875967
 20
38.6347033545
 30
0.0
  0
SPLINE
  5
4BC
100
AcDbEntity
  8
0
100
AcDbSpline
 62
7
  6
BYLAYER
 70
0
 71
3
 72
11
 73
7
 74
0
 42
0.0000001
 43
0.0000001
 44
0.0000000001
 40
0.0
 40
0.0
 40
0.0
 40
0.0
 40
0.0099454007
 40
0.2027963662
 40
0.5503751192
 40
1.0
 40
1.0
 40
1.0
 40
1.0
 10
28.980890174
 20
41.0378615033
 30
0.0
 10
28.981292958
 20
41.0378405123
 30
0.0
 10
28.965244944
 20
41.033790338
 30
0.0
 10
28.9558606144
 20
41.0401890298
 30
0.0
 10
28.907155643
 20
41.036111752
 30
0.0
 10
28.8775314866
 20
41.0376865888
 30
0.0
 10
28.8592979838
 20
41.0378575412
 30
0.0
  0
SPLINE
  5
4BD
100
AcDbEntity
  8
0
100
AcDbSpline
 62
7
  6
BYLAYER
 70
0
 71
3
 72
11
 73
7
 74
0
 42
0.0000001
 43
0.0000001
 44
0.0000000001
 40
0.0
 40
0.0
 40
0.0
 40
0.0
 40
0.4480627484
 40
0.7953394833
 40
0.9889775485
 40
1.0
 40
1.0
 40
1.0
 40
1.0
 10
28.8835610669
 20
38.6378750555
 30
0.0
 10
28.9017416685
 20
38.6380361527
 30
0.0
 10
28.9312824898
 20
38.6394742745
 30
0.0
 10
28.9800734931
 20
38.6358548449
 30
0.0
 10
28.9892939049
 20
38.6415699536
 30
0.0
 10
29.0056770708
 20
38.6378975129
 30
0.0
 10
29.0052303702
 20
38.6378750555
 30
0.0
  0
SPLINE
  5
4BE
100
AcDbEntity
  8
0
100
AcDbSpline
 62
7
  6
BYLAYER
 70
0
 71
3
 72
12
 73
8
 74
0
 42
0.0000001
 43
0.0000001
 44
0.0000000001
 40
0.0
 40
0.0
 40
0.0
 40
0.0
 40
0.0701223848
 40
0.2147095586
 40
0.4311362606
 40
0.7011773752
 40
1.0
 40
1.0
 40
1.0
 40
1.0
 10
27.5819834154
 20
32.2391840461
 30
0.0
 10
27.5939922816
 20
32.2391840461
 30
0.0
 10
27.6192047152
 20
32.2769802014
 30
0.0
 10
27.636109442
 20
32.3437436903
 30
0.0
 10
27.6551774164
 20
32.4527242715
 30
0.0
 10
27.6658566269
 20
32.5859932289
 30
0.0
 10
27.6687266473
 20
32.6836457248
 30
0.0
 10
27.6688041982
 20
32.7348207783
 30
0.0
  0
SPLINE
  5
4BF
100
AcDbEntity
  8
0
100
AcDbSpline
 62
7
  6
BYLAYER
 70
0
 71
3
 72
12
 73
8
 74
0
 42
0.0000001
 43
0.0000001
 44
0.0000000001
 40
0.0
 40
0.0
 40
0.0
 40
0.0
 40
0.2020979985
 40
0.4033892323
 40
0.6033885639
 40
0.8020949272
 40
1.0
 40
1.0
 40
1.0
 40
1.0
 10
24.4104064997
 20
32.7348207783
 30
0.0
 10
24.4099641097
 20
32.6829953962
 30
0.0
 10
24.3931117296
 20
32.5789917324
 30
0.0
 10
24.3222775425
 20
32.4387733791
 30
0.0
 10
24.2125260344
 20
32.3272977805
 30
0.0
 10
24.0745474083
 20
32.2556682528
 30
0.0
 10
23.9721033321
 20
32.2391840461
 30
0.0
 10
23.9213513218
 20
32.2391840461
 30
0.0
  0
SPLINE
  5
4C0
100
AcDbEntity
  8
0
100
AcDbSpline
 62
7
  6
BYLAYER
 70
0
 71
3
 72
10
 73
6
 74
0
 42
0.0000001
 43
0.0000001
 44
0.0000000001
 40
0.0
 40
0.0
 40
0.0
 40
0.0
 40
0.3951265394
 40
0.732840365
 40
1.0
 40
1.0
 40
1.0
 40
1.0
 10
24.2102352718
 20
38.4905297312
 30
0.0
 10
24.2360243825
 20
38.5270887377
 30
0.0
 10
24.2809611546
 20
38.596890114
 30
0.0
 10
24.3384983446
 20
38.694556816
 30
0.0
 10
24.3630266174
 20
38.7591656309
 30
0.0
 10
24.3699267361
 20
38.7886183041
 30
0.0
  0
SPLINE
  5
4C1
100
AcDbEntity
  8
0
100
AcDbSpline
 62
7
  6
BYLAYER
 70
0
 71
3
 72
12
 73
8
 74
0
 42
0.0000001
 43
0.0000001
 44
0.0000000001
 40
0.0
 40
0.0
 40
0.0
 40
0.0
 40
0.0816405801
 40
0.2265374158
 40
0.4540894433
 40
0.7118614866
 40
1.0
 40
1.0
 40
1.0
 40
1.0
 10
24.0288099736
 20
38.9391840461
 30
0.0
 10
24.015594532
 20
38.9391840461
 30
0.0
 10
23.9852242173
 20
38.909209897
 30
0.0
 10
23.956270121
 20
38.8442930838
 30
0.0
 10
23.9253344923
 20
38.7455545282
 30
0.0
 10
23.8998383255
 20
38.6232800602
 30
0.0
 10
23.8879730924
 20
38.5355399242
 30
0.0
 10
23.8828149738
 20
38.4891840461
 30
0.0
  0
LINE
  5
4C2
100
AcDbEntity
  8
0
100
AcDbLine
 62
7
  6
BYLAYER
 10
23.0325176807
 20
38.4477813477
 11
23.0605335924
 21
38.487819221
  0
LINE
  5
4C3
100
AcDbEntity
  8
0
100
AcDbLine
 62
7
  6
BYLAYER
 10
23.0605335924
 20
38.487819221
 11
23.2282917438
 21
38.4891840802
  0
SPLINE
  5
4C4
100
AcDbEntity
  8
0
100
AcDbSpline
 62
7
  6
BYLAYER
 70
0
 71
3
 72
33
 73
29
 74
0
 42
0.0000001
 43
0.0000001
 44
0.0000000001
 40
0.0
 40
0.0
 40
0.0
 40
0.0
 40
0.055629059
 40
0.1111614017
 40
0.1655453803
 40
0.2177474331
 40
0.2669963131
 40
0.3127824224
 40
0.3544600961
 40
0.3914060257
 40
0.4232198356
 40
0.449629532
 40
0.4705906246
 40
0.4866123201
 40
0.4994014712
 40
0.5122958368
 40
0.5285602797
 40
0.5498153822
 40
0.5765513589
 40
0.6087269427
 40
0.645979561
 40
0.6878084931
 40
0.7337526871
 40
0.7833107981
 40
0.8357037264
 40
0.889956827
 40
0.9450512216
 40
1.0
 40
1.0
 40
1.0
 40
1.0
 10
23.2282918237
 20
38.4891841071
 30
0.0
 10
23.2273340915
 20
38.3834736979
 30
0.0
 10
23.2280487635
 20
38.1722031777
 30
0.0
 10
23.2370924853
 20
37.8577051114
 30
0.0
 10
23.2541543779
 20
37.5500565489
 30
0.0
 10
23.27902835
 20
37.2549173475
 30
0.0
 10
23.3113599268
 20
36.9769364988
 30
0.0
 10
23.3507232692
 20
36.720065609
 30
0.0
 10
23.3966032029
 20
36.4880493132
 30
0.0
 10
23.4483097467
 20
36.284510726
 30
0.0
 10
23.5050590251
 20
36.1126033933
 30
0.0
 10
23.5660130467
 20
35.9746002433
 30
0.0
 10
23.6307007765
 20
35.8723416242
 30
0.0
 10
23.6996469394
 20
35.8051964718
 30
0.0
 10
23.7792056193
 20
35.7792901602
 30
0.0
 10
23.8587266896
 20
35.8065038914
 30
0.0
 10
23.9285333071
 20
35.8742824731
 30
0.0
 10
23.9950007809
 20
35.9773610534
 30
0.0
 10
24.0583876469
 20
36.1162929548
 30
0.0
 10
24.1181725031
 20
36.2891694285
 30
0.0
 10
24.1733622337
 20
36.4934011424
 30
0.0
 10
24.2231898782
 20
36.7257972457
 30
0.0
 10
24.2669872928
 20
36.9831406986
 30
0.0
 10
24.3041462836
 20
37.261779221
 30
0.0
 10
24.3340892385
 20
37.5571522244
 30
0.0
 10
24.356369641
 20
37.863746055
 30
0.0
 10
24.3707723894
 20
38.1756670713
 30
0.0
 10
24.3751799151
 20
38.3847663891
 30
0.0
 10
24.3760970195
 20
38.4891843375
 30
0.0
  0
SPLINE
  5
4C5
100
AcDbEntity
  8
0
100
AcDbSpline
 62
7
  6
BYLAYER
 70
0
 71
3
 72
20
 73
16
 74
0
 42
0.0000001
 43
0.0000001
 44
0.0000000001
 40
0.0
 40
0.0
 40
0.0
 40
0.0
 40
0.0948837344
 40
0.1973465224
 40
0.2811639029
 40
0.3571132667
 40
0.4141633309
 40
0.463545347
 40
0.4947748123
 40
0.5216887676
 40
0.5698622142
 40
0.6412947836
 40
0.7436869713
 40
0.8751891665
 40
1.0
 40
1.0
 40
1.0
 40
1.0
 10
24.1799782021
 20
38.4475173862
 30
0.0
 10
24.1777564416
 20
38.2824422537
 30
0.0
 10
24.1653618755
 20
37.9391478762
 30
0.0
 10
24.1235124807
 20
37.4515569516
 30
0.0
 10
24.0577935775
 20
36.9995220584
 30
0.0
 10
23.9788624338
 20
36.6310586769
 30
0.0
 10
23.8800498407
 20
36.3262413896
 30
0.0
 10
23.7789581116
 20
36.1153447134
 30
0.0
 10
23.6305123267
 20
35.965313835
 30
0.0
 10
23.4293926494
 20
36.0334834111
 30
0.0
 10
23.3131396728
 20
36.2741976607
 30
0.0
 10
23.1911567965
 20
36.6360953099
 30
0.0
 10
23.0990378407
 20
37.163317669
 30
0.0
 10
23.041369006
 20
37.7841678259
 30
0.0
 10
23.0311541413
 20
38.2306247945
 30
0.0
 10
23.0325176807
 20
38.4477813477
 30
0.0
  0
SPLINE
  5
4C6
100
AcDbEntity
  8
0
100
AcDbSpline
 62
7
  6
BYLAYER
 70
0
 71
3
 72
11
 73
7
 74
0
 42
0.0000001
 43
0.0000001
 44
0.0000000001
 40
0.0
 40
0.0
 40
0.0
 40
0.0
 40
0.1283359903
 40
0.356643796
 40
0.6587479644
 40
1.0
 40
1.0
 40
1.0
 40
1.0
 10
23.0447053763
 20
32.7348207783
 30
0.0
 10
23.0237958758
 20
32.7341103287
 30
0.0
 10
22.9656455195
 20
32.7337816423
 30
0.0
 10
22.8582623284
 20
32.7334303466
 30
0.0
 10
22.716159109
 20
32.7338525831
 30
0.0
 10
22.6112803369
 20
32.7344276768
 30
0.0
 10
22.5556501983
 20
32.7348207783
 30
0.0
  0
SPLINE
  5
4C7
100
AcDbEntity
  8
0
100
AcDbSpline
 62
7
  6
BYLAYER
 70
0
 71
3
 72
12
 73
8
 74
0
 42
0.0000001
 43
0.0000001
 44
0.0000000001
 40
0.0
 40
0.0
 40
0.0
 40
0.0
 40
0.1979050715
 40
0.3966114336
 40
0.5966107638
 40
0.7979019963
 40
1.0
 40
1.0
 40
1.0
 40
1.0
 10
22.5556501983
 20
32.2391840461
 30
0.0
 10
22.6064022083
 20
32.2391840461
 30
0.0
 10
22.7088462838
 20
32.2556682526
 30
0.0
 10
22.8468249092
 20
32.3272977793
 30
0.0
 10
22.9565764171
 20
32.4387733766
 30
0.0
 10
23.0274106055
 20
32.57899173
 30
0.0
 10
23.0442629862
 20
32.6829953948
 30
0.0
 10
23.0447053763
 20
32.7348207783
 30
0.0
  0
LINE
  5
4C8
100
AcDbEntity
  8
0
100
AcDbLine
 62
7
  6
BYLAYER
 10
23.0821906654
 20
38.9391840461
 11
22.5931354874
 21
38.9391840461
  0
SPLINE
  5
4C9
100
AcDbEntity
  8
0
100
AcDbSpline
 62
7
  6
BYLAYER
 70
0
 71
3
 72
11
 73
7
 74
0
 42
0.0000001
 43
0.0000001
 44
0.0000000001
 40
0.0
 40
0.0
 40
0.0
 40
0.0
 40
0.3412871347
 40
0.6433924485
 40
0.8716863787
 40
1.0
 40
1.0
 40
1.0
 40
1.0
 10
22.5963155826
 20
38.4891840461
 30
0.0
 10
22.6519513012
 20
38.4887715344
 30
0.0
 10
22.7568360146
 20
38.4882297015
 30
0.0
 10
22.8989434389
 20
38.4877794012
 30
0.0
 10
23.0063194145
 20
38.4881758704
 30
0.0
 10
23.064466138
 20
38.4884383199
 30
0.0
 10
23.0853707606
 20
38.4891840436
 30
0.0
  0
SPLINE
  5
4CA
100
AcDbEntity
  8
0
100
AcDbSpline
 62
7
  6
BYLAYER
 70
0
 71
3
 72
10
 73
6
 74
0
 42
0.0000001
 43
0.0000001
 44
0.0000000001
 40
0.0
 40
0.0
 40
0.0
 40
0.0
 40
0.4690762837
 40
0.7884835176
 40
1.0
 40
1.0
 40
1.0
 40
1.0
 10
23.2302080178
 20
38.8519054126
 30
0.0
 10
23.2249224372
 20
38.8684436248
 30
0.0
 10
23.2145128272
 20
38.8957749614
 30
0.0
 10
23.1960706214
 20
38.9282446146
 30
0.0
 10
23.1772657762
 20
38.9391764181
 30
0.0
 10
23.1694367445
 20
38.9391840461
 30
0.0
  0
SPLINE
  5
4CB
100
AcDbEntity
  8
0
100
AcDbSpline
 62
7
  6
BYLAYER
 70
0
 71
3
 72
10
 73
6
 74
0
 42
0.0000001
 43
0.0000001
 44
0.0000000001
 40
0.0
 40
0.0
 40
0.0
 40
0.0
 40
0.2633255398
 40
0.5969409626
 40
1.0
 40
1.0
 40
1.0
 40
1.0
 10
38.1144691277
 20
33.2392013624
 30
0.0
 10
38.1277653623
 20
33.2392008022
 30
0.0
 10
38.1582070648
 20
33.2472151137
 30
0.0
 10
38.1968876961
 20
33.2821912042
 30
0.0
 10
38.2124736825
 20
33.3172709499
 30
0.0
 10
38.2172641748
 20
33.3370509866
 30
0.0
  0
SPLINE
  5
4CC
100
AcDbEntity
  8
0
100
AcDbSpline
 62
7
  6
BYLAYER
 70
0
 71
3
 72
10
 73
6
 74
0
 42
0.0000001
 43
0.0000001
 44
0.0000000001
 40
0.0
 40
0.0
 40
0.0
 40
0.0
 40
0.3500704947
 40
0.6805260835
 40
1.0
 40
1.0
 40
1.0
 40
1.0
 10
32.6851312606
 20
33.3119420172
 30
0.0
 10
32.678145744
 20
33.2978493512
 30
0.0
 10
32.6603356889
 20
33.2722251005
 30
0.0
 10
32.6229189289
 20
33.2456321012
 30
0.0
 10
32.5933984875
 20
33.239179679
 30
0.0
 10
32.5790442442
 20
33.2391737659
 30
0.0
  0
SPLINE
  5
4CD
100
AcDbEntity
  8
0
100
AcDbSpline
 62
7
  6
BYLAYER
 70
0
 71
3
 72
10
 73
6
 74
0
 42
0.0000001
 43
0.0000001
 44
0.0000000001
 40
0.0
 40
0.0
 40
0.0
 40
0.0
 40
0.3567148818
 40
0.690307373
 40
1.0
 40
1.0
 40
1.0
 40
1.0
 10
32.6851312606
 20
33.3119420172
 30
0.0
 10
33.3429308144
 20
33.3145825177
 30
0.0
 10
34.6158903065
 20
33.3198961954
 30
0.0
 10
36.4599348169
 20
33.3282486774
 30
0.0
 10
37.6461789673
 20
33.3340993849
 30
0.0
 10
38.2172641748
 20
33.3370509866
 30
0.0
  0
SPLINE
  5
4CE
100
AcDbEntity
  8
0
100
AcDbSpline
 62
7
  6
BYLAYER
 70
0
 71
3
 72
10
 73
6
 74
0
 42
0.0000001
 43
0.0000001
 44
0.0000000001
 40
0.0
 40
0.0
 40
0.0
 40
0.0
 40
0.333033666
 40
0.66619546
 40
1.0
 40
1.0
 40
1.0
 40
1.0
 10
38.2172697503
 20
33.3370486677
 30
0.0
 10
38.2242287207
 20
33.3580692484
 30
0.0
 10
38.2381832717
 20
33.4001072137
 30
0.0
 10
38.2590572328
 20
33.4632330944
 30
0.0
 10
38.2732685929
 20
33.5052394605
 30
0.0
 10
38.2804233014
 20
33.5262483781
 30
0.0
  0
SPLINE
  5
4CF
100
AcDbEntity
  8
0
100
AcDbSpline
 62
7
  6
BYLAYER
 70
0
 71
3
 72
25
 73
21
 74
0
 42
0.0000001
 43
0.0000001
 44
0.0000000001
 40
0.0
 40
0.0
 40
0.0
 40
0.0
 40
0.1319140007
 40
0.2630796469
 40
0.393413556
 40
0.5228176294
 40
0.6510890816
 40
0.7146629103
 40
0.7776933927
 40
0.8399014156
 40
0.9006383038
 40
0.9299637701
 40
0.9441442683
 40
0.9578573645
 40
0.9708968781
 40
0.9770025282
 40
0.9827429108
 40
0.9880425546
 40
0.9927421091
 40
1.0
 40
1.0
 40
1.0
 40
1.0
 10
38.2804260238
 20
33.5262473618
 30
0.0
 10
38.3247166764
 20
33.6581360454
 30
0.0
 10
38.4070667299
 20
33.9232103086
 30
0.0
 10
38.5132253678
 20
34.3244408887
 30
0.0
 10
38.6022109836
 20
34.7271223663
 30
0.0
 10
38.6739915754
 20
35.1301175203
 30
0.0
 10
38.7191339179
 20
35.466038622
 30
0.0
 10
38.745427294
 20
35.7335851345
 30
0.0
 10
38.7597035367
 20
35.9322372472
 30
0.0
 10
38.7677677226
 20
36.128247155
 30
0.0
 10
38.7680663518
 20
36.2889158476
 30
0.0
 10
38.7630346596
 20
36.3987777475
 30
0.0
 10
38.7578534162
 20
36.4589132992
 30
0.0
 10
38.7526918842
 20
36.5017808
 30
0.0
 10
38.7471550547
 20
36.5360140481
 30
0.0
 10
38.7412413827
 20
36.5616057594
 30
0.0
 10
38.7361109837
 20
36.5789383032
 30
0.0
 10
38.7300387753
 20
36.594496179
 30
0.0
 10
38.7216474818
 20
36.6103817959
 30
0.0
 10
38.7122168069
 20
36.6206522619
 30
0.0
 10
38.7048811146
 20
36.6228391993
 30
0.0
  0
SPLINE
  5
4D0
100
AcDbEntity
  8
0
100
AcDbSpline
 62
7
  6
BYLAYER
 70
0
 71
3
 72
11
 73
7
 74
0
 42
0.0000001
 43
0.0000001
 44
0.0000000001
 40
0.0
 40
0.0
 40
0.0
 40
0.0
 40
0.2590937385
 40
0.4961327299
 40
0.7583496909
 40
1.0
 40
1.0
 40
1.0
 40
1.0
 10
38.7048899259
 20
36.6228887698
 30
0.0
 10
38.3486275112
 20
36.7211733548
 30
0.0
 10
37.6648589101
 20
36.9037779093
 30
0.0
 10
36.615183156
 20
37.165140518
 30
0.0
 10
35.5884885144
 20
37.415752393
 30
0.0
 10
34.8936062556
 20
37.5995626834
 30
0.0
 10
34.5613386343
 20
37.6912647236
 30
0.0
  0
SPLINE
  5
4D1
100
AcDbEntity
  8
0
100
AcDbSpline
 62
7
  6
BYLAYER
 70
0
 71
3
 72
24
 73
20
 74
0
 42
0.0000001
 43
0.0000001
 44
0.0000000001
 40
0.0
 40
0.0
 40
0.0
 40
0.0
 40
0.0469151486
 40
0.0864149907
 40
0.1174641147
 40
0.1297569515
 40
0.1401066363
 40
0.1490830729
 40
0.1577229445
 40
0.1784984579
 40
0.209400282
 40
0.2531975815
 40
0.3109452977
 40
0.381892996
 40
0.4647375686
 40
0.5580861144
 40
0.6603893697
 40
0.769603178
 40
1.0
 40
1.0
 40
1.0
 40
1.0
 10
38.2804229567
 20
33.5262475367
 30
0.0
 10
38.2827839392
 20
33.5261128657
 30
0.0
 10
38.2871430513
 20
33.5259750341
 30
0.0
 10
38.2930592881
 20
33.5262685827
 30
0.0
 10
38.297202663
 20
33.5270063996
 30
0.0
 10
38.2997212848
 20
33.528028168
 30
0.0
 10
38.301059955
 20
33.5289231096
 30
0.0
 10
38.3019573384
 20
33.5300504221
 30
0.0
 10
38.3024747364
 20
33.5319754079
 30
0.0
 10
38.3014066106
 20
33.5350249043
 30
0.0
 10
38.2983177167
 20
33.53872321
 30
0.0
 10
38.2932467456
 20
33.5431106009
 30
0.0
 10
38.2861002809
 20
33.5480718036
 30
0.0
 10
38.2769825587
 20
33.5536111077
 30
0.0
 10
38.2660560349
 20
33.5596000541
 30
0.0
 10
38.2535229586
 20
33.5659285755
 30
0.0
 10
38.239615062
 20
33.5724684289
 30
0.0
 10
38.2192527989
 20
33.5815026479
 30
0.0
 10
38.2034168589
 20
33.5880147253
 30
0.0
 10
38.1926147638
 20
33.5922793611
 30
0.0
  0
SPLINE
  5
4D2
100
AcDbEntity
  8
0
100
AcDbSpline
 62
7
  6
BYLAYER
 70
0
 71
3
 72
14
 73
10
 74
0
 42
0.0000001
 43
0.0000001
 44
0.0000000001
 40
0.0
 40
0.0
 40
0.0
 40
0.0
 40
0.220492903
 40
0.4162815772
 40
0.5839824017
 40
0.7193677364
 40
0.8353096129
 40
0.932093723
 40
1.0
 40
1.0
 40
1.0
 40
1.0
 10
38.7889429606
 20
36.2092195342
 30
0.0
 10
38.7892398192
 20
36.2432361611
 30
0.0
 10
38.7888417621
 20
36.3074721695
 30
0.0
 10
38.7849682096
 20
36.3975159494
 30
0.0
 10
38.7780418409
 20
36.4741934951
 30
0.0
 10
38.768352586
 20
36.5382006058
 30
0.0
 10
38.7552493955
 20
36.5903168023
 30
0.0
 10
38.7391948141
 20
36.6309425124
 30
0.0
 10
38.7184868438
 20
36.6490130777
 30
0.0
 10
38.7084037677
 20
36.6518577397
 30
0.0
  0
SPLINE
  5
4D3
100
AcDbEntity
  8
0
100
AcDbSpline
 62
7
  6
BYLAYER
 70
0
 71
3
 72
13
 73
9
 74
0
 42
0.0000001
 43
0.0000001
 44
0.0000000001
 40
0.0
 40
0.0
 40
0.0
 40
0.0
 40
0.1187266223
 40
0.2556827056
 40
0.4119184629
 40
0.5923586112
 40
0.7956495839
 40
1.0
 40
1.0
 40
1.0
 40
1.0
 10
38.7889429606
 20
36.2092195342
 30
0.0
 10
38.7880066936
 20
36.1024222261
 30
0.0
 10
38.7757597406
 20
35.8725076795
 30
0.0
 10
38.7333829156
 20
35.504216309
 30
0.0
 10
38.6603107146
 20
35.0842210658
 30
0.0
 10
38.5487686476
 20
34.6111548841
 30
0.0
 10
38.394513617
 20
34.1047315853
 30
0.0
 10
38.2640505889
 20
33.761654321
 30
0.0
 10
38.1926121097
 20
33.5922785599
 30
0.0
  0
SPLINE
  5
4D4
100
AcDbEntity
  8
0
100
AcDbSpline
 62
7
  6
BYLAYER
 70
0
 71
3
 72
11
 73
7
 74
0
 42
0.0000001
 43
0.0000001
 44
0.0000000001
 40
0.0
 40
0.0
 40
0.0
 40
0.0
 40
0.2396300969
 40
0.4854279906
 40
0.7397475232
 40
1.0
 40
1.0
 40
1.0
 40
1.0
 10
38.9043063998
 20
38.4891840456
 30
0.0
 10
38.8805685866
 20
38.4891823512
 30
0.0
 10
38.8319042788
 20
38.4785387543
 30
0.0
 10
38.7713868528
 20
38.433849108
 30
0.0
 10
38.7312329327
 20
38.3680927361
 30
0.0
 10
38.721686439
 20
38.3167090904
 30
0.0
 10
38.721480773
 20
38.2909292397
 30
0.0
  0
SPLINE
  5
4D5
100
AcDbEntity
  8
0
100
AcDbSpline
 62
7
  6
BYLAYER
 70
0
 71
3
 72
11
 73
7
 74
0
 42
0.0000001
 43
0.0000001
 44
0.0000000001
 40
0.0
 40
0.0
 40
0.0
 40
0.0
 40
0.3423800238
 40
0.6397025889
 40
0.8591599997
 40
1.0
 40
1.0
 40
1.0
 40
1.0
 10
39.4295047481
 20
38.2909294102
 30
0.0
 10
39.4294247055
 20
38.3163318436
 30
0.0
 10
39.4263002216
 20
38.3638842376
 30
0.0
 10
39.4115489779
 20
38.4263052264
 30
0.0
 10
39.3922759976
 20
38.4712161935
 30
0.0
 10
39.3677442573
 20
38.489184745
 30
0.0
 10
39.3572947678
 20
38.489184046
 30
0.0
  0
SPLINE
  5
4D6
100
AcDbEntity
  8
0
100
AcDbSpline
 62
7
  6
BYLAYER
 70
0
 71
3
 72
11
 73
7
 74
0
 42
0.0000001
 43
0.0000001
 44
0.0000000001
 40
0.0
 40
0.0
 40
0.0
 40
0.0
 40
0.149904987
 40
0.3707056489
 40
0.6641058178
 40
1.0
 40
1.0
 40
1.0
 40
1.0
 10
38.2892308381
 20
38.489184046
 30
0.0
 10
38.2778860819
 20
38.4891847294
 30
0.0
 10
38.2513287678
 20
38.4722975656
 30
0.0
 10
38.228953185
 20
38.4267148697
 30
0.0
 10
38.2126999781
 20
38.3641064465
 30
0.0
 10
38.2091399504
 20
38.3163496072
 30
0.0
 10
38.2090510114
 20
38.2909294102
 30
0.0
  0
SPLINE
  5
4D7
100
AcDbEntity
  8
0
100
AcDbSpline
 62
7
  6
BYLAYER
 70
0
 71
3
 72
24
 73
20
 74
0
 42
0.0000001
 43
0.0000001
 44
0.0000000001
 40
0.0
 40
0.0
 40
0.0
 40
0.0
 40
0.0122789507
 40
0.0321091087
 40
0.0578060134
 40
0.0904252715
 40
0.1287368215
 40
0.1641333975
 40
0.1996301665
 40
0.2425651013
 40
0.2956577251
 40
0.3626961264
 40
0.448941651
 40
0.5070065724
 40
0.5757325343
 40
0.6572298409
 40
0.7535719429
 40
0.8670318555
 40
1.0
 40
1.0
 40
1.0
 40
1.0
 10
40.7040166988
 20
36.0174398978
 30
0.0
 10
40.6925071213
 20
36.0196282777
 30
0.0
 10
40.6608731089
 20
36.0051821393
 30
0.0
 10
40.6305275371
 20
35.959017059
 30
0.0
 10
40.5923306605
 20
35.89493229
 30
0.0
 10
40.5530084051
 20
35.8114229334
 30
0.0
 10
40.512477765
 20
35.7184392719
 30
0.0
 10
40.4730407249
 20
35.6219812483
 30
0.0
 10
40.4330677808
 20
35.5209984352
 30
0.0
 10
40.3878449029
 20
35.4039361121
 30
0.0
 10
40.3325769923
 20
35.2584961593
 30
0.0
 10
40.263205167
 20
35.074209429
 30
0.0
 10
40.1922785424
 20
34.8854390497
 30
0.0
 10
40.1205385629
 20
34.6952542608
 30
0.0
 10
40.0500950345
 20
34.5094227212
 30
0.0
 10
39.9662299803
 20
34.2896217868
 30
0.0
 10
39.8664525928
 20
34.0302097488
 30
0.0
 10
39.748537775
 20
33.7251569915
 30
0.0
 10
39.66305486
 20
33.5061200177
 30
0.0
 10
39.6174636183
 20
33.3877252574
 30
0.0
  0
SPLINE
  5
4D8
100
AcDbEntity
  8
0
100
AcDbSpline
 62
7
  6
BYLAYER
 70
0
 71
3
 72
10
 73
6
 74
0
 42
0.0000001
 43
0.0000001
 44
0.0000000001
 40
0.0
 40
0.0
 40
0.0
 40
0.0
 40
0.4034377776
 40
0.758936613
 40
1.0
 40
1.0
 40
1.0
 40
1.0
 10
39.61746351
 20
33.3877252522
 30
0.0
 10
39.646038003
 20
33.3805750437
 30
0.0
 10
39.6999068208
 20
33.3674139352
 30
0.0
 10
39.7713508924
 20
33.3528714412
 30
0.0
 10
39.8145627086
 20
33.3458043887
 30
0.0
 10
39.8321599823
 20
33.3454754415
 30
0.0
  0
SPLINE
  5
4D9
100
AcDbEntity
  8
0
100
AcDbSpline
 62
7
  6
BYLAYER
 70
0
 71
3
 72
29
 73
25
 74
0
 42
0.0000001
 43
0.0000001
 44
0.0000000001
 40
0.0
 40
0.0
 40
0.0
 40
0.0
 40
0.002808585
 40
0.0059886141
 40
0.0098165977
 40
0.0143396255
 40
0.0195052606
 40
0.025228821
 40
0.0313975771
 40
0.0378811309
 40
0.0514017566
 40
0.0655054691
 40
0.0800647698
 40
0.0949543453
 40
0.1253489419
 40
0.1563320548
 40
0.2193383147
 40
0.2831921611
 40
0.3475653181
 40
0.4772561709
 40
0.6076784091
 40
0.7384548996
 40
0.8693119701
 40
1.0
 40
1.0
 40
1.0
 40
1.0
 10
40.7004069388
 20
35.9884443222
 30
0.0
 10
40.697917837
 20
35.9892568032
 30
0.0
 10
40.6920694125
 20
35.9895020858
 30
0.0
 10
40.6834922715
 20
35.9858392267
 30
0.0
 10
40.6749645483
 20
35.9791846331
 30
0.0
 10
40.6664448994
 20
35.9698427235
 30
0.0
 10
40.6580610878
 20
35.9581481918
 30
0.0
 10
40.6498208598
 20
35.9445349921
 30
0.0
 10
40.6417290548
 20
35.9294293662
 30
0.0
 10
40.6309722572
 20
35.9075250674
 30
0.0
 10
40.617942314
 20
35.878509731
 30
0.0
 10
40.6030293355
 20
35.8421157019
 30
0.0
 10
40.588514079
 20
35.8041933947
 30
0.0
 10
40.569458016
 20
35.7517569593
 30
0.0
 10
40.5463264345
 20
35.6845182768
 30
0.0
 10
40.5102950983
 20
35.5742969447
 30
0.0
 10
40.466408821
 20
35.4338369613
 30
0.0
 10
40.414587032
 20
35.2632543328
 30
0.0
 10
40.3454596543
 20
35.0329570461
 30
0.0
 10
40.2588370933
 20
34.7431168093
 30
0.0
 10
40.1536439749
 20
34.3942159549
 30
0.0
 10
40.0470876943
 20
34.0445923403
 30
0.0
 10
39.9396591908
 20
33.6949768919
 30
0.0
 10
39.8678867869
 20
33.4619497494
 30
0.0
 10
39.8321204788
 20
33.345481749
 30
0.0
  0
SPLINE
  5
4DA
100
AcDbEntity
  8
0
100
AcDbSpline
 62
7
  6
BYLAYER
 70
0
 71
3
 72
10
 73
6
 74
0
 42
0.0000001
 43
0.0000001
 44
0.0000000001
 40
0.0
 40
0.0
 40
0.0
 40
0.0
 40
0.3663898971
 40
0.6999426814
 40
1.0
 40
1.0
 40
1.0
 40
1.0
 10
39.8321601359
 20
33.3454753901
 30
0.0
 10
40.2778029911
 20
33.3479470554
 30
0.0
 10
41.1291502696
 20
33.3523768633
 30
0.0
 10
42.3454569633
 20
33.359305593
 30
0.0
 10
43.1161218867
 20
33.3635680447
 30
0.0
 10
43.4810834265
 20
33.3656785462
 30
0.0
  0
SPLINE
  5
4DB
100
AcDbEntity
  8
0
100
AcDbSpline
 62
7
  6
BYLAYER
 70
0
 71
3
 72
17
 73
13
 74
0
 42
0.0000001
 43
0.0000001
 44
0.0000000001
 40
0.0
 40
0.0
 40
0.0
 40
0.0
 40
0.1364778463
 40
0.2772384158
 40
0.4137824309
 40
0.5405680267
 40
0.6525065841
 40
0.7457652379
 40
0.8238979045
 40
0.9060596526
 40
0.9619391873
 40
1.0
 40
1.0
 40
1.0
 40
1.0
 10
43.4810834265
 20
33.3656785462
 30
0.0
 10
43.4852474934
 20
33.4195204097
 30
0.0
 10
43.4931296026
 20
33.528938713
 30
0.0
 10
43.5033816958
 20
33.692348991
 30
0.0
 10
43.5115046046
 20
33.8520405502
 30
0.0
 10
43.516993264
 20
34.0004341781
 30
0.0
 10
43.5196793919
 20
34.1317744063
 30
0.0
 10
43.519622827
 20
34.2438991453
 30
0.0
 10
43.517193307
 20
34.3441922033
 30
0.0
 10
43.5110236798
 20
34.4296323366
 30
0.0
 10
43.5025855528
 20
34.4986326295
 30
0.0
 10
43.4885794644
 20
34.5344789975
 30
0.0
 10
43.4789795672
 20
34.5460829537
 30
0.0
  0
SPLINE
  5
4DC
100
AcDbEntity
  8
0
100
AcDbSpline
 62
7
  6
BYLAYER
 70
0
 71
3
 72
10
 73
6
 74
0
 42
0.0000001
 43
0.0000001
 44
0.0000000001
 40
0.0
 40
0.0
 40
0.0
 40
0.0
 40
0.3337488714
 40
0.6612886626
 40
1.0
 40
1.0
 40
1.0
 40
1.0
 10
43.4789795672
 20
34.5460829537
 30
0.0
 10
43.198685254
 20
34.75474061
 30
0.0
 10
42.6203265952
 20
35.1392977154
 30
0.0
 10
41.6803206092
 20
35.6041251806
 30
0.0
 10
41.0338615478
 20
35.867806028
 30
0.0
 10
40.7004331023
 20
35.9885804008
 30
0.0
  0
SPLINE
  5
4DD
100
AcDbEntity
  8
0
100
AcDbSpline
 62
7
  6
BYLAYER
 70
0
 71
3
 72
11
 73
7
 74
0
 42
0.0000001
 43
0.0000001
 44
0.0000000001
 40
0.0
 40
0.0
 40
0.0
 40
0.0
 40
0.2523618904
 40
0.5102020694
 40
0.7471710844
 40
1.0
 40
1.0
 40
1.0
 40
1.0
 10
40.7040166989
 20
36.0174399028
 30
0.0
 10
40.9524704027
 20
35.926967521
 30
0.0
 10
41.4493769397
 20
35.7290429966
 30
0.0
 10
42.1605825715
 20
35.4007988894
 30
0.0
 10
42.8473151074
 20
35.0219933102
 30
0.0
 10
43.2704461373
 20
34.7299073698
 30
0.0
 10
43.4820982251
 20
34.5706060897
 30
0.0
  0
LINE
  5
4DE
100
AcDbEntity
  8
0
100
AcDbLine
 62
7
  6
BYLAYER
 10
43.9032153813
 20
36.7348207783
 11
43.9238436235
 21
38.290929276
  0
SPLINE
  5
4DF
100
AcDbEntity
  8
0
100
AcDbSpline
 62
7
  6
BYLAYER
 70
0
 71
3
 72
16
 73
12
 74
0
 42
0.0000001
 43
0.0000001
 44
0.0000000001
 40
0.0
 40
0.0
 40
0.0
 40
0.0
 40
0.0380266073
 40
0.1047920232
 40
0.2012333451
 40
0.2927363141
 40
0.4081916968
 40
0.5440780459
 40
0.6935173887
 40
0.8489212841
 40
1.0
 40
1.0
 40
1.0
 40
1.0
 10
43.4820982245
 20
34.5706060555
 30
0.0
 10
43.4941290108
 20
34.5614705775
 30
0.0
 10
43.5101455631
 20
34.5194247152
 30
0.0
 10
43.5218990707
 20
34.4420007813
 30
0.0
 10
43.5287065379
 20
34.3402198338
 30
0.0
 10
43.5310028896
 20
34.2199211128
 30
0.0
 10
43.5295770578
 20
34.0836388051
 30
0.0
 10
43.5240933322
 20
33.9245360124
 30
0.0
 10
43.5147135529
 20
33.7496895204
 30
0.0
 10
43.5021946512
 20
33.5690022151
 30
0.0
 10
43.4921341154
 20
33.4476639867
 30
0.0
 10
43.4869128373
 20
33.3878750657
 30
0.0
  0
SPLINE
  5
4E0
100
AcDbEntity
  8
0
100
AcDbSpline
 62
7
  6
BYLAYER
 70
0
 71
3
 72
10
 73
6
 74
0
 42
0.0000001
 43
0.0000001
 44
0.0000000001
 40
0.0
 40
0.0
 40
0.0
 40
0.0
 40
0.3766000852
 40
0.7007615051
 40
1.0
 40
1.0
 40
1.0
 40
1.0
 10
42.9891092084
 20
35.7956841489
 30
0.0
 10
43.0198978455
 20
35.7805329236
 30
0.0
 10
43.0799881122
 20
35.7570042553
 30
0.0
 10
43.1719460835
 20
35.7478733851
 30
0.0
 10
43.2285364387
 20
35.7610898678
 30
0.0
 10
43.2535615028
 20
35.7719142552
 30
0.0
  0
LINE
  5
4E1
100
AcDbEntity
  8
0
100
AcDbLine
 62
7
  6
BYLAYER
 10
43.2289036849
 20
38.29092938
 11
43.2118110788
 21
36.7348207783
  0
LINE
  5
4E2
100
AcDbEntity
  8
0
100
AcDbLine
 62
7
  6
BYLAYER
 10
44.3921036514
 20
36.7348207783
 11
44.3972080841
 21
38.29092938
  0
SPLINE
  5
4E3
100
AcDbEntity
  8
0
100
AcDbSpline
 62
7
  6
BYLAYER
 70
0
 71
3
 72
11
 73
7
 74
0
 42
0.0000001
 43
0.0000001
 44
0.0000000001
 40
0.0
 40
0.0
 40
0.0
 40
0.0
 40
0.2773519861
 40
0.5394146133
 40
0.7785034262
 40
1.0
 40
1.0
 40
1.0
 40
1.0
 10
44.397208064
 20
38.29092938
 30
0.0
 10
44.3970327116
 20
38.3165919375
 30
0.0
 10
44.3891714308
 20
38.3668188536
 30
0.0
 10
44.3557167156
 20
38.4321346305
 30
0.0
 10
44.304280251
 20
38.47778267
 30
0.0
 10
44.2611123506
 20
38.4891843869
 30
0.0
 10
44.2406174505
 20
38.4891840461
 30
0.0
  0
SPLINE
  5
4E4
100
AcDbEntity
  8
0
100
AcDbSpline
 62
7
  6
BYLAYER
 70
0
 71
3
 72
11
 73
7
 74
0
 42
0.0000001
 43
0.0000001
 44
0.0000000001
 40
0.0
 40
0.0
 40
0.0
 40
0.0
 40
0.1549969237
 40
0.3766477919
 40
0.6678341945
 40
1.0
 40
1.0
 40
1.0
 40
1.0
 10
43.1441686676
 20
38.4891840461
 30
0.0
 10
43.1560350104
 20
38.4891844108
 30
0.0
 10
43.1836981673
 20
38.4728515248
 30
0.0
 10
43.2078669084
 20
38.4269779892
 30
0.0
 10
43.2250005115
 20
38.3642310832
 30
0.0
 10
43.2288096531
 20
38.3163593453
 30
0.0
 10
43.2289036805
 20
38.29092938
 30
0.0
  0
SPLINE
  5
4E5
100
AcDbEntity
  8
0
100
AcDbSpline
 62
7
  6
BYLAYER
 70
0
 71
3
 72
10
 73
6
 74
0
 42
0.0000001
 43
0.0000001
 44
0.0000000001
 40
0.0
 40
0.0
 40
0.0
 40
0.0
 40
0.3135178031
 40
0.6421861524
 40
1.0
 40
1.0
 40
1.0
 40
1.0
 10
44.7983030838
 20
35.7722785278
 30
0.0
 10
44.7622661364
 20
35.7613892244
 30
0.0
 10
44.6854017901
 20
35.7483863567
 30
0.0
 10
44.5645524704
 20
35.7556742127
 30
0.0
 10
44.484952111
 20
35.7797962799
 30
0.0
 10
44.4450324358
 20
35.795684146
 30
0.0
  0
SPLINE
  5
4E6
100
AcDbEntity
  8
0
100
AcDbSpline
 62
7
  6
BYLAYER
 70
0
 71
3
 72
10
 73
6
 74
0
 42
0.0000001
 43
0.0000001
 44
0.0000000001
 40
0.0
 40
0.0
 40
0.0
 40
0.0
 40
0.3682983264
 40
0.7000934933
 40
1.0
 40
1.0
 40
1.0
 40
1.0
 10
43.5022079539
 20
36.7348207365
 30
0.0
 10
43.5740961549
 20
36.6254153019
 30
0.0
 10
43.7207153879
 20
36.4240570099
 30
0.0
 10
43.9493170115
 20
36.1510557471
 30
0.0
 10
44.1177433809
 20
36.0010306878
 30
0.0
 10
44.2023388924
 20
35.9361671817
 30
0.0
  0
SPLINE
  5
4E7
100
AcDbEntity
  8
0
100
AcDbSpline
 62
7
  6
BYLAYER
 70
0
 71
3
 72
10
 73
6
 74
0
 42
0.0000001
 43
0.0000001
 44
0.0000000001
 40
0.0
 40
0.0
 40
0.0
 40
0.0
 40
0.353328103
 40
0.6861217034
 40
1.0
 40
1.0
 40
1.0
 40
1.0
 10
44.2023388924
 20
35.9361671817
 30
0.0
 10
44.2289401677
 20
35.9164647654
 30
0.0
 10
44.2818410992
 20
35.8798293527
 30
0.0
 10
44.3628710311
 20
35.8326026209
 30
0.0
 10
44.4178179732
 20
35.8068262794
 30
0.0
 10
44.4450324358
 20
35.795684146
 30
0.0
  0
SPLINE
  5
4E8
100
AcDbEntity
  8
0
100
AcDbSpline
 62
7
  6
BYLAYER
 70
0
 71
3
 72
16
 73
12
 74
0
 42
0.0000001
 43
0.0000001
 44
0.0000000001
 40
0.0
 40
0.0
 40
0.0
 40
0.0
 40
0.3237421008
 40
0.4843101658
 40
0.6333708321
 40
0.7632132032
 40
0.8688753991
 40
0.9114982288
 40
0.9473281968
 40
0.9766843627
 40
1.0
 40
1.0
 40
1.0
 40
1.0
 10
44.4450327038
 20
35.7956838008
 30
0.0
 10
44.4607583043
 20
35.8495205029
 30
0.0
 10
44.4865274013
 20
35.9294411798
 30
0.0
 10
44.5252659308
 20
36.032119195
 30
0.0
 10
44.5547821165
 20
36.1023311091
 30
0.0
 10
44.5836323965
 20
36.1624100064
 30
0.0
 10
44.6071705148
 20
36.2045285242
 30
0.0
 10
44.6249357551
 20
36.2310404717
 30
0.0
 10
44.6363688239
 20
36.2458358854
 30
0.0
 10
44.6467981824
 20
36.2571012448
 30
0.0
 10
44.6538267283
 20
36.2629982505
 30
0.0
 10
44.6571867477
 20
36.2652401661
 30
0.0
  0
SPLINE
  5
4E9
100
AcDbEntity
  8
0
100
AcDbSpline
 62
7
  6
BYLAYER
 70
0
 71
3
 72
12
 73
8
 74
0
 42
0.0000001
 43
0.0000001
 44
0.0000000001
 40
0.0
 40
0.0
 40
0.0
 40
0.0
 40
0.2569217055
 40
0.510904976
 40
0.7598567479
 40
0.8816709249
 40
1.0
 40
1.0
 40
1.0
 40
1.0
 10
43.5022038891
 20
36.7348155769
 30
0.0
 10
43.5992486652
 20
36.6899091371
 30
0.0
 10
43.7921256226
 20
36.6003711656
 30
0.0
 10
44.0805210803
 20
36.4706212489
 30
0.0
 10
44.3205364251
 20
36.3702279951
 30
0.0
 10
44.5127008266
 20
36.3028555646
 30
0.0
 10
44.6091288447
 20
36.2760368979
 30
0.0
 10
44.6571798701
 20
36.2652417021
 30
0.0
  0
SPLINE
  5
4EA
100
AcDbEntity
  8
0
100
AcDbSpline
 62
7
  6
BYLAYER
 70
0
 71
3
 72
11
 73
7
 74
0
 42
0.0000001
 43
0.0000001
 44
0.0000000001
 40
0.0
 40
0.0
 40
0.0
 40
0.0
 40
0.2256214908
 40
0.4692834978
 40
0.7296753892
 40
1.0
 40
1.0
 40
1.0
 40
1.0
 10
44.6571754651
 20
36.2652524634
 30
0.0
 10
44.6180254396
 20
36.2821674964
 30
0.0
 10
44.5430625266
 20
36.3335267083
 30
0.0
 10
44.4588992497
 20
36.4452062674
 30
0.0
 10
44.4050909143
 20
36.5830478653
 30
0.0
 10
44.392450671
 20
36.6837240968
 30
0.0
 10
44.3921036816
 20
36.7348207783
 30
0.0
  0
LINE
  5
4EB
100
AcDbEntity
  8
0
100
AcDbLine
 62
7
  6
BYLAYER
 10
45.2785581211
 20
38.2909293371
 11
45.2710731807
 21
36.7348207783
  0
LINE
  5
4EC
100
AcDbEntity
  8
0
100
AcDbLine
 62
7
  6
BYLAYER
 10
46.1775678223
 20
33.3878750537
 11
46.2267053891
 21
38.2909293371
  0
SPLINE
  5
4ED
100
AcDbEntity
  8
0
100
AcDbSpline
 62
7
  6
BYLAYER
 70
0
 71
3
 72
11
 73
7
 74
0
 42
0.0000001
 43
0.0000001
 44
0.0000000001
 40
0.0
 40
0.0
 40
0.0
 40
0.0
 40
0.2512450859
 40
0.5017576865
 40
0.7512442081
 40
1.0
 40
1.0
 40
1.0
 40
1.0
 10
46.226705389
 20
38.2909293371
 30
0.0
 10
46.2269286186
 20
38.3167864312
 30
0.0
 10
46.2375211585
 20
38.3688887367
 30
0.0
 10
46.2815750125
 20
38.4347376033
 30
0.0
 10
46.3471074187
 20
38.4788540256
 30
0.0
 10
46.3989494011
 20
38.4891838077
 30
0.0
 10
46.4245512615
 20
38.4891840461
 30
0.0
  0
SPLINE
  5
4EE
100
AcDbEntity
  8
0
100
AcDbSpline
 62
7
  6
BYLAYER
 70
0
 71
3
 72
11
 73
7
 74
0
 42
0.0000001
 43
0.0000001
 44
0.0000000001
 40
0.0
 40
0.0
 40
0.0
 40
0.0
 40
0.2476461984
 40
0.4966749593
 40
0.7476463093
 40
1.0
 40
1.0
 40
1.0
 40
1.0
 10
45.4745077558
 20
38.4891840461
 30
0.0
 10
45.4491417982
 20
38.4891838076
 30
0.0
 10
45.3977026242
 20
38.4788187327
 30
0.0
 10
45.3327966283
 20
38.4346305058
 30
0.0
 10
45.2892361846
 20
38.3687866869
 30
0.0
 10
45.2787791264
 20
38.3167765299
 30
0.0
 10
45.278558121
 20
38.2909293371
 30
0.0
  0
SPLINE
  5
4EF
100
AcDbEntity
  8
0
100
AcDbSpline
 62
7
  6
BYLAYER
 70
0
 71
3
 72
13
 73
9
 74
0
 42
0.0000001
 43
0.0000001
 44
0.0000000001
 40
0.0
 40
0.0
 40
0.0
 40
0.0
 40
0.1561021252
 40
0.302072512
 40
0.4381333919
 40
0.5652967481
 40
0.7960195734
 40
1.0
 40
1.0
 40
1.0
 40
1.0
 10
44.8978217989
 20
36.2534319215
 30
0.0
 10
44.9410989231
 20
36.2616744158
 30
0.0
 10
45.0237656614
 20
36.2839760484
 30
0.0
 10
45.1379045268
 20
36.3322805672
 30
0.0
 10
45.2386477088
 20
36.3892448145
 30
0.0
 10
45.352033653
 20
36.4706696283
 30
0.0
 10
45.4671818341
 20
36.5812570708
 30
0.0
 10
45.5366784835
 20
36.6837140317
 30
0.0
 10
45.563176454
 20
36.7348202499
 30
0.0
  0
SPLINE
  5
4F0
100
AcDbEntity
  8
0
100
AcDbSpline
 62
7
  6
BYLAYER
 70
0
 71
3
 72
11
 73
7
 74
0
 42
0.0000001
 43
0.0000001
 44
0.0000000001
 40
0.0
 40
0.0
 40
0.0
 40
0.0
 40
0.2420853542
 40
0.4918312459
 40
0.7480917557
 40
1.0
 40
1.0
 40
1.0
 40
1.0
 10
45.2710731807
 20
36.7348207783
 30
0.0
 10
45.2706223105
 20
36.6821437822
 30
0.0
 10
45.2528849548
 20
36.574547532
 30
0.0
 10
45.1762010903
 20
36.4277506754
 30
0.0
 10
45.0539513403
 20
36.3124821695
 30
0.0
 10
44.9505666723
 20
36.2666285406
 30
0.0
 10
44.8973831108
 20
36.2533488514
 30
0.0
  0
SPLINE
  5
4F1
100
AcDbEntity
  8
0
100
AcDbSpline
 62
7
  6
BYLAYER
 70
0
 71
3
 72
11
 73
7
 74
0
 42
0.0000001
 43
0.0000001
 44
0.0000000001
 40
0.0
 40
0.0
 40
0.0
 40
0.0
 40
0.1605876876
 40
0.382918249
 40
0.6696519119
 40
1.0
 40
1.0
 40
1.0
 40
1.0
 10
44.8978233984
 20
36.2534324793
 30
0.0
 10
44.8716415524
 20
36.2443052281
 30
0.0
 10
44.8217025493
 20
36.1924981739
 30
0.0
 10
44.7883363104
 20
36.0805366421
 30
0.0
 10
44.7778516084
 20
35.9350922674
 30
0.0
 10
44.7888662323
 20
35.828583472
 30
0.0
 10
44.7986877592
 20
35.7723973313
 30
0.0
  0
SPLINE
  5
4F2
100
AcDbEntity
  8
0
100
AcDbSpline
 62
7
  6
BYLAYER
 70
0
 71
3
 72
14
 73
10
 74
0
 42
0.0000001
 43
0.0000001
 44
0.0000000001
 40
0.0
 40
0.0
 40
0.0
 40
0.0
 40
0.10650739
 40
0.2229876002
 40
0.3510835672
 40
0.4920804712
 40
0.648048881
 40
0.8181873485
 40
1.0
 40
1.0
 40
1.0
 40
1.0
 10
44.7983030838
 20
35.7722785278
 30
0.0
 10
44.8421018723
 20
35.7852237899
 30
0.0
 10
44.9314967014
 20
35.8207042051
 30
0.0
 10
45.0606456646
 20
35.8992911704
 30
0.0
 10
45.1872270173
 20
36.0066682212
 30
0.0
 10
45.307546298
 20
36.1444464029
 30
0.0
 10
45.4164563368
 20
36.3134017334
 30
0.0
 10
45.5069249389
 20
36.5123478037
 30
0.0
 10
45.5481251875
 20
36.6583236831
 30
0.0
 10
45.5631763987
 20
36.7348207543
 30
0.0
  0
SPLINE
  5
4F3
100
AcDbEntity
  8
0
100
AcDbSpline
 62
7
  6
BYLAYER
 70
0
 71
3
 72
13
 73
9
 74
0
 42
0.0000001
 43
0.0000001
 44
0.0000000001
 40
0.0
 40
0.0
 40
0.0
 40
0.0
 40
0.2651490535
 40
0.5251098391
 40
0.6514958802
 40
0.7740756932
 40
0.891237703
 40
1.0
 40
1.0
 40
1.0
 40
1.0
 10
42.0736576526
 20
36.734816827
 30
0.0
 10
42.1855895926
 20
36.6899454355
 30
0.0
 10
42.4071993597
 20
36.6009229689
 30
0.0
 10
42.6829141432
 20
36.4923798927
 30
0.0
 10
42.8993158222
 20
36.4102391555
 30
0.0
 10
43.0559740067
 20
36.3537526167
 30
0.0
 10
43.206457864
 20
36.3039191371
 30
0.0
 10
43.3055531056
 20
36.2763961977
 30
0.0
 10
43.3537472344
 20
36.2652529292
 30
0.0
  0
SPLINE
  5
4F4
100
AcDbEntity
  8
0
100
AcDbSpline
 62
7
  6
BYLAYER
 70
0
 71
3
 72
15
 73
11
 74
0
 42
0.0000001
 43
0.0000001
 44
0.0000000001
 40
0.0
 40
0.0
 40
0.0
 40
0.0
 40
0.090375292
 40
0.1947383333
 40
0.3135545031
 40
0.4444356527
 40
0.5837226004
 40
0.7262376385
 40
0.8664661542
 40
1.0
 40
1.0
 40
1.0
 40
1.0
 10
43.3537564378
 20
36.265253771
 30
0.0
 10
43.3355653254
 20
36.2610029336
 30
0.0
 10
43.2974345931
 20
36.2470367373
 30
0.0
 10
43.2416892077
 20
36.213344528
 30
0.0
 10
43.1860507999
 20
36.1653509113
 30
0.0
 10
43.1327646268
 20
36.1048348322
 30
0.0
 10
43.0848458738
 20
36.0340222407
 30
0.0
 10
43.0438932945
 20
35.9568132348
 30
0.0
 10
43.0116734112
 20
35.8768752458
 30
0.0
 10
42.9956032326
 20
35.8225117108
 30
0.0
 10
42.9891078515
 20
35.7956845097
 30
0.0
  0
SPLINE
  5
4F5
100
AcDbEntity
  8
0
100
AcDbSpline
 62
7
  6
BYLAYER
 70
0
 71
3
 72
13
 73
9
 74
0
 42
0.0000001
 43
0.0000001
 44
0.0000000001
 40
0.0
 40
0.0
 40
0.0
 40
0.0
 40
0.1081428838
 40
0.2381802729
 40
0.3916378657
 40
0.5690290296
 40
0.7713429412
 40
1.0
 40
1.0
 40
1.0
 40
1.0
 10
42.9891092084
 20
35.7956841489
 30
0.0
 10
42.9515295955
 20
35.8145596843
 30
0.0
 10
42.8723973459
 20
35.8633833697
 30
0.0
 10
42.7526903716
 20
35.9578677636
 30
0.0
 10
42.6220401967
 20
36.0808195698
 30
0.0
 10
42.4804824985
 20
36.2324408172
 30
0.0
 10
42.3273296779
 20
36.4128304714
 30
0.0
 10
42.2229265743
 20
36.5439496921
 30
0.0
 10
42.1680016972
 20
36.6138761505
 30
0.0
  0
SPLINE
  5
4F6
100
AcDbEntity
  8
0
100
AcDbSpline
 62
7
  6
BYLAYER
 70
0
 71
3
 72
14
 73
10
 74
0
 42
0.0000001
 43
0.0000001
 44
0.0000000001
 40
0.0
 40
0.0
 40
0.0
 40
0.0
 40
0.2149964343
 40
0.4011896609
 40
0.5597053662
 40
0.6937862059
 40
0.8089325097
 40
0.9094371525
 40
1.0
 40
1.0
 40
1.0
 40
1.0
 10
43.5002700221
 20
36.7348206275
 30
0.0
 10
43.5202140229
 20
36.6606188612
 30
0.0
 10
43.5472965705
 20
36.5190992408
 30
0.0
 10
43.5531887303
 20
36.3183116339
 30
0.0
 10
43.5293911402
 20
36.1479695138
 30
0.0
 10
43.4828167475
 20
36.008938083
 30
0.0
 10
43.4190792384
 20
35.9002266727
 30
0.0
 10
43.3425263369
 20
35.8205415926
 30
0.0
 10
43.2833217699
 20
35.7846358643
 30
0.0
 10
43.2535615028
 20
35.7719142552
 30
0.0
  0
SPLINE
  5
4F7
100
AcDbEntity
  8
0
100
AcDbSpline
 62
7
  6
BYLAYER
 70
0
 71
3
 72
15
 73
11
 74
0
 42
0.0000001
 43
0.0000001
 44
0.0000000001
 40
0.0
 40
0.0
 40
0.0
 40
0.0
 40
0.1338565499
 40
0.2702630683
 40
0.4060788306
 40
0.538018454
 40
0.6637713311
 40
0.7825356951
 40
0.8942256868
 40
1.0
 40
1.0
 40
1.0
 40
1.0
 10
43.2533242531
 20
35.7718059502
 30
0.0
 10
43.25027648
 20
35.7989489564
 30
0.0
 10
43.2477664577
 20
35.8542295291
 30
0.0
 10
43.2555552895
 20
35.9370303497
 30
0.0
 10
43.2763995385
 20
36.0172069361
 30
0.0
 10
43.3096665588
 20
36.0908031271
 30
0.0
 10
43.3549531205
 20
36.1535112607
 30
0.0
 10
43.4091420831
 20
36.2028318896
 30
0.0
 10
43.4695038814
 20
36.2366225922
 30
0.0
 10
43.5124135388
 20
36.2494228217
 30
0.0
 10
43.5336454348
 20
36.2533020485
 30
0.0
  0
SPLINE
  5
4F8
100
AcDbEntity
  8
0
100
AcDbSpline
 62
7
  6
BYLAYER
 70
0
 71
3
 72
17
 73
13
 74
0
 42
0.0000001
 43
0.0000001
 44
0.0000000001
 40
0.0
 40
0.0
 40
0.0
 40
0.0
 40
0.158424555
 40
0.3052922801
 40
0.4404556702
 40
0.564491718
 40
0.6786658768
 40
0.7848547136
 40
0.836707209
 40
0.8888115183
 40
0.942583102
 40
1.0
 40
1.0
 40
1.0
 40
1.0
 10
43.5002688931
 20
36.7348147706
 30
0.0
 10
43.5175834433
 20
36.7114998761
 30
0.0
 10
43.549040576
 20
36.6650935428
 30
0.0
 10
43.587278711
 20
36.5937978269
 30
0.0
 10
43.6142169418
 20
36.5241573764
 30
0.0
 10
43.6290547495
 20
36.4570225507
 30
0.0
 10
43.6311323959
 20
36.393470555
 30
0.0
 10
43.6199431144
 20
36.3440166286
 30
0.0
 10
43.602303779
 20
36.3095596186
 30
0.0
 10
43.5844424773
 20
36.2865777086
 30
0.0
 10
43.5614548663
 20
36.2670744757
 30
0.0
 10
43.5433395907
 20
36.2573658656
 30
0.0
 10
43.5336316025
 20
36.2532996908
 30
0.0
  0
SPLINE
  5
4F9
100
AcDbEntity
  8
0
100
AcDbSpline
 62
7
  6
BYLAYER
 70
0
 71
3
 72
11
 73
7
 74
0
 42
0.0000001
 43
0.0000001
 44
0.0000000001
 40
0.0
 40
0.0
 40
0.0
 40
0.0
 40
0.2622857483
 40
0.5043772929
 40
0.7434153841
 40
1.0
 40
1.0
 40
1.0
 40
1.0
 10
43.533608567
 20
36.2532816131
 30
0.0
 10
43.5887627176
 20
36.2670506997
 30
0.0
 10
43.6909976728
 20
36.3133015156
 30
0.0
 10
43.8082910228
 20
36.4276673319
 30
0.0
 10
43.8842448445
 20
36.5710848593
 30
0.0
 10
43.9027444633
 20
36.6792115326
 30
0.0
 10
43.9032153813
 20
36.7348207783
 30
0.0
  0
SPLINE
  5
4FA
100
AcDbEntity
  8
0
100
AcDbSpline
 62
7
  6
BYLAYER
 70
0
 71
3
 72
11
 73
7
 74
0
 42
0.0000001
 43
0.0000001
 44
0.0000000001
 40
0.0
 40
0.0
 40
0.0
 40
0.0
 40
0.2539512631
 40
0.5055877792
 40
0.7539570997
 40
1.0
 40
1.0
 40
1.0
 40
1.0
 10
43.9238436058
 20
38.290929276
 30
0.0
 10
43.9240614239
 20
38.3167617909
 30
0.0
 10
43.9343260976
 20
38.3686396624
 30
0.0
 10
43.9771797664
 20
38.4344719488
 30
0.0
 10
44.041184951
 20
38.478763907
 30
0.0
 10
44.0920481876
 20
38.4891829014
 30
0.0
 10
44.117077135
 20
38.4891840459
 30
0.0
  0
SPLINE
  5
4FB
100
AcDbEntity
  8
0
100
AcDbSpline
 62
7
  6
BYLAYER
 70
0
 71
3
 72
11
 73
7
 74
0
 42
0.0000001
 43
0.0000001
 44
0.0000000001
 40
0.0
 40
0.0
 40
0.0
 40
0.0
 40
0.2421176531
 40
0.488920636
 40
0.7421930778
 40
1.0
 40
1.0
 40
1.0
 40
1.0
 10
40.9093836626
 20
38.4891840459
 30
0.0
 10
40.8851520968
 20
38.4891828999
 30
0.0
 10
40.8356449677
 20
38.4786323235
 30
0.0
 10
40.7737769078
 20
38.4340985271
 30
0.0
 10
40.7325827374
 20
38.3683043373
 30
0.0
 10
40.7227626439
 20
38.3167301945
 30
0.0
 10
40.7225523001
 20
38.290929276
 30
0.0
  0
SPLINE
  5
4FC
100
AcDbEntity
  8
0
100
AcDbSpline
 62
7
  6
BYLAYER
 70
0
 71
3
 72
11
 73
7
 74
0
 42
0.0000001
 43
0.0000001
 44
0.0000000001
 40
0.0
 40
0.0
 40
0.0
 40
0.0
 40
0.2340744631
 40
0.4777658789
 40
0.7344309144
 40
1.0
 40
1.0
 40
1.0
 40
1.0
 10
34.6846674729
 20
38.4891840453
 30
0.0
 10
34.6619782982
 20
38.4891817265
 30
0.0
 10
34.6150896831
 20
38.4783306276
 30
0.0
 10
34.5574388534
 20
38.4333275073
 30
0.0
 10
34.51945146
 20
38.3676706566
 30
0.0
 10
34.5104636047
 20
38.3166704461
 30
0.0
 10
34.5102677111
 20
38.2909291975
 30
0.0
  0
SPLINE
  5
4FD
100
AcDbEntity
  8
0
100
AcDbSpline
 62
7
  6
BYLAYER
 70
0
 71
3
 72
15
 73
11
 74
0
 42
0.0000001
 43
0.0000001
 44
0.0000000001
 40
0.0
 40
0.0
 40
0.0
 40
0.0
 40
0.1885353116
 40
0.3514266206
 40
0.4933869659
 40
0.617125054
 40
0.7237457809
 40
0.8315699235
 40
0.9292989599
 40
1.0
 40
1.0
 40
1.0
 40
1.0
 10
34.5102677143
 20
38.2909291975
 30
0.0
 10
34.5105621927
 20
38.2540119126
 30
0.0
 10
34.5113926997
 20
38.1851996579
 30
0.0
 10
34.513806747
 20
38.0886140487
 30
0.0
 10
34.5170710275
 20
38.0047470231
 30
0.0
 10
34.5211864966
 20
37.9319581079
 30
0.0
 10
34.5261552706
 20
37.8659015207
 30
0.0
 10
34.5336328581
 20
37.8052363432
 30
0.0
 10
34.5402187281
 20
37.7514953014
 30
0.0
 10
34.5545727306
 20
37.7204476399
 30
0.0
 10
34.5637858404
 20
37.7101137996
 30
0.0
  0
SPLINE
  5
4FE
100
AcDbEntity
  8
0
100
AcDbSpline
 62
7
  6
BYLAYER
 70
0
 71
3
 72
12
 73
8
 74
0
 42
0.0000001
 43
0.0000001
 44
0.0000000001
 40
0.0
 40
0.0
 40
0.0
 40
0.0
 40
0.1352324808
 40
0.2672972804
 40
0.5226546908
 40
0.7667735482
 40
1.0
 40
1.0
 40
1.0
 40
1.0
 10
34.5637873234
 20
37.7101001101
 30
0.0
 10
34.7495477998
 20
37.6583667439
 30
0.0
 10
35.1179686216
 20
37.5605930544
 30
0.0
 10
35.8410581023
 20
37.3801443355
 30
0.0
 10
36.7161308406
 20
37.1675602789
 30
0.0
 10
37.7300162068
 20
36.9153756281
 30
0.0
 10
38.3880639494
 20
36.7411850293
 30
0.0
 10
38.7084037631
 20
36.6518602087
 30
0.0
  0
SPLINE
  5
4FF
100
AcDbEntity
  8
0
100
AcDbSpline
 62
7
  6
BYLAYER
 70
0
 71
3
 72
10
 73
6
 74
0
 42
0.0000001
 43
0.0000001
 44
0.0000000001
 40
0.0
 40
0.0
 40
0.0
 40
0.0
 40
0.4147230232
 40
0.7401790829
 40
1.0
 40
1.0
 40
1.0
 40
1.0
 10
32.2014868726
 20
33.3878750657
 30
0.0
 10
32.2685190554
 20
33.3784991569
 30
0.0
 10
32.3874719389
 20
33.3571459275
 30
0.0
 10
32.5490049368
 20
33.3340681779
 30
0.0
 10
32.6430038537
 20
33.316387674
 30
0.0
 10
32.685171079
 20
33.3119130316
 30
0.0
  0
SPLINE
  5
500
100
AcDbEntity
  8
0
100
AcDbSpline
 62
7
  6
BYLAYER
 70
0
 71
3
 72
10
 73
6
 74
0
 42
0.0000001
 43
0.0000001
 44
0.0000000001
 40
0.0
 40
0.0
 40
0.0
 40
0.0
 40
0.381431489
 40
0.7131675335
 40
1.0
 40
1.0
 40
1.0
 40
1.0
 10
32.685171079
 20
33.3119130316
 30
0.0
 10
33.0433569919
 20
33.8078109807
 30
0.0
 10
33.6594485383
 20
34.7770584377
 30
0.0
 10
34.2940177641
 20
36.2583546258
 30
0.0
 10
34.5090827507
 20
37.2342289211
 30
0.0
 10
34.5613357299
 20
37.6912650733
 30
0.0
  0
SPLINE
  5
501
100
AcDbEntity
  8
0
100
AcDbSpline
 62
7
  6
BYLAYER
 70
0
 71
3
 72
13
 73
9
 74
0
 42
0.0000001
 43
0.0000001
 44
0.0000000001
 40
0.0
 40
0.0
 40
0.0
 40
0.0
 40
0.0954614576
 40
0.2344617065
 40
0.3779676731
 40
0.5471370867
 40
0.7506896309
 40
1.0
 40
1.0
 40
1.0
 40
1.0
 10
34.5613357299
 20
37.6912650733
 30
0.0
 10
34.5445119224
 20
37.7017749967
 30
0.0
 10
34.5135730373
 20
37.7434025854
 30
0.0
 10
34.4992684468
 20
37.8211107429
 30
0.0
 10
34.476284904
 20
37.912096722
 30
0.0
 10
34.4642832953
 20
38.0189382372
 30
0.0
 10
34.45166652
 20
38.1475292242
 30
0.0
 10
34.4480733138
 20
38.2416336362
 30
0.0
 10
34.4462895995
 20
38.2934094008
 30
0.0
  0
SPLINE
  5
502
100
AcDbEntity
  8
0
100
AcDbSpline
 62
7
  6
BYLAYER
 70
0
 71
3
 72
13
 73
9
 74
0
 42
0.0000001
 43
0.0000001
 44
0.0000000001
 40
0.0
 40
0.0
 40
0.0
 40
0.0
 40
0.2514080282
 40
0.5018663145
 40
0.6267781718
 40
0.7513824643
 40
0.8757766007
 40
1.0
 40
1.0
 40
1.0
 40
1.0
 10
32.2014868704
 20
33.3878750674
 30
0.0
 10
32.4700136304
 20
33.7485714835
 30
0.0
 10
32.9753350584
 20
34.4923143653
 30
0.0
 10
33.4971771742
 20
35.4886975056
 30
0.0
 10
33.8193137873
 20
36.3239132722
 30
0.0
 10
34.0054445568
 20
36.9672991097
 30
0.0
 10
34.1278860555
 20
37.6246087869
 30
0.0
 10
34.1640258885
 20
38.0688200218
 30
0.0
 10
34.1698995432
 20
38.2909321112
 30
0.0
  0
SPLINE
  5
503
100
AcDbEntity
  8
0
100
AcDbSpline
 62
7
  6
BYLAYER
 70
0
 71
3
 72
11
 73
7
 74
0
 42
0.0000001
 43
0.0000001
 44
0.0000000001
 40
0.0
 40
0.0
 40
0.0
 40
0.0
 40
0.2540521528
 40
0.506574044
 40
0.7557117129
 40
1.0
 40
1.0
 40
1.0
 40
1.0
 10
46.1776336951
 20
38.4887175254
 30
0.0
 10
46.1809805957
 20
38.2131026491
 30
0.0
 10
46.1505742168
 20
37.6622952493
 30
0.0
 10
45.9916235492
 20
36.8552932073
 30
0.0
 10
45.7245664975
 20
36.0884632432
 30
0.0
 10
45.4751456232
 20
35.6121262266
 30
0.0
 10
45.3348296837
 20
35.387273799
 30
0.0
  0
SPLINE
  5
504
100
AcDbEntity
  8
0
100
AcDbSpline
 62
7
  6
BYLAYER
 70
0
 71
3
 72
11
 73
7
 74
0
 42
0.0000001
 43
0.0000001
 44
0.0000000001
 40
0.0
 40
0.0
 40
0.0
 40
0.0
 40
0.2492000892
 40
0.4990712152
 40
0.7494429595
 40
1.0
 40
1.0
 40
1.0
 40
1.0
 10
45.334829852
 20
35.3872813306
 30
0.0
 10
45.4949832728
 20
35.6098840469
 30
0.0
 10
45.7808081841
 20
36.0821227495
 30
0.0
 10
46.0892505587
 20
36.8507201414
 30
0.0
 10
46.2716636155
 20
37.6600665779
 30
0.0
 10
46.3051587036
 20
38.2130387923
 30
0.0
 10
46.3003039729
 20
38.4887174512
 30
0.0
  0
SPLINE
  5
505
100
AcDbEntity
  8
0
100
AcDbSpline
 62
7
  6
BYLAYER
 70
0
 71
3
 72
10
 73
6
 74
0
 42
0.0000001
 43
0.0000001
 44
0.0000000001
 40
0.0
 40
0.0
 40
0.0
 40
0.0
 40
0.3231427084
 40
0.6566391387
 40
1.0
 40
1.0
 40
1.0
 40
1.0
 10
30.3349786964
 20
38.4891840461
 30
0.0
 10
30.3409215953
 20
38.5384326519
 30
0.0
 10
30.3560599144
 20
38.6381629178
 30
0.0
 10
30.3879954997
 20
38.7883941726
 30
0.0
 10
30.415316959
 20
38.8887072511
 30
0.0
 10
30.4304963558
 20
38.93918384
 30
0.0
  0
SPLINE
  5
506
100
AcDbEntity
  8
0
100
AcDbSpline
 62
7
  6
BYLAYER
 70
0
 71
3
 72
11
 73
7
 74
0
 42
0.0000001
 43
0.0000001
 44
0.0000000001
 40
0.0
 40
0.0
 40
0.0
 40
0.0
 40
0.2519916776
 40
0.4999938024
 40
0.747999494
 40
1.0
 40
1.0
 40
1.0
 40
1.0
 10
16.6360276157
 20
38.2909293532
 30
0.0
 10
16.6367630849
 20
38.3169941104
 30
0.0
 10
16.646861559
 20
38.3692437941
 30
0.0
 10
16.6917378428
 20
38.4347282677
 30
0.0
 10
16.7576122256
 20
38.4790316289
 30
0.0
 10
16.8099489225
 20
38.4886750968
 30
0.0
 10
16.8360200003
 20
38.4891840461
 30
0.0
  0
SPLINE
  5
507
100
AcDbEntity
  8
0
100
AcDbSpline
 62
7
  6
BYLAYER
 70
0
 71
3
 72
11
 73
7
 74
0
 42
0.0000001
 43
0.0000001
 44
0.0000000001
 40
0.0
 40
0.0
 40
0.0
 40
0.0
 40
0.2730977189
 40
0.5289675857
 40
0.7710461606
 40
1.0
 40
1.0
 40
1.0
 40
1.0
 10
27.1150306713
 20
38.2967052336
 30
0.0
 10
27.1142957797
 20
38.3214868886
 30
0.0
 10
27.1058364178
 20
38.3696249182
 30
0.0
 10
27.0727341923
 20
38.4326683264
 30
0.0
 10
27.0219795639
 20
38.4776525023
 30
0.0
 10
26.9786598754
 20
38.4891648586
 30
0.0
 10
26.9578748272
 20
38.4891678682
 30
0.0
  0
SPLINE
  5
508
100
AcDbEntity
  8
0
100
AcDbSpline
 62
7
  6
BYLAYER
 70
0
 71
3
 72
11
 73
7
 74
0
 42
0.0000001
 43
0.0000001
 44
0.0000000001
 40
0.0
 40
0.0
 40
0.0
 40
0.0
 40
0.2191730698
 40
0.4521672565
 40
0.715256017
 40
1.0
 40
1.0
 40
1.0
 40
1.0
 10
24.7445098446
 20
38.4891785436
 30
0.0
 10
24.7246094005
 20
38.4891760188
 30
0.0
 10
24.6830424104
 20
38.4786459174
 30
0.0
 10
24.6320103397
 20
38.4357509747
 30
0.0
 10
24.5971846799
 20
38.372432399
 30
0.0
 10
24.5881166248
 20
38.3225471791
 30
0.0
 10
24.587351442
 20
38.2967043625
 30
0.0
  0
SPLINE
  5
509
100
AcDbEntity
  8
0
100
AcDbSpline
 62
7
  6
BYLAYER
 70
0
 71
3
 72
10
 73
6
 74
0
 42
0.0000001
 43
0.0000001
 44
0.0000000001
 40
0.0
 40
0.0
 40
0.0
 40
0.0
 40
0.3339954056
 40
0.6673287223
 40
1.0
 40
1.0
 40
1.0
 40
1.0
 10
24.5875229865
 20
38.2966962609
 30
0.0
 10
24.5664417929
 20
37.7496868428
 30
0.0
 10
24.5242907084
 20
36.6567535327
 30
0.0
 10
24.4609502228
 20
35.0189868343
 30
0.0
 10
24.4186950194
 20
33.9282294037
 30
0.0
 10
24.3975578865
 20
33.3833940043
 30
0.0
  0
SPLINE
  5
50A
100
AcDbEntity
  8
0
100
AcDbSpline
 62
7
  6
BYLAYER
 70
0
 71
3
 72
10
 73
6
 74
0
 42
0.0000001
 43
0.0000001
 44
0.0000000001
 40
0.0
 40
0.0
 40
0.0
 40
0.0
 40
0.3326710475
 40
0.6660044022
 40
1.0
 40
1.0
 40
1.0
 40
1.0
 10
27.3048264606
 20
33.3833945635
 30
0.0
 10
27.2836893448
 20
33.9282295241
 30
0.0
 10
27.2414341582
 20
35.0189865157
 30
0.0
 10
27.178093681
 20
36.6567530278
 30
0.0
 10
27.1359425816
 20
37.7496865902
 30
0.0
 10
27.1148613748
 20
38.2966962608
 30
0.0
  0
SPLINE
  5
50B
100
AcDbEntity
  8
0
100
AcDbSpline
 62
7
  6
BYLAYER
 70
0
 71
3
 72
12
 73
8
 74
0
 42
0.0000001
 43
0.0000001
 44
0.0000000001
 40
0.0
 40
0.0
 40
0.0
 40
0.0
 40
0.2085883683
 40
0.4044072111
 40
0.5955892813
 40
0.7914073172
 40
1.0
 40
1.0
 40
1.0
 40
1.0
 10
22.1605932589
 20
43.0450811973
 30
0.0
 10
22.0870897715
 20
43.0875184555
 30
0.0
 10
21.9392175454
 20
43.1614091739
 30
0.0
 10
21.7033979077
 20
43.2261191586
 30
0.0
 10
21.4630540268
 20
43.2262367059
 30
0.0
 10
21.2274802345
 20
43.1610372418
 30
0.0
 10
21.0789103469
 20
43.088352525
 30
0.0
 10
21.0058927206
 20
43.0450811973
 30
0.0
  0
SPLINE
  5
50C
100
AcDbEntity
  8
0
100
AcDbSpline
 62
7
  6
BYLAYER
 70
0
 71
3
 72
12
 73
8
 74
0
 42
0.0000001
 43
0.0000001
 44
0.0000000001
 40
0.0
 40
0.0
 40
0.0
 40
0.0
 40
0.2013143693
 40
0.4004163656
 40
0.5995836344
 40
0.7986856307
 40
1.0
 40
1.0
 40
1.0
 40
1.0
 10
21.0058927206
 20
43.0450811973
 30
0.0
 10
20.854953581
 20
43.0892220632
 30
0.0
 10
20.5505588339
 20
43.1635649413
 30
0.0
 10
20.0852919039
 20
43.2262987839
 30
0.0
 10
19.6170924605
 20
43.2262987839
 30
0.0
 10
19.1518255305
 20
43.1635649413
 30
0.0
 10
18.8474307834
 20
43.0892220632
 30
0.0
 10
18.6964916438
 20
43.0450811973
 30
0.0
  0
SPLINE
  5
50D
100
AcDbEntity
  8
0
100
AcDbSpline
 62
7
  6
BYLAYER
 70
0
 71
3
 72
12
 73
8
 74
0
 42
0.0000001
 43
0.0000001
 44
0.0000000001
 40
0.0
 40
0.0
 40
0.0
 40
0.0
 40
0.2085926828
 40
0.4044107187
 40
0.5955927889
 40
0.7914116317
 40
1.0
 40
1.0
 40
1.0
 40
1.0
 10
18.6964916438
 20
43.0450811973
 30
0.0
 10
18.6234740174
 20
43.088352525
 30
0.0
 10
18.4749041299
 20
43.1610372418
 30
0.0
 10
18.2393303376
 20
43.2262367059
 30
0.0
 10
17.9989864567
 20
43.2261191586
 30
0.0
 10
17.7631668189
 20
43.1614091739
 30
0.0
 10
17.6152945929
 20
43.0875184555
 30
0.0
 10
17.5417911054
 20
43.0450811973
 30
0.0
  0
SPLINE
  5
50E
100
AcDbEntity
  8
0
100
AcDbSpline
 62
7
  6
BYLAYER
 70
0
 71
3
 72
10
 73
6
 74
0
 42
0.0000001
 43
0.0000001
 44
0.0000000001
 40
0.0
 40
0.0
 40
0.0
 40
0.0
 40
0.3326703605
 40
0.6660037186
 40
1.0
 40
1.0
 40
1.0
 40
1.0
 10
24.397557905
 20
43.5949734778
 30
0.0
 10
24.4186949662
 20
43.0501396475
 30
0.0
 10
24.4609500954
 20
41.9593837861
 30
0.0
 10
24.5242905713
 20
40.3216172909
 30
0.0
 10
24.5664417339
 20
39.2286826153
 30
0.0
 10
24.587522998
 20
38.6816718314
 30
0.0
  0
SPLINE
  5
50F
100
AcDbEntity
  8
0
100
AcDbSpline
 62
7
  6
BYLAYER
 70
0
 71
3
 72
10
 73
6
 74
0
 42
0.0000001
 43
0.0000001
 44
0.0000000001
 40
0.0
 40
0.0
 40
0.0
 40
0.0
 40
0.3339959509
 40
0.6673292757
 40
1.0
 40
1.0
 40
1.0
 40
1.0
 10
27.1148613836
 20
38.6816719514
 30
0.0
 10
27.1359426192
 20
39.2286822489
 30
0.0
 10
27.1780937485
 20
40.3216164381
 30
0.0
 10
27.2414342342
 20
41.9593830964
 30
0.0
 10
27.28368939
 20
43.0501396077
 30
0.0
 10
27.3048264782
 20
43.5949740878
 30
0.0
  0
SPLINE
  5
510
100
AcDbEntity
  8
0
100
AcDbSpline
 62
7
  6
BYLAYER
 70
0
 71
3
 72
11
 73
7
 74
0
 42
0.0000001
 43
0.0000001
 44
0.0000000001
 40
0.0
 40
0.0
 40
0.0
 40
0.0
 40
0.2730917572
 40
0.5289618258
 40
0.7710435255
 40
1.0
 40
1.0
 40
1.0
 40
1.0
 10
24.5873608629
 20
38.6816633929
 30
0.0
 10
24.5880946009
 20
38.6568818706
 30
0.0
 10
24.5965517477
 20
38.6087432797
 30
0.0
 10
24.6296508824
 20
38.5456973817
 30
0.0
 10
24.6804037832
 20
38.5007089827
 30
0.0
 10
24.7237239132
 20
38.489193387
 30
0.0
 10
24.7445095142
 20
38.4891891168
 30
0.0
  0
SPLINE
  5
511
100
AcDbEntity
  8
0
100
AcDbSpline
 62
7
  6
BYLAYER
 70
0
 71
3
 72
11
 73
7
 74
0
 42
0.0000001
 43
0.0000001
 44
0.0000000001
 40
0.0
 40
0.0
 40
0.0
 40
0.0
 40
0.2191742322
 40
0.4521702586
 40
0.7152588417
 40
1.0
 40
1.0
 40
1.0
 40
1.0
 10
26.9578748319
 20
38.4891877917
 30
0.0
 10
26.9777749399
 20
38.489191658
 30
0.0
 10
27.0193405075
 20
38.4997241521
 30
0.0
 10
27.0703697074
 20
38.5426203662
 30
0.0
 10
27.1051928521
 20
38.6059382368
 30
0.0
 10
27.1142600114
 20
38.6558221242
 30
0.0
 10
27.1150249413
 20
38.6816641181
 30
0.0
  0
SPLINE
  5
512
100
AcDbEntity
  8
0
100
AcDbSpline
 62
7
  6
BYLAYER
 70
0
 71
3
 72
11
 73
7
 74
0
 42
0.0000001
 43
0.0000001
 44
0.0000000001
 40
0.0
 40
0.0
 40
0.0
 40
0.0
 40
0.1042199553
 40
0.3208804095
 40
0.6338764347
 40
1.0
 40
1.0
 40
1.0
 40
1.0
 10
5.7511921822
 20
37.2543245764
 30
0.0
 10
5.7511921822
 20
37.261592807
 30
0.0
 10
5.7752620431
 20
37.2760588352
 30
0.0
 10
5.8151066752
 20
37.284875738
 30
0.0
 10
5.8786882325
 20
37.2936191749
 30
0.0
 10
5.9256589674
 20
37.2951154272
 30
0.0
 10
5.9511921822
 20
37.2951154272
 30
0.0
  0
SPLINE
  5
513
100
AcDbEntity
  8
0
100
AcDbSpline
 62
7
  6
BYLAYER
 70
0
 71
3
 72
11
 73
7
 74
0
 42
0.0000001
 43
0.0000001
 44
0.0000000001
 40
0.0
 40
0.0
 40
0.0
 40
0.0
 40
0.3661235653
 40
0.6791195905
 40
0.8957800447
 40
1.0
 40
1.0
 40
1.0
 40
1.0
 10
5.9511921822
 20
40.295115427
 30
0.0
 10
5.9256589674
 20
40.295115427
 30
0.0
 10
5.8786882325
 20
40.2936191746
 30
0.0
 10
5.8151066752
 20
40.2848757378
 30
0.0
 10
5.7752620431
 20
40.276058835
 30
0.0
 10
5.7511921822
 20
40.2615928068
 30
0.0
 10
5.7511921822
 20
40.2543245762
 30
0.0
  0
SPLINE
  5
514
100
AcDbEntity
  8
0
100
AcDbSpline
 62
7
  6
BYLAYER
 70
0
 71
3
 72
22
 73
18
 74
0
 42
0.0000001
 43
0.0000001
 44
0.0000000001
 40
0.0
 40
0.0
 40
0.0
 40
0.0
 40
0.1348452332
 40
0.233319771
 40
0.3073664269
 40
0.363762627
 40
0.4188820199
 40
0.475711601
 40
0.5264312065
 40
0.575583253
 40
0.6247560264
 40
0.669810764
 40
0.7234094115
 40
0.7827247231
 40
0.8384996832
 40
0.9087479647
 40
1.0
 40
1.0
 40
1.0
 40
1.0
 10
23.1512025139
 20
36.7855296462
 30
0.0
 10
23.2412804643
 20
36.9214982118
 30
0.0
 10
23.3807895322
 20
37.1681708944
 30
0.0
 10
23.5226888163
 20
37.5124515719
 30
0.0
 10
23.6041582428
 20
37.7774042144
 30
0.0
 10
23.6544382587
 20
37.9962957604
 30
0.0
 10
23.6868784807
 20
38.1974702832
 30
0.0
 10
23.7035809785
 20
38.3937543566
 30
0.0
 10
23.7032209029
 20
38.5835123791
 30
0.0
 10
23.688427067
 20
38.763340083
 30
0.0
 10
23.6626444435
 20
38.9349493556
 30
0.0
 10
23.6260603059
 20
39.1100469906
 30
0.0
 10
23.5765511096
 20
39.294707675
 30
0.0
 10
23.5116161164
 20
39.4882842491
 30
0.0
 10
23.4272987355
 20
39.6961350069
 30
0.0
 10
23.3123934102
 20
39.9327339655
 30
0.0
 10
23.212115878
 20
40.1007971652
 30
0.0
 10
23.1512025139
 20
40.1928384459
 30
0.0
  0
SPLINE
  5
515
100
AcDbEntity
  8
0
100
AcDbSpline
 62
7
  6
BYLAYER
 70
0
 71
3
 72
10
 73
6
 74
0
 42
0.0000001
 43
0.0000001
 44
0.0000000001
 40
0.0
 40
0.0
 40
0.0
 40
0.0
 40
0.4827556857
 40
0.8055610408
 40
1.0
 40
1.0
 40
1.0
 40
1.0
 10
42.1011921822
 20
33.8538287656
 30
0.0
 10
42.0987134845
 20
33.8245100086
 30
0.0
 10
42.104118202
 20
33.7747777629
 30
0.0
 10
42.0968684372
 20
33.7153080121
 30
0.0
 10
42.1064099049
 20
33.6816230131
 30
0.0
 10
42.1011921822
 20
33.6709826636
 30
0.0
  0
SPLINE
  5
516
100
AcDbEntity
  8
0
100
AcDbSpline
 62
7
  6
BYLAYER
 70
0
 71
3
 72
10
 73
6
 74
0
 42
0.0000001
 43
0.0000001
 44
0.0000000001
 40
0.0
 40
0.0
 40
0.0
 40
0.0
 40
0.299563616
 40
0.6328873433
 40
1.0
 40
1.0
 40
1.0
 40
1.0
 10
42.2253579209
 20
33.6709826636
 30
0.0
 10
42.3020943032
 20
33.6804100501
 30
0.0
 10
42.4637470648
 20
33.7048990616
 30
0.0
 10
42.7151682932
 20
33.7643439125
 30
0.0
 10
42.8873990126
 20
33.8202151388
 30
0.0
 10
42.9759827624
 20
33.8538287656
 30
0.0
  0
SPLINE
  5
517
100
AcDbEntity
  8
0
100
AcDbSpline
 62
7
  6
BYLAYER
 70
0
 71
3
 72
10
 73
6
 74
0
 42
0.0000001
 43
0.0000001
 44
0.0000000001
 40
0.0
 40
0.0
 40
0.0
 40
0.0
 40
0.3671128487
 40
0.7004365763
 40
1.0
 40
1.0
 40
1.0
 40
1.0
 10
40.7264016019
 20
33.8538287656
 30
0.0
 10
40.8149853982
 20
33.8202151216
 30
0.0
 10
40.9872161663
 20
33.7643438831
 30
0.0
 10
41.2386373976
 20
33.7048990451
 30
0.0
 10
41.4002901103
 20
33.6804100428
 30
0.0
 10
41.4770264435
 20
33.6709826636
 30
0.0
  0
SPLINE
  5
518
100
AcDbEntity
  8
0
100
AcDbSpline
 62
7
  6
BYLAYER
 70
0
 71
3
 72
10
 73
6
 74
0
 42
0.0000001
 43
0.0000001
 44
0.0000000001
 40
0.0
 40
0.0
 40
0.0
 40
0.0
 40
0.1944391129
 40
0.5172445324
 40
1.0
 40
1.0
 40
1.0
 40
1.0
 10
41.6011921822
 20
33.6709826636
 30
0.0
 10
41.5959744418
 20
33.6816230149
 30
0.0
 10
41.6055159405
 20
33.7153080401
 30
0.0
 10
41.5982661556
 20
33.7747777831
 30
0.0
 10
41.6036708828
 20
33.8245100222
 30
0.0
 10
41.6011921822
 20
33.8538287656
 30
0.0
  0
LINE
  5
519
100
AcDbEntity
  8
0
100
AcDbLine
 62
7
  6
BYLAYER
 10
42.2253579209
 20
33.6709826636
 11
42.1011922532
 21
33.6709827658
  0
SPLINE
  5
51A
100
AcDbEntity
  8
0
100
AcDbSpline
 62
7
  6
BYLAYER
 70
0
 71
3
 72
10
 73
6
 74
0
 42
0.0000001
 43
0.0000001
 44
0.0000000001
 40
0.0
 40
0.0
 40
0.0
 40
0.0
 40
0.2164906507
 40
0.5483215215
 40
1.0
 40
1.0
 40
1.0
 40
1.0
 10
42.1011922532
 20
33.6709827658
 30
0.0
 10
42.1015322824
 20
33.6841732004
 30
0.0
 10
42.1009164045
 20
33.7176003598
 30
0.0
 10
42.1014587433
 20
33.7785432464
 30
0.0
 10
42.1007926276
 20
33.8263024641
 30
0.0
 10
42.1011921822
 20
33.8538287656
 30
0.0
  0
SPLINE
  5
51B
100
AcDbEntity
  8
0
100
AcDbSpline
 62
7
  6
BYLAYER
 70
0
 71
3
 72
10
 73
6
 74
0
 42
0.0000001
 43
0.0000001
 44
0.0000000001
 40
0.0
 40
0.0
 40
0.0
 40
0.0
 40
0.466447961
 40
0.7940023374
 40
1.0
 40
1.0
 40
1.0
 40
1.0
 10
41.6011921822
 20
33.8538287656
 30
0.0
 10
41.6002596936
 20
33.8254146642
 30
0.0
 10
41.6017020775
 20
33.7769973674
 30
0.0
 10
41.6007427963
 20
33.7160651671
 30
0.0
 10
41.6016831772
 20
33.6835283498
 30
0.0
 10
41.6011921822
 20
33.6709826636
 30
0.0
  0
LINE
  5
51C
100
AcDbEntity
  8
0
100
AcDbLine
 62
7
  6
BYLAYER
 10
41.6011921822
 20
33.6709826636
 11
41.4770246607
 21
33.6709828856
  0
LINE
  5
51D
100
AcDbEntity
  8
0
100
AcDbLine
 62
7
  6
BYLAYER
 10
40.7264016019
 20
33.8538287656
 11
40.7214035097
 21
33.8452606076
  0
LINE
  5
51E
100
AcDbEntity
  8
0
100
AcDbLine
 62
7
  6
BYLAYER
 10
39.8511921822
 20
34.3411848467
 11
43.8511921822
 21
34.3411848467
  0
SPLINE
  5
51F
100
AcDbEntity
  8
0
100
AcDbSpline
 62
7
  6
BYLAYER
 70
0
 71
3
 72
10
 73
6
 74
0
 42
0.0000001
 43
0.0000001
 44
0.0000000001
 40
0.0
 40
0.0
 40
0.0
 40
0.0
 40
0.4827556857
 40
0.8055610408
 40
1.0
 40
1.0
 40
1.0
 40
1.0
 10
20.1011921822
 20
33.8538287656
 30
0.0
 10
20.0987134845
 20
33.8245100086
 30
0.0
 10
20.104118202
 20
33.7747777629
 30
0.0
 10
20.0968684372
 20
33.7153080121
 30
0.0
 10
20.1064099049
 20
33.6816230131
 30
0.0
 10
20.1011921822
 20
33.6709826636
 30
0.0
  0
SPLINE
  5
520
100
AcDbEntity
  8
0
100
AcDbSpline
 62
7
  6
BYLAYER
 70
0
 71
3
 72
10
 73
6
 74
0
 42
0.0000001
 43
0.0000001
 44
0.0000000001
 40
0.0
 40
0.0
 40
0.0
 40
0.0
 40
0.299563616
 40
0.6328873433
 40
1.0
 40
1.0
 40
1.0
 40
1.0
 10
20.2253579209
 20
33.6709826636
 30
0.0
 10
20.3020943032
 20
33.6804100501
 30
0.0
 10
20.4637470648
 20
33.7048990616
 30
0.0
 10
20.7151682932
 20
33.7643439125
 30
0.0
 10
20.8873990126
 20
33.8202151388
 30
0.0
 10
20.9759827624
 20
33.8538287656
 30
0.0
  0
SPLINE
  5
521
100
AcDbEntity
  8
0
100
AcDbSpline
 62
7
  6
BYLAYER
 70
0
 71
3
 72
10
 73
6
 74
0
 42
0.0000001
 43
0.0000001
 44
0.0000000001
 40
0.0
 40
0.0
 40
0.0
 40
0.0
 40
0.3671128487
 40
0.7004365763
 40
1.0
 40
1.0
 40
1.0
 40
1.0
 10
18.7264016019
 20
33.8538287656
 30
0.0
 10
18.8149853982
 20
33.8202151216
 30
0.0
 10
18.9872161663
 20
33.7643438831
 30
0.0
 10
19.2386373976
 20
33.7048990451
 30
0.0
 10
19.4002901103
 20
33.6804100428
 30
0.0
 10
19.4770264435
 20
33.6709826636
 30
0.0
  0
SPLINE
  5
522
100
AcDbEntity
  8
0
100
AcDbSpline
 62
7
  6
BYLAYER
 70
0
 71
3
 72
10
 73
6
 74
0
 42
0.0000001
 43
0.0000001
 44
0.0000000001
 40
0.0
 40
0.0
 40
0.0
 40
0.0
 40
0.1944391129
 40
0.5172445324
 40
1.0
 40
1.0
 40
1.0
 40
1.0
 10
19.6011921822
 20
33.6709826636
 30
0.0
 10
19.5959744418
 20
33.6816230149
 30
0.0
 10
19.6055159405
 20
33.7153080401
 30
0.0
 10
19.5982661556
 20
33.7747777831
 30
0.0
 10
19.6036708828
 20
33.8245100222
 30
0.0
 10
19.6011921822
 20
33.8538287656
 30
0.0
  0
LINE
  5
523
100
AcDbEntity
  8
0
100
AcDbLine
 62
7
  6
BYLAYER
 10
20.2253579209
 20
33.6709826636
 11
20.1011922532
 21
33.6709827658
  0
SPLINE
  5
524
100
AcDbEntity
  8
0
100
AcDbSpline
 62
7
  6
BYLAYER
 70
0
 71
3
 72
10
 73
6
 74
0
 42
0.0000001
 43
0.0000001
 44
0.0000000001
 40
0.0
 40
0.0
 40
0.0
 40
0.0
 40
0.2164906507
 40
0.5483215215
 40
1.0
 40
1.0
 40
1.0
 40
1.0
 10
20.1011922532
 20
33.6709827658
 30
0.0
 10
20.1015322824
 20
33.6841732004
 30
0.0
 10
20.1009164045
 20
33.7176003598
 30
0.0
 10
20.1014587433
 20
33.7785432464
 30
0.0
 10
20.1007926276
 20
33.8263024641
 30
0.0
 10
20.1011921822
 20
33.8538287656
 30
0.0
  0
SPLINE
  5
525
100
AcDbEntity
  8
0
100
AcDbSpline
 62
7
  6
BYLAYER
 70
0
 71
3
 72
10
 73
6
 74
0
 42
0.0000001
 43
0.0000001
 44
0.0000000001
 40
0.0
 40
0.0
 40
0.0
 40
0.0
 40
0.466447961
 40
0.7940023374
 40
1.0
 40
1.0
 40
1.0
 40
1.0
 10
19.6011921822
 20
33.8538287656
 30
0.0
 10
19.6002596936
 20
33.8254146642
 30
0.0
 10
19.6017020775
 20
33.7769973674
 30
0.0
 10
19.6007427963
 20
33.7160651671
 30
0.0
 10
19.6016831772
 20
33.6835283498
 30
0.0
 10
19.6011921822
 20
33.6709826636
 30
0.0
  0
LINE
  5
526
100
AcDbEntity
  8
0
100
AcDbLine
 62
7
  6
BYLAYER
 10
19.6011921822
 20
33.6709826636
 11
19.4770246607
 21
33.6709828856
  0
LINE
  5
527
100
AcDbEntity
  8
0
100
AcDbLine
 62
7
  6
BYLAYER
 10
17.8511921822
 20
34.3411848467
 11
21.8511921822
 21
34.3411848467
  0
ELLIPSE
  5
528
100
AcDbEntity
  8
0
100
AcDbEllipse
 62
7
  6
BYLAYER
 10
42.6923456641
 20
38.4891840461
 30
0.0
 11
-0.0353344788
 21
4.99990192
 31
0.0
 40
0.8863174858
 41
-1.466836831
 42
1.1530159265
  0
ELLIPSE
  5
529
100
AcDbEntity
  8
0
100
AcDbEllipse
 62
7
  6
BYLAYER
 10
33.829075887
 20
38.4891840461
 30
0.0
 11
-0.0353344788
 21
4.99990192
 31
0.0
 40
0.8863174858
 41
-1.165543035
 42
1.4543097226
  0
ELLIPSE
  5
52A
100
AcDbEntity
  8
0
100
AcDbEllipse
 62
7
  6
BYLAYER
 10
42.6923456641
 20
38.4891840461
 30
0.0
 11
-0.0353344788
 21
4.99990192
 31
0.0
 40
0.8863174858
 41
1.9885767271
 42
4.7962473712
  0
ELLIPSE
  5
52B
100
AcDbEntity
  8
0
100
AcDbEllipse
 62
7
  6
BYLAYER
 10
33.829075887
 20
38.4891840461
 30
0.0
 11
-0.0353344788
 21
4.99990192
 31
0.0
 40
0.8863174858
 41
1.4744108275
 42
1.5645327726
  0
ELLIPSE
  5
52C
100
AcDbEntity
  8
0
100
AcDbEllipse
 62
7
  6
BYLAYER
 10
33.829075887
 20
38.4891840461
 30
0.0
 11
0.0353344788
 21
4.99990192
 31
0.0
 40
0.8863174858
 41
-4.7061254261
 42
-1.9760496186
  0
ELLIPSE
  5
52D
100
AcDbEntity
  8
0
100
AcDbEllipse
 62
7
  6
BYLAYER
 10
24.4490598873
 20
38.4391840461
 30
0.0
 11
-0.0046719702
 21
0.499999014
 31
0.0
 40
0.2125388433
 41
-0.0019859516
 42
0.7949960451
  0
ENDSEC
  0
SECTION
  2
OBJECTS
  0
DICTIONARY
  5
C
100
AcDbDictionary
280
0
281
1
  3
ACAD_GROUP
350
D
  3
ACAD_MLINESTYLE
350
17
  3
ACAD_LAYOUT
350
1A
  3
ACAD_PLOTSETTINGS
350
19
  3
ACAD_PLOTSTYLENAME
350
E
  0
DICTIONARY
  5
D
102
{ACAD_REACTORS
330
C
102
}
100
AcDbDictionary
280
0
281
1
  0
ACDBDICTIONARYWDFLT
  5
E
102
{ACAD_REACTORS
330
C
102
}
100
AcDbDictionary
281
1
  3
Normal
350
F
100
AcDbDictionaryWithDefault
340
F
  0
DICTIONARY
  5
17
102
{ACAD_REACTORS
330
C
102
}
100
AcDbDictionary
280
0
281
1
  3
Standard
350
18
  0
DICTIONARY
  5
19
102
{ACAD_REACTORS
330
C
102
}
100
AcDbDictionary
281
1
  0
DICTIONARY
  5
1A
102
{ACAD_REACTORS
330
C
102
}
100
AcDbDictionary
281
1
  3
Model
350
52E
  3
Layout1
350
52F
  0
ACDBPLACEHOLDER
  5
F
102
{ACAD_REACTORS
330
E
102
}
  0
MLINESTYLE
  5
18
102
{ACAD_REACTORS
330
17
102
}
100
AcDbMlineStyle
  2
STANDARD
 70
0
  3

 62
256
 51
90.0
 52
90.0
 71
2
 49
0.5
 62
256
  6
BYLAYER
 49
-0.5
 62
256
  6
BYLAYER
  0
LAYOUT
  5
52E
102
{ACAD_REACTORS
330
1A
102
}
100
AcDbPlotSettings
  1

  2
none_device
  4

  6

 40
0.0
 41
0.0
 42
0.0
 43
0.0
 44
210.0
 45
297.0
 46
0.0
 47
0.0
 48
0.0
 49
0.0
140
0.0
141
0.0
142
1.0
143
1.0
 70
1024
 72
1
 73
0
 74
0
  7

 75
0
147
1.0
148
0.0
149
0.0
100
AcDbLayout
  1
Model
 70
0
 71
0
 10
0.0
 20
0.0
 11
210.0
 21
297.0
 12
0.0
 22
0.0
 32
0.0
 14
0.0
 24
0.0
 34
0.0
 15
0.0
 25
0.0
 35
0.0
146
0.0
 13
0.0
 23
0.0
 33
0.0
 16
1.0
 26
0.0
 36
0.0
 17
0.0
 27
1.0
 37
0.0
 76
0
330
210
345
0
346
0
  0
LAYOUT
  5
52F
102
{ACAD_REACTORS
330
1A
102
}
100
AcDbPlotSettings
  1

  2
none_device
  4

  6

 40
0.0
 41
0.0
 42
0.0
 43
0.0
 44
210.0
 45
297.0
 46
0.0
 47
0.0
 48
0.0
 49
0.0
140
0.0
141
0.0
142
1.0
143
1.0
 70
0
 72
1
 73
0
 74
0
  7

 75
0
147
1.0
148
0.0
149
0.0
100
AcDbLayout
  1
Layout1
 70
0
 71
1
 10
0.0
 20
0.0
 11
210.0
 21
297.0
 12
0.0
 22
0.0
 32
0.0
 14
0.0
 24
0.0
 34
0.0
 15
0.0
 25
0.0
 35
0.0
146
0.0
 13
0.0
 23
0.0
 33
0.0
 16
1.0
 26
0.0
 36
0.0
 17
0.0
 27
1.0
 37
0.0
 76
0
330
211
345
0
346
0
  0
ENDSEC
  0
EOF
