999
DXF file: C:\Users\sesa63760\Dev\_Creo\CAD\MCADPD0005203_3D-CAD\drw0001_5.dxf
999
Pro/ENGINEER 2019471 by Parametric Technology Corporation
  0
SECTION
  2
HEADER
  9
$ACADVER
  1
AC1024
  9
$DWGCODEPAGE
  3
ANSI_1252
  9
$EXTMAX
 10
50.5256648114
 20
71.4577259475
 30
0.0
  9
$EXTMIN
 10
0.0
 20
0.0
 30
0.0
  9
$LIMMIN
 10
0.0
 20
0.0
  9
$LIMMAX
 10
50.5256648114
 20
71.4577259475
  9
$VIEWCTR
 10
25.2628324057
 20
35.7288629738
  9
$VIEWSIZE
 40
71.4577259475
  9
$CLAYER
  8
0
  9
$LTSCALE
 40
4.6579850988
  9
$CELTYPE
  6
BYLAYER
  9
$DIMSCALE
 40
1.0
  9
$DIMASZ
 40
0.6014960097
  9
$DIMEXO
 40
1.0
  9
$DIMDLI
 40
3.2182442501
  9
$DIMEXE
 40
1.0
  9
$DIMCEN
 40
0.7622157434
  9
$DIMLFAC
 40
1.0
  9
$DIMBLK
  1
_FILLED
  9
$DIMALT
 70
0
  9
$DIMALTF
 40
0.0393700787
  9
$DIMTXT
 40
0.8420944135
  9
$DIMTOL
 70
1
  9
$DIMLIM
 70
0
  9
$DIMTFAC
 40
1.0
  9
$DIMTP
 40
0.01
  9
$DIMTM
 40
0.01
  9
$DIMGAP
 40
0.625
  9
$DIMDSEP
 70
46
  9
$AUNITS
 70
0
  9
$PDMODE
 70
3
  9
$PDSIZE
 40
0.3125
  9
$HANDSEED
  5
25D
  9
$TILEMODE
 70
1
  9
$MEASUREMENT
 70
1
  9
$INSUNITS
 70
4
  0
ENDSEC
  0
SECTION
  2
CLASSES
  0
CLASS
  1
ACDBDICTIONARYWDFLT
  2
AcDbDictionaryWithDefault
  3
AutoCAD 2000
 90
0
 91
1
280
0
281
0
  0
CLASS
  1
ACDBPLACEHOLDER
  2
AcDbPlaceHolder
  3
AutoCAD 2000
 90
0
 91
1
280
0
281
0
  0
CLASS
  1
LAYOUT
  2
AcDbLayout
  3
AutoCAD 2000
 90
0
 91
0
280
0
281
0
  0
ENDSEC
  0
SECTION
  2
TABLES
  0
TABLE
  2
VPORT
  5
8
100
AcDbSymbolTable
 70
2
  0
VPORT
  5
1F4
100
AcDbSymbolTableRecord
100
AcDbViewportTableRecord
  2
*ACTIVE
 70
0
 10
0.0
 20
0.0
 11
1.0
 21
1.0
 12
25.2628324057
 22
35.7288629738
 13
0.0
 23
0.0
 14
1.0
 24
1.0
 15
0.0
 25
0.0
 16
0.0
 26
0.0
 36
1.0
 17
0.0
 27
0.0
 37
0.0
 40
71.4577259475
 41
0.7070707071
 42
50.0
 43
0.0
 44
0.0
 50
0.0
 51
0.0
 71
0
 72
100
 73
1
 74
1
 75
0
 76
0
 77
0
 78
0
  0
ENDTAB
  0
TABLE
  2
LTYPE
  5
5
100
AcDbSymbolTable
 70
6
  0
LTYPE
  5
14
100
AcDbSymbolTableRecord
100
AcDbLinetypeTableRecord
  2
BYBLOCK
 70
0
  3

 72
65
 73
0
 40
0.0
  0
LTYPE
  5
15
100
AcDbSymbolTableRecord
100
AcDbLinetypeTableRecord
  2
BYLAYER
 70
0
  3

 72
65
 73
0
 40
0.0
  0
LTYPE
  5
16
100
AcDbSymbolTableRecord
100
AcDbLinetypeTableRecord
  2
CONTINUOUS
 70
64
  3
Solid line
 72
65
 73
0
 40
0.0
  0
LTYPE
  5
1F5
100
AcDbSymbolTableRecord
100
AcDbLinetypeTableRecord
  2
CENTER
 70
64
  3
____ _ ____ _ ____ _ ____ _ ____ _ ____ _ ____
 72
65
 73
4
 40
0.6
 49
0.375
 74
0
 49
-0.075
 74
0
 49
0.075
 74
0
 49
-0.075
 74
0
  0
LTYPE
  5
1F6
100
AcDbSymbolTableRecord
100
AcDbLinetypeTableRecord
  2
HIDDEN
 70
64
  3
- - - - - - - - - - - - - - - - - - - -
 72
65
 73
2
 40
0.2
 49
0.1
 74
0
 49
-0.1
 74
0
  0
LTYPE
  5
1F7
100
AcDbSymbolTableRecord
100
AcDbLinetypeTableRecord
  2
PHANTOM
 70
64
  3
_____ _ _ _____ _ _ _____ _ _ _____
 72
65
 73
6
 40
0.8
 49
0.45
 74
0
 49
-0.05
 74
0
 49
0.1
 74
0
 49
-0.05
 74
0
 49
0.1
 74
0
 49
-0.05
 74
0
  0
LTYPE
  5
1F8
100
AcDbSymbolTableRecord
100
AcDbLinetypeTableRecord
  2
DOT
 70
64
  3
. . . . . . . . . . . . . . . . . . . .
 72
65
 73
2
 40
0.2
 49
0.1
 74
0
 49
-0.1
 74
0
  0
LTYPE
  5
1F9
100
AcDbSymbolTableRecord
100
AcDbLinetypeTableRecord
  2
DASHED
 70
64
  3
- - - - - - - - - - - - - - - - - - - -
 72
65
 73
2
 40
0.2
 49
0.1
 74
0
 49
-0.1
 74
0
  0
ENDTAB
  0
TABLE
  2
LAYER
  5
2
100
AcDbSymbolTable
 70
36
  0
LAYER
  5
10
100
AcDbSymbolTableRecord
100
AcDbLayerTableRecord
  2
0
 70
0
 62
7
  6
CONTINUOUS
370
-3
390
F
  0
LAYER
  5
1FA
100
AcDbSymbolTableRecord
100
AcDbLayerTableRecord
  2
DEFAULT_1
 70
0
 62
7
  6
CENTER
370
-3
390
F
  0
LAYER
  5
1FB
100
AcDbSymbolTableRecord
100
AcDbLayerTableRecord
  2
DEFAULT_2
 70
0
 62
7
  6
HIDDEN
370
-3
390
F
  0
LAYER
  5
1FC
100
AcDbSymbolTableRecord
100
AcDbLayerTableRecord
  2
DEFAULT_3
 70
0
 62
7
  6
PHANTOM
370
-3
390
F
  0
LAYER
  5
1FD
100
AcDbSymbolTableRecord
100
AcDbLayerTableRecord
  2
00_COMPONENTS
 70
0
 62
7
  6
CONTINUOUS
370
-3
390
F
  0
LAYER
  5
1FE
100
AcDbSymbolTableRecord
100
AcDbLayerTableRecord
  2
01_1_DEFAULT_DATUMS
 70
0
 62
7
  6
CONTINUOUS
370
-3
390
F
  0
LAYER
  5
1FF
100
AcDbSymbolTableRecord
100
AcDbLayerTableRecord
  2
01_PLANES
 70
0
 62
7
  6
CONTINUOUS
370
-3
390
F
  0
LAYER
  5
200
100
AcDbSymbolTableRecord
100
AcDbLayerTableRecord
  2
02_COORD_SYS
 70
0
 62
7
  6
CONTINUOUS
370
-3
390
F
  0
LAYER
  5
201
100
AcDbSymbolTableRecord
100
AcDbLayerTableRecord
  2
03_AXES
 70
0
 62
7
  6
CONTINUOUS
370
-3
390
F
  0
LAYER
  5
202
100
AcDbSymbolTableRecord
100
AcDbLayerTableRecord
  2
04_POINTS
 70
0
 62
7
  6
CONTINUOUS
370
-3
390
F
  0
LAYER
  5
203
100
AcDbSymbolTableRecord
100
AcDbLayerTableRecord
  2
05_CURVES
 70
0
 62
7
  6
CONTINUOUS
370
-3
390
F
  0
LAYER
  5
204
100
AcDbSymbolTableRecord
100
AcDbLayerTableRecord
  2
06_SURFS
 70
0
 62
7
  6
CONTINUOUS
370
-3
390
F
  0
LAYER
  5
205
100
AcDbSymbolTableRecord
100
AcDbLayerTableRecord
  2
07_COSMETICS
 70
0
 62
7
  6
CONTINUOUS
370
-3
390
F
  0
LAYER
  5
206
100
AcDbSymbolTableRecord
100
AcDbLayerTableRecord
  2
10_NOTES
 70
0
 62
7
  6
CONTINUOUS
370
-3
390
F
  0
LAYER
  5
207
100
AcDbSymbolTableRecord
100
AcDbLayerTableRecord
  2
11_NOTES_PUB
 70
0
 62
7
  6
CONTINUOUS
370
-3
390
F
  0
LAYER
  5
208
100
AcDbSymbolTableRecord
100
AcDbLayerTableRecord
  2
13_REF_GTOL
 70
0
 62
7
  6
CONTINUOUS
370
-3
390
F
  0
LAYER
  5
209
100
AcDbSymbolTableRecord
100
AcDbLayerTableRecord
  2
16_MISC
 70
0
 62
7
  6
CONTINUOUS
370
-3
390
F
  0
LAYER
  5
20A
100
AcDbSymbolTableRecord
100
AcDbLayerTableRecord
  2
17_NO_PRINT
 70
0
 62
7
  6
CONTINUOUS
370
-3
390
F
  0
LAYER
  5
20B
100
AcDbSymbolTableRecord
100
AcDbLayerTableRecord
  2
18_DATUM_CAMS_JOINTS
 70
0
 62
7
  6
CONTINUOUS
370
-3
390
F
  0
LAYER
  5
20C
100
AcDbSymbolTableRecord
100
AcDbLayerTableRecord
  2
19_DATUM_FUNCTIONAL
 70
0
 62
7
  6
CONTINUOUS
370
-3
390
F
  0
LAYER
  5
20D
100
AcDbSymbolTableRecord
100
AcDbLayerTableRecord
  2
20_DATUM_KINEMATIC_SCHEME
 70
0
 62
7
  6
CONTINUOUS
370
-3
390
F
  0
ENDTAB
  0
TABLE
  2
STYLE
  5
3
100
AcDbSymbolTable
 70
1
  0
STYLE
  5
11
100
AcDbSymbolTableRecord
100
AcDbTextStyleTableRecord
  2
STANDARD
 70
0
 40
0.0
 41
1.0
 50
0.0
 71
0
 42
0.2
  3
ARIAL.TTF
  4

  0
STYLE
  5
20E
100
AcDbSymbolTableRecord
100
AcDbTextStyleTableRecord
  2
TEXTSTYLE_1
 70
0
 40
0.0
 41
0.8
 50
0.0
 71
0
 42
0.2
  3
gdt
  4

  0
ENDTAB
  0
TABLE
  2
VIEW
  5
6
100
AcDbSymbolTable
 70
0
  0
ENDTAB
  0
TABLE
  2
UCS
  5
7
100
AcDbSymbolTable
 70
0
  0
ENDTAB
  0
TABLE
  2
APPID
  5
9
100
AcDbSymbolTable
 70
1
  0
APPID
  5
20F
100
AcDbSymbolTableRecord
100
AcDbRegAppTableRecord
  2
ACAD
 70
0
  0
ENDTAB
  0
TABLE
  2
BLOCK_RECORD
  5
1
100
AcDbSymbolTable
 70
0
  0
BLOCK_RECORD
  5
210
100
AcDbSymbolTableRecord
100
AcDbBlockTableRecord
  2
*Model_Space
  0
BLOCK_RECORD
  5
211
100
AcDbSymbolTableRecord
100
AcDbBlockTableRecord
  2
*Paper_Space
  0
BLOCK_RECORD
  5
212
100
AcDbSymbolTableRecord
100
AcDbBlockTableRecord
  2
_FILLED
  0
ENDTAB
  0
TABLE
  2
DIMSTYLE
  5
A
100
AcDbSymbolTable
 70
1
100
AcDbDimStyleTable
 71
0
  0
DIMSTYLE
105
213
100
AcDbSymbolTableRecord
100
AcDbDimStyleTableRecord
  2
STANDARD
 70
0
  3

  4

 40
1.0
 41
0.6014960097
 42
1.0
 43
0.38
 44
1.0
 45
0.0
 46
0.0
 47
0.01
 48
0.01
140
0.8420944135
141
0.09
142
0.0
143
25.4
144
1.0
145
0.0
146
1.0
147
0.625
 71
1
 72
0
 73
0
 74
0
 75
0
 76
0
 77
1
 78
8
 79
2
170
0
171
1
172
0
173
0
174
0
175
0
176
0
177
0
178
0
270
2
179
2
271
2
272
2
273
2
274
2
275
0
280
0
281
0
282
0
283
1
284
8
285
0
286
0
287
3
288
0
340
11
278
46
341
212
342
212
343
212
344
212
  0
ENDTAB
  0
ENDSEC
  0
SECTION
  2
BLOCKS
  0
BLOCK
  5
20
100
AcDbEntity
  8
0
100
AcDbBlockBegin
  2
*Model_Space
 70
0
 10
0.0
 20
0.0
 30
0.0
  3
*Model_Space
  1

  0
ENDBLK
  5
21
100
AcDbEntity
  8
0
100
AcDbBlockEnd
  0
BLOCK
  5
1C
100
AcDbEntity
  8
0
100
AcDbBlockBegin
  2
*Paper_Space
 70
0
 10
0.0
 20
0.0
 30
0.0
  3
*Paper_Space
  1

  0
ENDBLK
  5
1D
100
AcDbEntity
  8
0
100
AcDbBlockEnd
  0
BLOCK
  5
214
100
AcDbEntity
  8
0
100
AcDbBlockBegin
  2
_FILLED
 70
64
 10
0.0
 20
0.0
  3
_FILLED
  1

  0
SOLID
  5
215
100
AcDbEntity
  8
0
  6
BYBLOCK
 62
0
100
AcDbTrace
 10
0.0
 20
0.0
 11
-1.0
 21
0.25
 12
-1.0
 22
-0.25
 13
-1.0
 23
-0.25
  0
ENDBLK
  5
216
100
AcDbEntity
  8
0
  6
BYBLOCK
 62
0
100
AcDbBlockEnd
  0
ENDSEC
  0
SECTION
  2
ENTITIES
  0
LINE
  5
217
100
AcDbEntity
  8
0
100
AcDbLine
 62
7
  6
BYLAYER
 10
18.7286162622
 20
5.8163265306
 11
28.7286162622
 21
5.8163265306
  0
LINE
  5
218
100
AcDbEntity
  8
0
100
AcDbLine
 62
7
  6
BYLAYER
 10
18.7286162622
 20
7.8163265306
 11
28.7286162622
 21
7.8163265306
  0
LINE
  5
219
100
AcDbEntity
  8
0
100
AcDbLine
 62
7
  6
BYLAYER
 10
24.8286162622
 20
8.3163265306
 11
22.8286162622
 21
8.3163265306
  0
LINE
  5
21A
100
AcDbEntity
  8
0
100
AcDbLine
 62
7
  6
BYLAYER
 10
17.7286162622
 20
18.8163265306
 11
22.7958433288
 21
18.8163265306
  0
LINE
  5
21B
100
AcDbEntity
  8
0
100
AcDbLine
 62
7
  6
BYLAYER
 10
28.9336088721
 20
20.3163265306
 11
24.8286162622
 21
20.3163265306
  0
LINE
  5
21C
100
AcDbEntity
  8
0
100
AcDbLine
 62
7
  6
BYLAYER
 10
22.8286162622
 20
20.3163265306
 11
22.3800199472
 21
20.3163265306
  0
LINE
  5
21D
100
AcDbEntity
  8
0
100
AcDbLine
 62
7
  6
BYLAYER
 10
15.7286162622
 20
62.8163265306
 11
15.7286162622
 21
8.8163265306
  0
LINE
  5
21E
100
AcDbEntity
  8
0
100
AcDbLine
 62
7
  6
BYLAYER
 10
17.7286162622
 20
62.8163265306
 11
17.7286162622
 21
8.8163265306
  0
LINE
  5
21F
100
AcDbEntity
  8
0
100
AcDbLine
 62
7
  6
BYLAYER
 10
24.9232037091
 20
27.3163265306
 11
25.3390270907
 21
27.3163265306
  0
LINE
  5
220
100
AcDbEntity
  8
0
100
AcDbLine
 62
7
  6
BYLAYER
 10
35.7806420772
 20
27.3163265306
 11
36.1964654588
 21
27.3163265306
  0
LINE
  5
221
100
AcDbEntity
  8
0
100
AcDbLine
 62
7
  6
BYLAYER
 10
18.1048811897
 20
52.8163265306
 11
18.1048811897
 21
18.8163265306
  0
LINE
  5
222
100
AcDbEntity
  8
0
100
AcDbLine
 62
7
  6
BYLAYER
 10
22.3800199472
 20
18.8163265306
 11
22.3800199472
 21
20.3163265306
  0
LINE
  5
223
100
AcDbEntity
  8
0
100
AcDbLine
 62
7
  6
BYLAYER
 10
22.3800199472
 20
51.3163265306
 11
22.3800199472
 21
52.8163265306
  0
LINE
  5
224
100
AcDbEntity
  8
0
100
AcDbLine
 62
7
  6
BYLAYER
 10
22.7958433288
 20
18.8163265306
 11
22.7958433288
 21
20.3163265306
  0
LINE
  5
225
100
AcDbEntity
  8
0
100
AcDbLine
 62
7
  6
BYLAYER
 10
22.7958433288
 20
51.3163265306
 11
22.7958433288
 21
52.8163265306
  0
LINE
  5
226
100
AcDbEntity
  8
0
100
AcDbLine
 62
7
  6
BYLAYER
 10
22.8286162622
 20
7.8163265306
 11
22.8286162622
 21
63.8163265306
  0
LINE
  5
227
100
AcDbEntity
  8
0
100
AcDbLine
 62
7
  6
BYLAYER
 10
24.8286162622
 20
7.8163265306
 11
24.8286162622
 21
63.8163265306
  0
LINE
  5
228
100
AcDbEntity
  8
0
100
AcDbLine
 62
7
  6
BYLAYER
 10
24.9232037091
 20
44.3163265306
 11
24.9232037091
 21
27.3163265306
  0
LINE
  5
229
100
AcDbEntity
  8
0
100
AcDbLine
 62
7
  6
BYLAYER
 10
25.3390270907
 20
44.3163265306
 11
25.3390270907
 21
27.3163265306
  0
LINE
  5
22A
100
AcDbEntity
  8
0
100
AcDbLine
 62
7
  6
BYLAYER
 10
26.7286162622
 20
5.8163265306
 11
26.7286162622
 21
7.8163265306
  0
LINE
  5
22B
100
AcDbEntity
  8
0
100
AcDbLine
 62
7
  6
BYLAYER
 10
26.7286162622
 20
63.8163265306
 11
26.7286162622
 21
65.8163265306
  0
LINE
  5
22C
100
AcDbEntity
  8
0
100
AcDbLine
 62
7
  6
BYLAYER
 10
28.7286162622
 20
65.8163265306
 11
28.7286162622
 21
63.8163265306
  0
LINE
  5
22D
100
AcDbEntity
  8
0
100
AcDbLine
 62
7
  6
BYLAYER
 10
28.7286162622
 20
7.8163265306
 11
28.7286162622
 21
5.8163265306
  0
LINE
  5
22E
100
AcDbEntity
  8
0
100
AcDbLine
 62
7
  6
BYLAYER
 10
32.9440140351
 20
44.3163265306
 11
32.9440140351
 21
27.3163265306
  0
LINE
  5
22F
100
AcDbEntity
  8
0
100
AcDbLine
 62
7
  6
BYLAYER
 10
36.1964654588
 20
44.3163265306
 11
35.7806420772
 21
44.3163265306
  0
LINE
  5
230
100
AcDbEntity
  8
0
100
AcDbLine
 62
7
  6
BYLAYER
 10
25.3390270907
 20
44.3163265306
 11
24.9232037091
 21
44.3163265306
  0
LINE
  5
231
100
AcDbEntity
  8
0
100
AcDbLine
 62
7
  6
BYLAYER
 10
35.7806420772
 20
27.3163265306
 11
35.7806420772
 21
44.3163265306
  0
LINE
  5
232
100
AcDbEntity
  8
0
100
AcDbLine
 62
7
  6
BYLAYER
 10
36.1964654588
 20
27.3163265307
 11
36.1964654588
 21
44.3163265306
  0
LINE
  5
233
100
AcDbEntity
  8
0
100
AcDbLine
 62
7
  6
BYLAYER
 10
28.9257726877
 20
48.3933746709
 11
28.9347593093
 21
48.3943401891
  0
LINE
  5
234
100
AcDbEntity
  8
0
100
AcDbLine
 62
7
  6
BYLAYER
 10
28.9257726877
 20
48.3933746709
 11
28.9348080736
 21
48.3938605903
  0
LINE
  5
235
100
AcDbEntity
  8
0
100
AcDbLine
 62
7
  6
BYLAYER
 10
28.9336088721
 20
51.3163265306
 11
24.8286162622
 21
51.3163265306
  0
LINE
  5
236
100
AcDbEntity
  8
0
100
AcDbLine
 62
7
  6
BYLAYER
 10
22.8286162622
 20
51.3163265306
 11
22.3800199472
 21
51.3163265306
  0
LINE
  5
237
100
AcDbEntity
  8
0
100
AcDbLine
 62
7
  6
BYLAYER
 10
22.7958433288
 20
52.8163265306
 11
17.7286162622
 21
52.8163265306
  0
LINE
  5
238
100
AcDbEntity
  8
0
100
AcDbLine
 62
7
  6
BYLAYER
 10
24.8286162622
 20
63.3163265306
 11
22.8286162622
 21
63.3163265306
  0
LINE
  5
239
100
AcDbEntity
  8
0
100
AcDbLine
 62
7
  6
BYLAYER
 10
18.7286162622
 20
63.8163265306
 11
28.7286162622
 21
63.8163265306
  0
LINE
  5
23A
100
AcDbEntity
  8
0
100
AcDbLine
 62
7
  6
BYLAYER
 10
28.7286162622
 20
65.8163265306
 11
18.7286162622
 21
65.8163265306
  0
ARC
  5
23B
100
AcDbEntity
  8
0
100
AcDbCircle
 62
7
  6
BYLAYER
 10
29.3489615338
 20
44.4960081612
 40
3.9202750008
100
AcDbArc
 50
93.0375262758
 51
96.0649870691
  0
ARC
  5
23C
100
AcDbEntity
  8
0
100
AcDbCircle
 62
7
  6
BYLAYER
 10
29.3489175789
 20
27.1359136907
 40
3.9195431748
100
AcDbArc
 50
263.9568221187
 51
266.9627587983
  0
ARC
  5
23D
100
AcDbEntity
  8
0
100
AcDbCircle
 62
7
  6
BYLAYER
 10
18.7286162622
 20
62.8163265306
 40
3.0
100
AcDbArc
 50
90.0
 51
180.0
  0
ARC
  5
23E
100
AcDbEntity
  8
0
100
AcDbCircle
 62
7
  6
BYLAYER
 10
18.7286162622
 20
8.8163265306
 40
3.0
100
AcDbArc
 50
180.0
 51
270.0
  0
ARC
  5
23F
100
AcDbEntity
  8
0
100
AcDbCircle
 62
7
  6
BYLAYER
 10
21.526511608
 20
27.7784691156
 40
1.0623905006
100
AcDbArc
 50
248.9322257989
 51
258.411580121
  0
ARC
  5
240
100
AcDbEntity
  8
0
100
AcDbCircle
 62
7
  6
BYLAYER
 10
21.526511608
 20
43.7784691156
 40
1.0623905006
100
AcDbArc
 50
248.9322257989
 51
258.411580121
  0
ARC
  5
241
100
AcDbEntity
  8
0
100
AcDbCircle
 62
7
  6
BYLAYER
 10
21.5265122471
 20
27.8542489398
 40
1.0623289517
100
AcDbArc
 50
101.5657357925
 51
111.0210259037
  0
ARC
  5
242
100
AcDbEntity
  8
0
100
AcDbCircle
 62
7
  6
BYLAYER
 10
21.5265122471
 20
43.8542489398
 40
1.0623289517
100
AcDbArc
 50
101.5657357925
 51
111.0210259037
  0
ARC
  5
243
100
AcDbEntity
  8
0
100
AcDbCircle
 62
7
  6
BYLAYER
 10
18.7286162622
 20
62.8163265306
 40
1.0
100
AcDbArc
 50
90.0
 51
180.0
  0
ARC
  5
244
100
AcDbEntity
  8
0
100
AcDbCircle
 62
7
  6
BYLAYER
 10
18.7286162622
 20
8.8163265306
 40
1.0
100
AcDbArc
 50
180.0
 51
270.0
  0
SPLINE
  5
245
100
AcDbEntity
  8
0
100
AcDbSpline
 62
7
  6
BYLAYER
 70
0
 71
3
 72
11
 73
7
 74
0
 42
0.0000001
 43
0.0000001
 44
0.0000000001
 40
0.0
 40
0.0
 40
0.0
 40
0.0
 40
0.2477946631
 40
0.4971977011
 40
0.7481250555
 40
1.0
 40
1.0
 40
1.0
 40
1.0
 10
21.1446119541
 20
26.7870931878
 30
0.0
 10
21.043203915
 20
26.8261642999
 30
0.0
 10
20.8506697945
 20
26.936881158
 30
0.0
 10
20.6252236404
 20
27.1818851334
 30
0.0
 10
20.481202043
 20
27.4839629335
 30
0.0
 10
20.448289087
 20
27.7058625771
 30
0.0
 10
20.448289087
 20
27.8163265306
 30
0.0
  0
SPLINE
  5
246
100
AcDbEntity
  8
0
100
AcDbSpline
 62
7
  6
BYLAYER
 70
0
 71
3
 72
15
 73
11
 74
0
 42
0.0000001
 43
0.0000001
 44
0.0000000001
 40
0.0
 40
0.0
 40
0.0
 40
0.0
 40
0.1236364181
 40
0.2474858516
 40
0.3717149711
 40
0.4964478187
 40
0.6217208433
 40
0.7474683804
 40
0.8737119414
 40
1.0
 40
1.0
 40
1.0
 40
1.0
 10
21.1084280759
 20
26.7163536615
 30
0.0
 10
21.1787474726
 20
26.7163527958
 30
0.0
 10
21.3199140198
 20
26.7305523821
 30
0.0
 10
21.5231149319
 20
26.7936347502
 30
0.0
 10
21.7103893435
 20
26.8960680116
 30
0.0
 10
21.8744455316
 20
27.0338344634
 30
0.0
 10
22.00903141
 20
27.201593171
 30
0.0
 10
22.1090367193
 20
27.3929821766
 30
0.0
 10
22.1704826256
 20
27.6004972596
 30
0.0
 10
22.184390427
 20
27.7444989881
 30
0.0
 10
22.184390427
 20
27.8163265306
 30
0.0
  0
SPLINE
  5
247
100
AcDbEntity
  8
0
100
AcDbSpline
 62
7
  6
BYLAYER
 70
0
 71
3
 72
18
 73
14
 74
0
 42
0.0000001
 43
0.0000001
 44
0.0000000001
 40
0.0
 40
0.0
 40
0.0
 40
0.0
 40
0.1235742603
 40
0.2474239121
 40
0.3095623599
 40
0.3718161844
 40
0.4341910103
 40
0.4966916392
 40
0.6219398953
 40
0.7476275381
 40
0.8106688959
 40
0.8738021181
 40
1.0
 40
1.0
 40
1.0
 40
1.0
 10
28.9362762989
 20
23.2381520417
 30
0.0
 10
28.6925433059
 20
23.2639600409
 30
0.0
 10
28.2082473381
 20
23.3617051007
 30
0.0
 10
27.6361290385
 20
23.5945426663
 30
0.0
 10
27.2097062827
 20
23.841876477
 30
0.0
 10
26.907395651
 20
24.0568877846
 30
0.0
 10
26.6255959151
 20
24.2992567814
 30
0.0
 10
26.280373973
 20
24.6563445961
 30
0.0
 10
25.9112961147
 20
25.1611675196
 30
0.0
 10
25.6391100378
 20
25.725269203
 30
0.0
 10
25.4844460768
 20
26.2009117087
 30
0.0
 10
25.3729264221
 20
26.6893785992
 30
0.0
 10
25.3390270907
 20
27.0660273323
 30
0.0
 10
25.3390270907
 20
27.3163265306
 30
0.0
  0
SPLINE
  5
248
100
AcDbEntity
  8
0
100
AcDbSpline
 62
7
  6
BYLAYER
 70
0
 71
3
 72
15
 73
11
 74
0
 42
0.0000001
 43
0.0000001
 44
0.0000000001
 40
0.0
 40
0.0
 40
0.0
 40
0.0
 40
0.1236404636
 40
0.2474892711
 40
0.3717225941
 40
0.4964546527
 40
0.6217270895
 40
0.7474945324
 40
0.8736516736
 40
1.0
 40
1.0
 40
1.0
 40
1.0
 10
28.9336088649
 20
23.2163571248
 30
0.0
 10
29.1957198928
 20
23.2163565376
 30
0.0
 10
29.7218980582
 20
23.2693214903
 30
0.0
 10
30.4792903831
 20
23.5044867176
 30
0.0
 10
31.177352349
 20
23.8862379889
 30
0.0
 10
31.7888577753
 20
24.3997359667
 30
0.0
 10
32.2904566358
 20
25.0251217453
 30
0.0
 10
32.6630663704
 20
25.738376565
 30
0.0
 10
32.8923933248
 20
26.5117569076
 30
0.0
 10
32.9440140351
 20
27.0484749815
 30
0.0
 10
32.9440140351
 20
27.3163265305
 30
0.0
  0
SPLINE
  5
249
100
AcDbEntity
  8
0
100
AcDbSpline
 62
7
  6
BYLAYER
 70
0
 71
3
 72
11
 73
7
 74
0
 42
0.0000001
 43
0.0000001
 44
0.0000000001
 40
0.0
 40
0.0
 40
0.0
 40
0.0
 40
0.2477946631
 40
0.4971977011
 40
0.7481250555
 40
1.0
 40
1.0
 40
1.0
 40
1.0
 10
21.1446119541
 20
42.7870931878
 30
0.0
 10
21.043203915
 20
42.8261642999
 30
0.0
 10
20.8506697945
 20
42.936881158
 30
0.0
 10
20.6252236404
 20
43.1818851334
 30
0.0
 10
20.481202043
 20
43.4839629335
 30
0.0
 10
20.448289087
 20
43.7058625771
 30
0.0
 10
20.448289087
 20
43.8163265306
 30
0.0
  0
SPLINE
  5
24A
100
AcDbEntity
  8
0
100
AcDbSpline
 62
7
  6
BYLAYER
 70
0
 71
3
 72
15
 73
11
 74
0
 42
0.0000001
 43
0.0000001
 44
0.0000000001
 40
0.0
 40
0.0
 40
0.0
 40
0.0
 40
0.1236364181
 40
0.2474858516
 40
0.3717149711
 40
0.4964478187
 40
0.6217208433
 40
0.7474683804
 40
0.8737119414
 40
1.0
 40
1.0
 40
1.0
 40
1.0
 10
21.1084280759
 20
42.7163536615
 30
0.0
 10
21.1787474726
 20
42.7163527958
 30
0.0
 10
21.3199140198
 20
42.7305523821
 30
0.0
 10
21.5231149319
 20
42.7936347502
 30
0.0
 10
21.7103893435
 20
42.8960680116
 30
0.0
 10
21.8744455316
 20
43.0338344634
 30
0.0
 10
22.00903141
 20
43.201593171
 30
0.0
 10
22.1090367193
 20
43.3929821766
 30
0.0
 10
22.1704826256
 20
43.6004972596
 30
0.0
 10
22.184390427
 20
43.7444989881
 30
0.0
 10
22.184390427
 20
43.8163265306
 30
0.0
  0
SPLINE
  5
24B
100
AcDbEntity
  8
0
100
AcDbSpline
 62
7
  6
BYLAYER
 70
0
 71
3
 72
11
 73
7
 74
0
 42
0.0000001
 43
0.0000001
 44
0.0000000001
 40
0.0
 40
0.0
 40
0.0
 40
0.0
 40
0.251881769
 40
0.5028026948
 40
0.7522011367
 40
1.0
 40
1.0
 40
1.0
 40
1.0
 10
20.448289087
 20
27.8163265306
 30
0.0
 10
20.448289087
 20
27.9268673874
 30
0.0
 10
20.48124671
 20
28.1489179456
 30
0.0
 10
20.6254607656
 20
28.4511568508
 30
0.0
 10
20.851183652
 20
28.6962141081
 30
0.0
 10
21.0439333732
 20
28.8068657224
 30
0.0
 10
21.1454436737
 20
28.8458786811
 30
0.0
  0
SPLINE
  5
24C
100
AcDbEntity
  8
0
100
AcDbSpline
 62
7
  6
BYLAYER
 70
0
 71
3
 72
18
 73
14
 74
0
 42
0.0000001
 43
0.0000001
 44
0.0000000001
 40
0.0
 40
0.0
 40
0.0
 40
0.0
 40
0.1261945501
 40
0.1893252177
 40
0.2523644494
 40
0.3780499303
 40
0.5032976021
 40
0.5657985938
 40
0.6281744902
 40
0.6904298231
 40
0.7525700774
 40
0.8764237073
 40
1.0
 40
1.0
 40
1.0
 40
1.0
 10
25.3390270907
 20
44.3163265306
 30
0.0
 10
25.3390270907
 20
44.5661761688
 30
0.0
 10
25.3728026251
 20
44.9421427537
 30
0.0
 10
25.4839241392
 20
45.4297728933
 30
0.0
 10
25.6380384212
 20
45.9046465951
 30
0.0
 10
25.9092720351
 20
46.4679516822
 30
0.0
 10
26.2771065139
 20
46.9722892648
 30
0.0
 10
26.6212142973
 20
47.3292303279
 30
0.0
 10
26.9021377384
 20
47.5716144828
 30
0.0
 10
27.2035411844
 20
47.7867791368
 30
0.0
 10
27.6287469817
 20
48.0344950258
 30
0.0
 10
28.1993458984
 20
48.268166321
 30
0.0
 10
28.6825372443
 20
48.3669572823
 30
0.0
 10
28.9257726877
 20
48.3933746709
 30
0.0
  0
SPLINE
  5
24D
100
AcDbEntity
  8
0
100
AcDbSpline
 62
7
  6
BYLAYER
 70
0
 71
3
 72
11
 73
7
 74
0
 42
0.0000001
 43
0.0000001
 44
0.0000000001
 40
0.0
 40
0.0
 40
0.0
 40
0.0
 40
0.251881769
 40
0.5028026948
 40
0.7522011367
 40
1.0
 40
1.0
 40
1.0
 40
1.0
 10
20.448289087
 20
43.8163265306
 30
0.0
 10
20.448289087
 20
43.9268673874
 30
0.0
 10
20.48124671
 20
44.1489179456
 30
0.0
 10
20.6254607656
 20
44.4511568508
 30
0.0
 10
20.851183652
 20
44.6962141081
 30
0.0
 10
21.0439333732
 20
44.8068657224
 30
0.0
 10
21.1454436737
 20
44.8458786811
 30
0.0
  0
SPLINE
  5
24E
100
AcDbEntity
  8
0
100
AcDbSpline
 62
7
  6
BYLAYER
 70
0
 71
3
 72
15
 73
11
 74
0
 42
0.0000001
 43
0.0000001
 44
0.0000000001
 40
0.0
 40
0.0
 40
0.0
 40
0.0
 40
0.1236463895
 40
0.2474919579
 40
0.3717277954
 40
0.496461173
 40
0.6217332528
 40
0.7475033405
 40
0.8736449412
 40
1.0
 40
1.0
 40
1.0
 40
1.0
 10
29.3494322537
 20
20.3163265306
 30
0.0
 10
29.7969615021
 20
20.3163265306
 30
0.0
 10
30.6953309828
 20
20.4067436101
 30
0.0
 10
31.9884414703
 20
20.8083101564
 30
0.0
 10
33.1802683043
 20
21.4600695014
 30
0.0
 10
34.2242734503
 20
22.3368296616
 30
0.0
 10
35.0807038677
 20
23.4045521073
 30
0.0
 10
35.7167588073
 20
24.6223088086
 30
0.0
 10
36.1083722121
 20
25.9426661324
 30
0.0
 10
36.1964654588
 20
26.858993448
 30
0.0
 10
36.1964654588
 20
27.3163265307
 30
0.0
  0
SPLINE
  5
24F
100
AcDbEntity
  8
0
100
AcDbSpline
 62
7
  6
BYLAYER
 70
0
 71
3
 72
15
 73
11
 74
0
 42
0.0000001
 43
0.0000001
 44
0.0000000001
 40
0.0
 40
0.0
 40
0.0
 40
0.0
 40
0.126355051
 40
0.2524966455
 40
0.3782667298
 40
0.5035388085
 40
0.6282721873
 40
0.7525080284
 40
0.8763536028
 40
1.0
 40
1.0
 40
1.0
 40
1.0
 10
36.1964654588
 20
44.3163265306
 30
0.0
 10
36.1964654588
 20
44.7736595851
 30
0.0
 10
36.108372224
 20
45.6899868499
 30
0.0
 10
35.7167588576
 20
47.0103441183
 30
0.0
 10
35.0807039662
 20
48.2281008003
 30
0.0
 10
34.2242735862
 20
49.2958232605
 30
0.0
 10
33.1802684548
 20
50.1725834587
 30
0.0
 10
31.9884416021
 20
50.8243428532
 30
0.0
 10
30.6953310604
 20
51.2259094389
 30
0.0
 10
29.7969615296
 20
51.3163265306
 30
0.0
 10
29.3494322537
 20
51.3163265306
 30
0.0
  0
SPLINE
  5
250
100
AcDbEntity
  8
0
100
AcDbSpline
 62
7
  6
BYLAYER
 70
0
 71
3
 72
15
 73
11
 74
0
 42
0.0000001
 43
0.0000001
 44
0.0000000001
 40
0.0
 40
0.0
 40
0.0
 40
0.0
 40
0.1262906841
 40
0.2525305187
 40
0.378272898
 40
0.5035423447
 40
0.6282733061
 40
0.7525038875
 40
0.8763585101
 40
1.0
 40
1.0
 40
1.0
 40
1.0
 10
22.184390427
 20
43.8163265306
 30
0.0
 10
22.184390427
 20
43.8881556255
 30
0.0
 10
22.1704831134
 20
44.0321568439
 30
0.0
 10
22.1090384229
 20
44.2396689887
 30
0.0
 10
22.0090349205
 20
44.4310505345
 30
0.0
 10
21.874460246
 20
44.5988105256
 30
0.0
 10
21.7104047682
 20
44.7365756055
 30
0.0
 10
21.5231286797
 20
44.8390100192
 30
0.0
 10
21.3199236094
 20
44.9021045039
 30
0.0
 10
21.1787503956
 20
44.916298534
 30
0.0
 10
21.1084280565
 20
44.9162993997
 30
0.0
  0
SPLINE
  5
251
100
AcDbEntity
  8
0
100
AcDbSpline
 62
7
  6
BYLAYER
 70
0
 71
3
 72
15
 73
11
 74
0
 42
0.0000001
 43
0.0000001
 44
0.0000000001
 40
0.0
 40
0.0
 40
0.0
 40
0.0
 40
0.1263473148
 40
0.2525017918
 40
0.3782677863
 40
0.5035392054
 40
0.6282720664
 40
0.7525074043
 40
0.8763582925
 40
1.0
 40
1.0
 40
1.0
 40
1.0
 10
32.9440140351
 20
44.3163265307
 30
0.0
 10
32.9440140351
 20
44.5841760105
 30
0.0
 10
32.8923958931
 20
45.1208866459
 30
0.0
 10
32.6630731177
 20
45.8942567283
 30
0.0
 10
32.2904764159
 20
46.6075060945
 30
0.0
 10
31.7888840743
 20
47.232892926
 30
0.0
 10
31.1773803866
 20
47.7463993745
 30
0.0
 10
30.4793107861
 20
48.128159215
 30
0.0
 10
29.7219080601
 20
48.3633311857
 30
0.0
 10
29.1957226175
 20
48.4162953493
 30
0.0
 10
28.9336088792
 20
48.4162959364
 30
0.0
  0
SPLINE
  5
252
100
AcDbEntity
  8
0
100
AcDbSpline
 62
7
  6
BYLAYER
 70
0
 71
3
 72
15
 73
11
 74
0
 42
0.0000001
 43
0.0000001
 44
0.0000000001
 40
0.0
 40
0.0
 40
0.0
 40
0.0
 40
0.1262906841
 40
0.2525305187
 40
0.378272898
 40
0.5035423447
 40
0.6282733061
 40
0.7525038875
 40
0.8763585101
 40
1.0
 40
1.0
 40
1.0
 40
1.0
 10
22.184390427
 20
27.8163265306
 30
0.0
 10
22.184390427
 20
27.8881556255
 30
0.0
 10
22.1704831134
 20
28.0321568439
 30
0.0
 10
22.1090384229
 20
28.2396689887
 30
0.0
 10
22.0090349205
 20
28.4310505345
 30
0.0
 10
21.874460246
 20
28.5988105256
 30
0.0
 10
21.7104047682
 20
28.7365756055
 30
0.0
 10
21.5231286797
 20
28.8390100192
 30
0.0
 10
21.3199236094
 20
28.9021045039
 30
0.0
 10
21.1787503956
 20
28.916298534
 30
0.0
 10
21.1084280565
 20
28.9162993997
 30
0.0
  0
SPLINE
  5
253
100
AcDbEntity
  8
0
100
AcDbSpline
 62
7
  6
BYLAYER
 70
0
 71
3
 72
15
 73
11
 74
0
 42
0.0000001
 43
0.0000001
 44
0.0000000001
 40
0.0
 40
0.0
 40
0.0
 40
0.0
 40
0.1236364181
 40
0.2474858516
 40
0.3717149711
 40
0.4964478187
 40
0.6217208433
 40
0.7474683804
 40
0.8737119414
 40
1.0
 40
1.0
 40
1.0
 40
1.0
 10
21.1084280565
 20
28.9162993997
 30
0.0
 10
21.0381086598
 20
28.9163002654
 30
0.0
 10
20.8969421126
 20
28.9021006791
 30
0.0
 10
20.6937412005
 20
28.8390183111
 30
0.0
 10
20.5064667889
 20
28.7365850496
 30
0.0
 10
20.3424106008
 20
28.5988185978
 30
0.0
 10
20.2078247224
 20
28.4310598903
 30
0.0
 10
20.1078194131
 20
28.2396708846
 30
0.0
 10
20.0463735068
 20
28.0321558016
 30
0.0
 10
20.0324657054
 20
27.8881540732
 30
0.0
 10
20.0324657054
 20
27.8163265306
 30
0.0
  0
SPLINE
  5
254
100
AcDbEntity
  8
0
100
AcDbSpline
 62
7
  6
BYLAYER
 70
0
 71
3
 72
15
 73
11
 74
0
 42
0.0000001
 43
0.0000001
 44
0.0000000001
 40
0.0
 40
0.0
 40
0.0
 40
0.0
 40
0.1236463895
 40
0.2474919579
 40
0.3717277954
 40
0.496461173
 40
0.6217332528
 40
0.7475033405
 40
0.8736449412
 40
1.0
 40
1.0
 40
1.0
 40
1.0
 10
28.9336088721
 20
51.3163265306
 30
0.0
 10
29.3811381204
 20
51.3163265306
 30
0.0
 10
30.2795076012
 20
51.2259094512
 30
0.0
 10
31.5726180886
 20
50.8243429049
 30
0.0
 10
32.7644449226
 20
50.1725835598
 30
0.0
 10
33.8084500686
 20
49.2958233997
 30
0.0
 10
34.664880486
 20
48.228100954
 30
0.0
 10
35.3009354257
 20
47.0103442527
 30
0.0
 10
35.6925488304
 20
45.6899869289
 30
0.0
 10
35.7806420772
 20
44.7736596133
 30
0.0
 10
35.7806420772
 20
44.3163265307
 30
0.0
  0
SPLINE
  5
255
100
AcDbEntity
  8
0
100
AcDbSpline
 62
7
  6
BYLAYER
 70
0
 71
3
 72
15
 73
11
 74
0
 42
0.0000001
 43
0.0000001
 44
0.0000000001
 40
0.0
 40
0.0
 40
0.0
 40
0.0
 40
0.126355051
 40
0.2524966455
 40
0.3782667298
 40
0.5035388085
 40
0.6282721873
 40
0.7525080284
 40
0.8763536028
 40
1.0
 40
1.0
 40
1.0
 40
1.0
 10
35.7806420772
 20
27.3163265305
 30
0.0
 10
35.7806420772
 20
26.858993476
 30
0.0
 10
35.6925488423
 20
25.9426662112
 30
0.0
 10
35.3009354759
 20
24.6223089428
 30
0.0
 10
34.6648805845
 20
23.4045522608
 30
0.0
 10
33.8084502045
 20
22.3368298007
 30
0.0
 10
32.7644450731
 20
21.4600696025
 30
0.0
 10
31.5726182204
 20
20.8083102081
 30
0.0
 10
30.2795076787
 20
20.4067436223
 30
0.0
 10
29.381138148
 20
20.3163265306
 30
0.0
 10
28.9336088721
 20
20.3163265306
 30
0.0
  0
SPLINE
  5
256
100
AcDbEntity
  8
0
100
AcDbSpline
 62
7
  6
BYLAYER
 70
0
 71
3
 72
15
 73
11
 74
0
 42
0.0000001
 43
0.0000001
 44
0.0000000001
 40
0.0
 40
0.0
 40
0.0
 40
0.0
 40
0.1236364181
 40
0.2474858516
 40
0.3717149711
 40
0.4964478187
 40
0.6217208433
 40
0.7474683804
 40
0.8737119414
 40
1.0
 40
1.0
 40
1.0
 40
1.0
 10
21.1084280565
 20
44.9162993997
 30
0.0
 10
21.0381086598
 20
44.9163002654
 30
0.0
 10
20.8969421126
 20
44.9021006791
 30
0.0
 10
20.6937412005
 20
44.8390183111
 30
0.0
 10
20.5064667889
 20
44.7365850496
 30
0.0
 10
20.3424106008
 20
44.5988185978
 30
0.0
 10
20.2078247224
 20
44.4310598903
 30
0.0
 10
20.1078194131
 20
44.2396708846
 30
0.0
 10
20.0463735068
 20
44.0321558016
 30
0.0
 10
20.0324657054
 20
43.8881540732
 30
0.0
 10
20.0324657054
 20
43.8163265306
 30
0.0
  0
SPLINE
  5
257
100
AcDbEntity
  8
0
100
AcDbSpline
 62
7
  6
BYLAYER
 70
0
 71
3
 72
15
 73
11
 74
0
 42
0.0000001
 43
0.0000001
 44
0.0000000001
 40
0.0
 40
0.0
 40
0.0
 40
0.0
 40
0.1262906841
 40
0.2525305187
 40
0.378272898
 40
0.5035423447
 40
0.6282733061
 40
0.7525038875
 40
0.8763585101
 40
1.0
 40
1.0
 40
1.0
 40
1.0
 10
20.0324657054
 20
43.8163265306
 30
0.0
 10
20.0324657054
 20
43.7444974357
 30
0.0
 10
20.046373019
 20
43.6004962174
 30
0.0
 10
20.1078177095
 20
43.3929840725
 30
0.0
 10
20.2078212119
 20
43.2016025267
 30
0.0
 10
20.3423958864
 20
43.0338425356
 30
0.0
 10
20.5064513642
 20
42.8960774558
 30
0.0
 10
20.6937274527
 20
42.793643042
 30
0.0
 10
20.896932523
 20
42.7305485573
 30
0.0
 10
21.0381057368
 20
42.7163545272
 30
0.0
 10
21.1084280759
 20
42.7163536615
 30
0.0
  0
SPLINE
  5
258
100
AcDbEntity
  8
0
100
AcDbSpline
 62
7
  6
BYLAYER
 70
0
 71
3
 72
15
 73
11
 74
0
 42
0.0000001
 43
0.0000001
 44
0.0000000001
 40
0.0
 40
0.0
 40
0.0
 40
0.0
 40
0.1263473148
 40
0.2525017918
 40
0.3782677863
 40
0.5035392054
 40
0.6282720664
 40
0.7525074043
 40
0.8763582925
 40
1.0
 40
1.0
 40
1.0
 40
1.0
 10
24.9232037091
 20
27.3163265306
 30
0.0
 10
24.9232037091
 20
27.0484770509
 30
0.0
 10
24.9748218511
 20
26.5117664154
 30
0.0
 10
25.2041446264
 20
25.738396333
 30
0.0
 10
25.5767413282
 20
25.0251469668
 30
0.0
 10
26.0783336698
 20
24.3997601353
 30
0.0
 10
26.6898373575
 20
23.8862536868
 30
0.0
 10
27.387906958
 20
23.5044938463
 30
0.0
 10
28.145309684
 20
23.2693218755
 30
0.0
 10
28.6714951266
 20
23.216357712
 30
0.0
 10
28.9336088649
 20
23.2163571248
 30
0.0
  0
SPLINE
  5
259
100
AcDbEntity
  8
0
100
AcDbSpline
 62
7
  6
BYLAYER
 70
0
 71
3
 72
15
 73
11
 74
0
 42
0.0000001
 43
0.0000001
 44
0.0000000001
 40
0.0
 40
0.0
 40
0.0
 40
0.0
 40
0.1262906841
 40
0.2525305187
 40
0.378272898
 40
0.5035423447
 40
0.6282733061
 40
0.7525038875
 40
0.8763585101
 40
1.0
 40
1.0
 40
1.0
 40
1.0
 10
20.0324657054
 20
27.8163265306
 30
0.0
 10
20.0324657054
 20
27.7444974357
 30
0.0
 10
20.046373019
 20
27.6004962174
 30
0.0
 10
20.1078177095
 20
27.3929840725
 30
0.0
 10
20.2078212119
 20
27.2016025267
 30
0.0
 10
20.3423958864
 20
27.0338425356
 30
0.0
 10
20.5064513642
 20
26.8960774558
 30
0.0
 10
20.6937274527
 20
26.793643042
 30
0.0
 10
20.896932523
 20
26.7305485573
 30
0.0
 10
21.0381057368
 20
26.7163545272
 30
0.0
 10
21.1084280759
 20
26.7163536615
 30
0.0
  0
SPLINE
  5
25A
100
AcDbEntity
  8
0
100
AcDbSpline
 62
7
  6
BYLAYER
 70
0
 71
3
 72
15
 73
11
 74
0
 42
0.0000001
 43
0.0000001
 44
0.0000000001
 40
0.0
 40
0.0
 40
0.0
 40
0.0
 40
0.1236404636
 40
0.2474892711
 40
0.3717225941
 40
0.4964546527
 40
0.6217270895
 40
0.7474945324
 40
0.8736516736
 40
1.0
 40
1.0
 40
1.0
 40
1.0
 10
28.9336088792
 20
48.4162959364
 30
0.0
 10
28.6714978513
 20
48.4162965236
 30
0.0
 10
28.145319686
 20
48.3633315709
 30
0.0
 10
27.387927361
 20
48.1281663436
 30
0.0
 10
26.6898653951
 20
47.7464150723
 30
0.0
 10
26.0783599688
 20
47.2329170945
 30
0.0
 10
25.5767611083
 20
46.6075313158
 30
0.0
 10
25.2041513737
 20
45.8942764962
 30
0.0
 10
24.9748244193
 20
45.1208961536
 30
0.0
 10
24.9232037091
 20
44.5841780797
 30
0.0
 10
24.9232037091
 20
44.3163265306
 30
0.0
  0
ENDSEC
  0
SECTION
  2
OBJECTS
  0
DICTIONARY
  5
C
100
AcDbDictionary
280
0
281
1
  3
ACAD_GROUP
350
D
  3
ACAD_MLINESTYLE
350
17
  3
ACAD_LAYOUT
350
1A
  3
ACAD_PLOTSETTINGS
350
19
  3
ACAD_PLOTSTYLENAME
350
E
  0
DICTIONARY
  5
D
102
{ACAD_REACTORS
330
C
102
}
100
AcDbDictionary
280
0
281
1
  0
ACDBDICTIONARYWDFLT
  5
E
102
{ACAD_REACTORS
330
C
102
}
100
AcDbDictionary
281
1
  3
Normal
350
F
100
AcDbDictionaryWithDefault
340
F
  0
DICTIONARY
  5
17
102
{ACAD_REACTORS
330
C
102
}
100
AcDbDictionary
280
0
281
1
  3
Standard
350
18
  0
DICTIONARY
  5
19
102
{ACAD_REACTORS
330
C
102
}
100
AcDbDictionary
281
1
  0
DICTIONARY
  5
1A
102
{ACAD_REACTORS
330
C
102
}
100
AcDbDictionary
281
1
  3
Model
350
25B
  3
Layout1
350
25C
  0
ACDBPLACEHOLDER
  5
F
102
{ACAD_REACTORS
330
E
102
}
  0
MLINESTYLE
  5
18
102
{ACAD_REACTORS
330
17
102
}
100
AcDbMlineStyle
  2
STANDARD
 70
0
  3

 62
256
 51
90.0
 52
90.0
 71
2
 49
0.5
 62
256
  6
BYLAYER
 49
-0.5
 62
256
  6
BYLAYER
  0
LAYOUT
  5
25B
102
{ACAD_REACTORS
330
1A
102
}
100
AcDbPlotSettings
  1

  2
none_device
  4

  6

 40
0.0
 41
0.0
 42
0.0
 43
0.0
 44
210.0
 45
297.0
 46
0.0
 47
0.0
 48
0.0
 49
0.0
140
0.0
141
0.0
142
1.0
143
1.0
 70
1024
 72
1
 73
0
 74
0
  7

 75
0
147
1.0
148
0.0
149
0.0
100
AcDbLayout
  1
Model
 70
0
 71
0
 10
0.0
 20
0.0
 11
210.0
 21
297.0
 12
0.0
 22
0.0
 32
0.0
 14
0.0
 24
0.0
 34
0.0
 15
0.0
 25
0.0
 35
0.0
146
0.0
 13
0.0
 23
0.0
 33
0.0
 16
1.0
 26
0.0
 36
0.0
 17
0.0
 27
1.0
 37
0.0
 76
0
330
210
345
0
346
0
  0
LAYOUT
  5
25C
102
{ACAD_REACTORS
330
1A
102
}
100
AcDbPlotSettings
  1

  2
none_device
  4

  6

 40
0.0
 41
0.0
 42
0.0
 43
0.0
 44
210.0
 45
297.0
 46
0.0
 47
0.0
 48
0.0
 49
0.0
140
0.0
141
0.0
142
1.0
143
1.0
 70
0
 72
1
 73
0
 74
0
  7

 75
0
147
1.0
148
0.0
149
0.0
100
AcDbLayout
  1
Layout1
 70
0
 71
1
 10
0.0
 20
0.0
 11
210.0
 21
297.0
 12
0.0
 22
0.0
 32
0.0
 14
0.0
 24
0.0
 34
0.0
 15
0.0
 25
0.0
 35
0.0
146
0.0
 13
0.0
 23
0.0
 33
0.0
 16
1.0
 26
0.0
 36
0.0
 17
0.0
 27
1.0
 37
0.0
 76
0
330
211
345
0
346
0
  0
ENDSEC
  0
EOF
