999
DXF file: C:\Users\sesa63760\Dev\_Creo\CAD\MCADID0005651_3D-CAD\mcadid0005651_3d-simplified_4.dxf
999
Pro/ENGINEER 2019471 by Parametric Technology Corporation
  0
SECTION
  2
HEADER
  9
$ACADVER
  1
AC1024
  9
$DWGCODEPAGE
  3
ANSI_1252
  9
$EXTMAX
 10
73.8505304556
 20
104.4457502158
 30
0.0
  9
$EXTMIN
 10
0.0
 20
0.0
 30
0.0
  9
$LIMMIN
 10
0.0
 20
0.0
  9
$LIMMAX
 10
73.8505304556
 20
104.4457502158
  9
$VIEWCTR
 10
36.9252652278
 20
52.2228751079
  9
$VIEWSIZE
 40
104.4457502158
  9
$CLAYER
  8
0
  9
$LTSCALE
 40
6.8083155696
  9
$CELTYPE
  6
BYLAYER
  9
$DIMSCALE
 40
1.0
  9
$DIMASZ
 40
0.8791729816
  9
$DIMEXO
 40
1.0
  9
$DIMDLI
 40
4.7039271208
  9
$DIMEXE
 40
1.0
  9
$DIMCEN
 40
1.1140880023
  9
$DIMLFAC
 40
1.0
  9
$DIMBLK
  1
_FILLED
  9
$DIMALT
 70
0
  9
$DIMALTF
 40
0.0393700787
  9
$DIMTXT
 40
1.2308421743
  9
$DIMTOL
 70
1
  9
$DIMLIM
 70
0
  9
$DIMTFAC
 40
1.0
  9
$DIMTP
 40
0.01
  9
$DIMTM
 40
0.01
  9
$DIMGAP
 40
0.625
  9
$DIMDSEP
 70
46
  9
$AUNITS
 70
0
  9
$PDMODE
 70
3
  9
$PDSIZE
 40
0.3125
  9
$HANDSEED
  5
4C1
  9
$TILEMODE
 70
1
  9
$MEASUREMENT
 70
1
  9
$INSUNITS
 70
4
  0
ENDSEC
  0
SECTION
  2
CLASSES
  0
CLASS
  1
ACDBDICTIONARYWDFLT
  2
AcDbDictionaryWithDefault
  3
AutoCAD 2000
 90
0
 91
1
280
0
281
0
  0
CLASS
  1
ACDBPLACEHOLDER
  2
AcDbPlaceHolder
  3
AutoCAD 2000
 90
0
 91
1
280
0
281
0
  0
CLASS
  1
LAYOUT
  2
AcDbLayout
  3
AutoCAD 2000
 90
0
 91
0
280
0
281
0
  0
ENDSEC
  0
SECTION
  2
TABLES
  0
TABLE
  2
VPORT
  5
8
100
AcDbSymbolTable
 70
2
  0
VPORT
  5
1F4
100
AcDbSymbolTableRecord
100
AcDbViewportTableRecord
  2
*ACTIVE
 70
0
 10
0.0
 20
0.0
 11
1.0
 21
1.0
 12
36.9252652278
 22
52.2228751079
 13
0.0
 23
0.0
 14
1.0
 24
1.0
 15
0.0
 25
0.0
 16
0.0
 26
0.0
 36
1.0
 17
0.0
 27
0.0
 37
0.0
 40
104.4457502158
 41
0.7070707071
 42
50.0
 43
0.0
 44
0.0
 50
0.0
 51
0.0
 71
0
 72
100
 73
1
 74
1
 75
0
 76
0
 77
0
 78
0
  0
ENDTAB
  0
TABLE
  2
LTYPE
  5
5
100
AcDbSymbolTable
 70
6
  0
LTYPE
  5
14
100
AcDbSymbolTableRecord
100
AcDbLinetypeTableRecord
  2
BYBLOCK
 70
0
  3

 72
65
 73
0
 40
0.0
  0
LTYPE
  5
15
100
AcDbSymbolTableRecord
100
AcDbLinetypeTableRecord
  2
BYLAYER
 70
0
  3

 72
65
 73
0
 40
0.0
  0
LTYPE
  5
16
100
AcDbSymbolTableRecord
100
AcDbLinetypeTableRecord
  2
CONTINUOUS
 70
64
  3
Solid line
 72
65
 73
0
 40
0.0
  0
LTYPE
  5
1F5
100
AcDbSymbolTableRecord
100
AcDbLinetypeTableRecord
  2
CENTER
 70
64
  3
____ _ ____ _ ____ _ ____ _ ____ _ ____ _ ____
 72
65
 73
4
 40
0.6
 49
0.375
 74
0
 49
-0.075
 74
0
 49
0.075
 74
0
 49
-0.075
 74
0
  0
LTYPE
  5
1F6
100
AcDbSymbolTableRecord
100
AcDbLinetypeTableRecord
  2
HIDDEN
 70
64
  3
- - - - - - - - - - - - - - - - - - - -
 72
65
 73
2
 40
0.2
 49
0.1
 74
0
 49
-0.1
 74
0
  0
LTYPE
  5
1F7
100
AcDbSymbolTableRecord
100
AcDbLinetypeTableRecord
  2
PHANTOM
 70
64
  3
_____ _ _ _____ _ _ _____ _ _ _____
 72
65
 73
6
 40
0.8
 49
0.45
 74
0
 49
-0.05
 74
0
 49
0.1
 74
0
 49
-0.05
 74
0
 49
0.1
 74
0
 49
-0.05
 74
0
  0
LTYPE
  5
1F8
100
AcDbSymbolTableRecord
100
AcDbLinetypeTableRecord
  2
DOT
 70
64
  3
. . . . . . . . . . . . . . . . . . . .
 72
65
 73
2
 40
0.2
 49
0.1
 74
0
 49
-0.1
 74
0
  0
LTYPE
  5
1F9
100
AcDbSymbolTableRecord
100
AcDbLinetypeTableRecord
  2
DASHED
 70
64
  3
- - - - - - - - - - - - - - - - - - - -
 72
65
 73
2
 40
0.2
 49
0.1
 74
0
 49
-0.1
 74
0
  0
ENDTAB
  0
TABLE
  2
LAYER
  5
2
100
AcDbSymbolTable
 70
36
  0
LAYER
  5
10
100
AcDbSymbolTableRecord
100
AcDbLayerTableRecord
  2
0
 70
0
 62
7
  6
CONTINUOUS
370
-3
390
F
  0
LAYER
  5
1FA
100
AcDbSymbolTableRecord
100
AcDbLayerTableRecord
  2
DEFAULT_1
 70
0
 62
7
  6
CENTER
370
-3
390
F
  0
LAYER
  5
1FB
100
AcDbSymbolTableRecord
100
AcDbLayerTableRecord
  2
DEFAULT_2
 70
0
 62
7
  6
HIDDEN
370
-3
390
F
  0
LAYER
  5
1FC
100
AcDbSymbolTableRecord
100
AcDbLayerTableRecord
  2
DEFAULT_3
 70
0
 62
7
  6
PHANTOM
370
-3
390
F
  0
LAYER
  5
1FD
100
AcDbSymbolTableRecord
100
AcDbLayerTableRecord
  2
00_COMPONENTS
 70
0
 62
7
  6
CONTINUOUS
370
-3
390
F
  0
LAYER
  5
1FE
100
AcDbSymbolTableRecord
100
AcDbLayerTableRecord
  2
00_COMPONENTS_1
 70
0
 62
7
  6
CONTINUOUS
370
-3
390
F
  0
LAYER
  5
1FF
100
AcDbSymbolTableRecord
100
AcDbLayerTableRecord
  2
00_COMPONENTS_2
 70
0
 62
7
  6
CONTINUOUS
370
-3
390
F
  0
LAYER
  5
200
100
AcDbSymbolTableRecord
100
AcDbLayerTableRecord
  2
00_COMPONENTS_3
 70
0
 62
7
  6
CONTINUOUS
370
-3
390
F
  0
LAYER
  5
201
100
AcDbSymbolTableRecord
100
AcDbLayerTableRecord
  2
00_COMPONENTS_4
 70
0
 62
7
  6
CONTINUOUS
370
-3
390
F
  0
LAYER
  5
202
100
AcDbSymbolTableRecord
100
AcDbLayerTableRecord
  2
00_COMPONENTS_5
 70
0
 62
7
  6
CONTINUOUS
370
-3
390
F
  0
LAYER
  5
203
100
AcDbSymbolTableRecord
100
AcDbLayerTableRecord
  2
00_COMPONENTS_6
 70
0
 62
7
  6
CONTINUOUS
370
-3
390
F
  0
LAYER
  5
204
100
AcDbSymbolTableRecord
100
AcDbLayerTableRecord
  2
00_COMPONENTS_7
 70
0
 62
7
  6
CONTINUOUS
370
-3
390
F
  0
LAYER
  5
205
100
AcDbSymbolTableRecord
100
AcDbLayerTableRecord
  2
01_1_DEFAULT_DATUMS
 70
0
 62
7
  6
CONTINUOUS
370
-3
390
F
  0
LAYER
  5
206
100
AcDbSymbolTableRecord
100
AcDbLayerTableRecord
  2
01_PLANES
 70
0
 62
7
  6
CONTINUOUS
370
-3
390
F
  0
LAYER
  5
207
100
AcDbSymbolTableRecord
100
AcDbLayerTableRecord
  2
02_COORD_SYS
 70
0
 62
7
  6
CONTINUOUS
370
-3
390
F
  0
LAYER
  5
208
100
AcDbSymbolTableRecord
100
AcDbLayerTableRecord
  2
03_AXES
 70
0
 62
7
  6
CONTINUOUS
370
-3
390
F
  0
LAYER
  5
209
100
AcDbSymbolTableRecord
100
AcDbLayerTableRecord
  2
03_AXES_1
 70
0
 62
7
  6
CONTINUOUS
370
-3
390
F
  0
LAYER
  5
20A
100
AcDbSymbolTableRecord
100
AcDbLayerTableRecord
  2
03_AXES_4
 70
0
 62
7
  6
CONTINUOUS
370
-3
390
F
  0
LAYER
  5
20B
100
AcDbSymbolTableRecord
100
AcDbLayerTableRecord
  2
03_AXES_7
 70
0
 62
7
  6
CONTINUOUS
370
-3
390
F
  0
LAYER
  5
20C
100
AcDbSymbolTableRecord
100
AcDbLayerTableRecord
  2
04_POINTS
 70
0
 62
7
  6
CONTINUOUS
370
-3
390
F
  0
LAYER
  5
20D
100
AcDbSymbolTableRecord
100
AcDbLayerTableRecord
  2
05_CURVES
 70
0
 62
7
  6
CONTINUOUS
370
-3
390
F
  0
LAYER
  5
20E
100
AcDbSymbolTableRecord
100
AcDbLayerTableRecord
  2
06_SURFS
 70
0
 62
7
  6
CONTINUOUS
370
-3
390
F
  0
LAYER
  5
20F
100
AcDbSymbolTableRecord
100
AcDbLayerTableRecord
  2
07_COSMETICS
 70
0
 62
7
  6
CONTINUOUS
370
-3
390
F
  0
LAYER
  5
210
100
AcDbSymbolTableRecord
100
AcDbLayerTableRecord
  2
10_NOTES
 70
0
 62
7
  6
CONTINUOUS
370
-3
390
F
  0
LAYER
  5
211
100
AcDbSymbolTableRecord
100
AcDbLayerTableRecord
  2
11_NOTES_PUB
 70
0
 62
7
  6
CONTINUOUS
370
-3
390
F
  0
LAYER
  5
212
100
AcDbSymbolTableRecord
100
AcDbLayerTableRecord
  2
13_REF_GTOL
 70
0
 62
7
  6
CONTINUOUS
370
-3
390
F
  0
LAYER
  5
213
100
AcDbSymbolTableRecord
100
AcDbLayerTableRecord
  2
13_REF_GTOL_6
 70
0
 62
7
  6
CONTINUOUS
370
-3
390
F
  0
LAYER
  5
214
100
AcDbSymbolTableRecord
100
AcDbLayerTableRecord
  2
16_MISC
 70
0
 62
7
  6
CONTINUOUS
370
-3
390
F
  0
LAYER
  5
215
100
AcDbSymbolTableRecord
100
AcDbLayerTableRecord
  2
17_NO_PRINT
 70
0
 62
7
  6
CONTINUOUS
370
-3
390
F
  0
LAYER
  5
216
100
AcDbSymbolTableRecord
100
AcDbLayerTableRecord
  2
18_DATUM_CAMS_JOINTS
 70
0
 62
7
  6
CONTINUOUS
370
-3
390
F
  0
LAYER
  5
217
100
AcDbSymbolTableRecord
100
AcDbLayerTableRecord
  2
19_DATUM_FUNCTIONAL
 70
0
 62
7
  6
CONTINUOUS
370
-3
390
F
  0
LAYER
  5
218
100
AcDbSymbolTableRecord
100
AcDbLayerTableRecord
  2
20_DATUM_KINEMATIC_SCHEME
 70
0
 62
7
  6
CONTINUOUS
370
-3
390
F
  0
LAYER
  5
219
100
AcDbSymbolTableRecord
100
AcDbLayerTableRecord
  2
INTFCLR_28637
 70
0
 62
7
  6
CONTINUOUS
370
-3
390
F
  0
LAYER
  5
21A
100
AcDbSymbolTableRecord
100
AcDbLayerTableRecord
  2
INTFCLR_64039
 70
0
 62
7
  6
CONTINUOUS
370
-3
390
F
  0
LAYER
  5
21B
100
AcDbSymbolTableRecord
100
AcDbLayerTableRecord
  2
INTF_BLANK
 70
0
 62
7
  6
CONTINUOUS
370
-3
390
F
  0
LAYER
  5
21C
100
AcDbSymbolTableRecord
100
AcDbLayerTableRecord
  2
SHELL1
 70
0
 62
7
  6
CONTINUOUS
370
-3
390
F
  0
LAYER
  5
21D
100
AcDbSymbolTableRecord
100
AcDbLayerTableRecord
  2
SHELL1_1
 70
0
 62
7
  6
CONTINUOUS
370
-3
390
F
  0
LAYER
  5
21E
100
AcDbSymbolTableRecord
100
AcDbLayerTableRecord
  2
SHELL2
 70
0
 62
7
  6
CONTINUOUS
370
-3
390
F
  0
LAYER
  5
21F
100
AcDbSymbolTableRecord
100
AcDbLayerTableRecord
  2
SHELL8
 70
0
 62
7
  6
CONTINUOUS
370
-3
390
F
  0
LAYER
  5
220
100
AcDbSymbolTableRecord
100
AcDbLayerTableRecord
  2
_BLACK_HOLE
 70
0
 62
7
  6
CONTINUOUS
370
-3
390
F
  0
LAYER
  5
221
100
AcDbSymbolTableRecord
100
AcDbLayerTableRecord
  2
black
 70
0
 62
7
  6
CONTINUOUS
370
-3
390
F
  0
ENDTAB
  0
TABLE
  2
STYLE
  5
3
100
AcDbSymbolTable
 70
1
  0
STYLE
  5
11
100
AcDbSymbolTableRecord
100
AcDbTextStyleTableRecord
  2
STANDARD
 70
0
 40
0.0
 41
1.0
 50
0.0
 71
0
 42
0.2
  3
ARIAL.TTF
  4

  0
STYLE
  5
222
100
AcDbSymbolTableRecord
100
AcDbTextStyleTableRecord
  2
TEXTSTYLE_1
 70
0
 40
0.0
 41
0.8
 50
0.0
 71
0
 42
0.2
  3
gdt
  4

  0
ENDTAB
  0
TABLE
  2
VIEW
  5
6
100
AcDbSymbolTable
 70
0
  0
ENDTAB
  0
TABLE
  2
UCS
  5
7
100
AcDbSymbolTable
 70
0
  0
ENDTAB
  0
TABLE
  2
APPID
  5
9
100
AcDbSymbolTable
 70
1
  0
APPID
  5
223
100
AcDbSymbolTableRecord
100
AcDbRegAppTableRecord
  2
ACAD
 70
0
  0
ENDTAB
  0
TABLE
  2
BLOCK_RECORD
  5
1
100
AcDbSymbolTable
 70
0
  0
BLOCK_RECORD
  5
224
100
AcDbSymbolTableRecord
100
AcDbBlockTableRecord
  2
*Model_Space
  0
BLOCK_RECORD
  5
225
100
AcDbSymbolTableRecord
100
AcDbBlockTableRecord
  2
*Paper_Space
  0
BLOCK_RECORD
  5
226
100
AcDbSymbolTableRecord
100
AcDbBlockTableRecord
  2
_FILLED
  0
ENDTAB
  0
TABLE
  2
DIMSTYLE
  5
A
100
AcDbSymbolTable
 70
1
100
AcDbDimStyleTable
 71
0
  0
DIMSTYLE
105
227
100
AcDbSymbolTableRecord
100
AcDbDimStyleTableRecord
  2
STANDARD
 70
0
  3

  4

 40
1.0
 41
0.8791729816
 42
1.0
 43
0.38
 44
1.0
 45
0.0
 46
0.0
 47
0.01
 48
0.01
140
1.2308421743
141
0.09
142
0.0
143
25.4
144
1.0
145
0.0
146
1.0
147
0.625
 71
1
 72
0
 73
0
 74
0
 75
0
 76
0
 77
1
 78
8
 79
2
170
0
171
1
172
0
173
0
174
0
175
0
176
0
177
0
178
0
270
2
179
2
271
2
272
2
273
2
274
2
275
0
280
0
281
0
282
0
283
1
284
8
285
0
286
0
287
3
288
0
340
11
278
46
341
226
342
226
343
226
344
226
  0
ENDTAB
  0
ENDSEC
  0
SECTION
  2
BLOCKS
  0
BLOCK
  5
20
100
AcDbEntity
  8
0
100
AcDbBlockBegin
  2
*Model_Space
 70
0
 10
0.0
 20
0.0
 30
0.0
  3
*Model_Space
  1

  0
ENDBLK
  5
21
100
AcDbEntity
  8
0
100
AcDbBlockEnd
  0
BLOCK
  5
1C
100
AcDbEntity
  8
0
100
AcDbBlockBegin
  2
*Paper_Space
 70
0
 10
0.0
 20
0.0
 30
0.0
  3
*Paper_Space
  1

  0
ENDBLK
  5
1D
100
AcDbEntity
  8
0
100
AcDbBlockEnd
  0
BLOCK
  5
228
100
AcDbEntity
  8
0
100
AcDbBlockBegin
  2
_FILLED
 70
64
 10
0.0
 20
0.0
  3
_FILLED
  1

  0
SOLID
  5
229
100
AcDbEntity
  8
0
  6
BYBLOCK
 62
0
100
AcDbTrace
 10
0.0
 20
0.0
 11
-1.0
 21
0.25
 12
-1.0
 22
-0.25
 13
-1.0
 23
-0.25
  0
ENDBLK
  5
22A
100
AcDbEntity
  8
0
  6
BYBLOCK
 62
0
100
AcDbBlockEnd
  0
ENDSEC
  0
SECTION
  2
ENTITIES
  0
LINE
  5
22B
100
AcDbEntity
  8
00_COMPONENTS_2
100
AcDbLine
 62
7
  6
BYLAYER
 10
34.1451863851
 20
7.4786736691
 11
41.6229527036
 21
7.4786736691
  0
LINE
  5
22C
100
AcDbEntity
  8
00_COMPONENTS_2
100
AcDbLine
 62
7
  6
BYLAYER
 10
36.9493679235
 20
8.4554898428
 11
38.8187723194
 21
8.4554898155
  0
LINE
  5
22D
100
AcDbEntity
  8
0
100
AcDbLine
 62
7
  6
BYLAYER
 10
20.4688695444
 20
79.1861962143
 11
17.7548339439
 21
77.7891962143
  0
LINE
  5
22E
100
AcDbEntity
  8
00_COMPONENTS_2
100
AcDbLine
 62
7
  6
BYLAYER
 10
24.6507835144
 20
23.3536736691
 11
51.117411025
 21
23.3536736691
  0
LINE
  5
22F
100
AcDbEntity
  8
00_COMPONENTS_2
100
AcDbLine
 62
7
  6
BYLAYER
 10
23.8748018574
 20
24.141073669
 11
23.878558768
 21
24.141073669
  0
LINE
  5
230
100
AcDbEntity
  8
00_COMPONENTS_2
100
AcDbLine
 62
7
  6
BYLAYER
 10
23.9776639329
 20
24.141073669
 11
23.9889060724
 21
24.141073669
  0
LINE
  5
231
100
AcDbEntity
  8
00_COMPONENTS_2
100
AcDbLine
 62
7
  6
BYLAYER
 10
24.186362152
 20
24.141073669
 11
24.205003961
 21
24.141073669
  0
LINE
  5
232
100
AcDbEntity
  8
00_COMPONENTS_2
100
AcDbLine
 62
7
  6
BYLAYER
 10
24.4993081952
 20
24.141073669
 11
24.5252077983
 21
24.141073669
  0
LINE
  5
233
100
AcDbEntity
  8
00_COMPONENTS_2
100
AcDbLine
 62
7
  6
BYLAYER
 10
24.9141203543
 20
24.141073669
 11
24.9470806398
 21
24.141073669
  0
LINE
  5
234
100
AcDbEntity
  8
00_COMPONENTS_2
100
AcDbLine
 62
7
  6
BYLAYER
 10
25.4276416582
 20
24.141073669
 11
25.4674117784
 21
24.141073669
  0
LINE
  5
235
100
AcDbEntity
  8
00_COMPONENTS_2
100
AcDbLine
 62
7
  6
BYLAYER
 10
26.0359638997
 20
24.141073669
 11
26.08224118
 21
24.141073669
  0
LINE
  5
236
100
AcDbEntity
  8
00_COMPONENTS_2
100
AcDbLine
 62
7
  6
BYLAYER
 10
26.7344573792
 20
24.141073669
 11
26.7868896216
 21
24.141073669
  0
LINE
  5
237
100
AcDbEntity
  8
00_COMPONENTS_2
100
AcDbLine
 62
7
  6
BYLAYER
 10
27.5178061396
 20
24.141073669
 11
27.575994303
 21
24.141073669
  0
LINE
  5
238
100
AcDbEntity
  8
00_COMPONENTS_2
100
AcDbLine
 62
7
  6
BYLAYER
 10
28.3800484239
 20
24.141073669
 11
28.4435496613
 21
24.141073669
  0
LINE
  5
239
100
AcDbEntity
  8
00_COMPONENTS_2
100
AcDbLine
 62
7
  6
BYLAYER
 10
29.3146220475
 20
24.141073669
 11
29.3829530761
 21
24.141073669
  0
LINE
  5
23A
100
AcDbEntity
  8
00_COMPONENTS_2
100
AcDbLine
 62
7
  6
BYLAYER
 10
30.314414341
 20
24.141073669
 11
30.3870551205
 21
24.141073669
  0
LINE
  5
23B
100
AcDbEntity
  8
00_COMPONENTS_2
100
AcDbLine
 62
7
  6
BYLAYER
 10
31.3718162813
 20
24.141073669
 11
31.4482139714
 21
24.141073669
  0
LINE
  5
23C
100
AcDbEntity
  8
00_COMPONENTS_2
100
AcDbLine
 62
7
  6
BYLAYER
 10
32.4787804011
 20
24.141073669
 11
32.5583535693
 21
24.141073669
  0
LINE
  5
23D
100
AcDbEntity
  8
00_COMPONENTS_2
100
AcDbLine
 62
7
  6
BYLAYER
 10
33.6268820351
 20
24.141073669
 11
33.7090250815
 21
24.141073669
  0
LINE
  5
23E
100
AcDbEntity
  8
00_COMPONENTS_2
100
AcDbLine
 62
7
  6
BYLAYER
 10
34.8073834366
 20
24.141073669
 11
34.891471203
 21
24.141073669
  0
LINE
  5
23F
100
AcDbEntity
  8
00_COMPONENTS_2
100
AcDbLine
 62
7
  6
BYLAYER
 10
36.0113002771
 20
24.1410736691
 11
36.0966928049
 21
24.1410736691
  0
LINE
  5
240
100
AcDbEntity
  8
00_COMPONENTS_2
100
AcDbLine
 62
7
  6
BYLAYER
 10
37.2294700226
 20
24.1410736691
 11
37.3155174231
 21
24.1410736691
  0
LINE
  5
241
100
AcDbEntity
  8
00_COMPONENTS_2
100
AcDbLine
 62
7
  6
BYLAYER
 10
38.4526216657
 20
24.1410736691
 11
38.5386690662
 21
24.1410736691
  0
LINE
  5
242
100
AcDbEntity
  8
00_COMPONENTS_2
100
AcDbLine
 62
7
  6
BYLAYER
 10
39.6714462838
 20
24.1410736691
 11
39.7568388116
 21
24.1410736691
  0
LINE
  5
243
100
AcDbEntity
  8
00_COMPONENTS_2
100
AcDbLine
 62
7
  6
BYLAYER
 10
40.8766678857
 20
24.1410736691
 11
40.9607556521
 21
24.1410736691
  0
LINE
  5
244
100
AcDbEntity
  8
00_COMPONENTS_2
100
AcDbLine
 62
7
  6
BYLAYER
 10
42.0591140072
 20
24.1410736691
 11
42.1412570536
 21
24.1410736691
  0
LINE
  5
245
100
AcDbEntity
  8
00_COMPONENTS_2
100
AcDbLine
 62
7
  6
BYLAYER
 10
43.2097855195
 20
24.1410736691
 11
43.2893586876
 21
24.1410736691
  0
LINE
  5
246
100
AcDbEntity
  8
00_COMPONENTS_2
100
AcDbLine
 62
7
  6
BYLAYER
 10
44.3199251174
 20
24.1410736691
 11
44.3963228074
 21
24.1410736691
  0
LINE
  5
247
100
AcDbEntity
  8
00_COMPONENTS_2
100
AcDbLine
 62
7
  6
BYLAYER
 10
45.3810839683
 20
24.1410736691
 11
45.4537247477
 21
24.1410736691
  0
LINE
  5
248
100
AcDbEntity
  8
00_COMPONENTS_2
100
AcDbLine
 62
7
  6
BYLAYER
 10
46.3851860126
 20
24.1410736691
 11
46.4535170412
 21
24.1410736691
  0
LINE
  5
249
100
AcDbEntity
  8
00_COMPONENTS_2
100
AcDbLine
 62
7
  6
BYLAYER
 10
47.3245894275
 20
24.1410736691
 11
47.3880906649
 21
24.1410736691
  0
LINE
  5
24A
100
AcDbEntity
  8
00_COMPONENTS_2
100
AcDbLine
 62
7
  6
BYLAYER
 10
48.1921447857
 20
24.1410736691
 11
48.2503329491
 21
24.1410736691
  0
LINE
  5
24B
100
AcDbEntity
  8
00_COMPONENTS_2
100
AcDbLine
 62
7
  6
BYLAYER
 10
48.9812494672
 20
24.1410736691
 11
49.0336817095
 21
24.1410736691
  0
LINE
  5
24C
100
AcDbEntity
  8
00_COMPONENTS_2
100
AcDbLine
 62
7
  6
BYLAYER
 10
49.6858979088
 20
24.1410736691
 11
49.7321751891
 21
24.1410736691
  0
LINE
  5
24D
100
AcDbEntity
  8
00_COMPONENTS_2
100
AcDbLine
 62
7
  6
BYLAYER
 10
50.3007273103
 20
24.1410736691
 11
50.3404974305
 21
24.1410736691
  0
LINE
  5
24E
100
AcDbEntity
  8
00_COMPONENTS_2
100
AcDbLine
 62
7
  6
BYLAYER
 10
50.821058449
 20
24.1410736691
 11
50.8540187344
 21
24.1410736691
  0
LINE
  5
24F
100
AcDbEntity
  8
00_COMPONENTS_2
100
AcDbLine
 62
7
  6
BYLAYER
 10
51.2429312904
 20
24.1410736691
 11
51.2688308935
 21
24.1410736691
  0
LINE
  5
250
100
AcDbEntity
  8
00_COMPONENTS_2
100
AcDbLine
 62
7
  6
BYLAYER
 10
51.5631351277
 20
24.1410736691
 11
51.5817769368
 21
24.1410736691
  0
LINE
  5
251
100
AcDbEntity
  8
00_COMPONENTS_2
100
AcDbLine
 62
7
  6
BYLAYER
 10
51.7792330163
 20
24.1410736691
 11
51.7904751559
 21
24.1410736691
  0
LINE
  5
252
100
AcDbEntity
  8
00_COMPONENTS_2
100
AcDbLine
 62
7
  6
BYLAYER
 10
51.8895803207
 20
24.1410736691
 11
51.8933372313
 21
24.1410736691
  0
LINE
  5
253
100
AcDbEntity
  8
00_COMPONENTS_2
100
AcDbLine
 62
7
  6
BYLAYER
 10
24.0949416335
 20
24.0604987901
 11
24.168809758
 21
23.9952503163
  0
LINE
  5
254
100
AcDbEntity
  8
00_COMPONENTS_2
100
AcDbLine
 62
7
  6
BYLAYER
 10
23.9690137365
 20
24.0604987901
 11
24.0038956664
 21
24.0275511477
  0
LINE
  5
255
100
AcDbEntity
  8
00_COMPONENTS_4
100
AcDbLine
 62
7
  6
BYLAYER
 10
21.8840695404
 20
28.3828736691
 11
22.1380695404
 21
28.1288736691
  0
LINE
  5
256
100
AcDbEntity
  8
00_COMPONENTS_2
100
AcDbLine
 62
7
  6
BYLAYER
 10
24.6506695443
 20
23.3536736691
 11
24.2575888935
 21
23.7469344144
  0
LINE
  5
257
100
AcDbEntity
  8
00_COMPONENTS_2
100
AcDbLine
 62
7
  6
BYLAYER
 10
24.2796628084
 20
23.7247291694
 11
24.2866029627
 21
23.7177402507
  0
LINE
  5
258
100
AcDbEntity
  8
00_COMPONENTS_2
100
AcDbLine
 62
7
  6
BYLAYER
 10
23.9489878163
 20
24.0604987901
 11
23.9910105201
 21
24.0174959866
  0
LINE
  5
259
100
AcDbEntity
  8
0
100
AcDbLine
 62
7
  6
BYLAYER
 10
12.6964695444
 20
70.0122944134
 11
12.6964695444
 21
94.5244736691
  0
LINE
  5
25A
100
AcDbEntity
  8
0
100
AcDbLine
 62
7
  6
BYLAYER
 10
13.9664695444
 20
88.0824621556
 11
13.9664695444
 21
89.4506289607
  0
LINE
  5
25B
100
AcDbEntity
  8
0
100
AcDbLine
 62
7
  6
BYLAYER
 10
14.2204695444
 20
94.5244736691
 11
14.2204695444
 21
96.3278736691
  0
LINE
  5
25C
100
AcDbEntity
  8
00_COMPONENTS_2
100
AcDbLine
 62
7
  6
BYLAYER
 10
23.8632695444
 20
27.4176736691
 11
23.8745929387
 21
27.4176736691
  0
LINE
  5
25D
100
AcDbEntity
  8
00_COMPONENTS_2
100
AcDbLine
 62
7
  6
BYLAYER
 10
23.878558768
 20
27.4176736691
 11
23.9776639329
 21
27.4176736691
  0
LINE
  5
25E
100
AcDbEntity
  8
00_COMPONENTS_2
100
AcDbLine
 62
7
  6
BYLAYER
 10
23.9889060724
 20
27.4176736691
 11
24.186362152
 21
27.4176736691
  0
LINE
  5
25F
100
AcDbEntity
  8
00_COMPONENTS_2
100
AcDbLine
 62
7
  6
BYLAYER
 10
24.205003961
 20
27.4176736691
 11
24.4993081952
 21
27.4176736691
  0
LINE
  5
260
100
AcDbEntity
  8
00_COMPONENTS_2
100
AcDbLine
 62
7
  6
BYLAYER
 10
24.5252077983
 20
27.4176736691
 11
24.9141203543
 21
27.4176736691
  0
LINE
  5
261
100
AcDbEntity
  8
00_COMPONENTS_2
100
AcDbLine
 62
7
  6
BYLAYER
 10
24.9470806398
 20
27.4176736691
 11
25.4276416582
 21
27.4176736691
  0
LINE
  5
262
100
AcDbEntity
  8
00_COMPONENTS_2
100
AcDbLine
 62
7
  6
BYLAYER
 10
25.4674117784
 20
27.4176736691
 11
26.0359638997
 21
27.4176736691
  0
LINE
  5
263
100
AcDbEntity
  8
00_COMPONENTS_2
100
AcDbLine
 62
7
  6
BYLAYER
 10
26.08224118
 20
27.4176736691
 11
26.7344573792
 21
27.4176736691
  0
LINE
  5
264
100
AcDbEntity
  8
00_COMPONENTS_2
100
AcDbLine
 62
7
  6
BYLAYER
 10
26.7868896216
 20
27.4176736691
 11
27.5178061396
 21
27.4176736691
  0
LINE
  5
265
100
AcDbEntity
  8
00_COMPONENTS_2
100
AcDbLine
 62
7
  6
BYLAYER
 10
27.575994303
 20
27.4176736691
 11
28.3800484239
 21
27.4176736691
  0
LINE
  5
266
100
AcDbEntity
  8
00_COMPONENTS_2
100
AcDbLine
 62
7
  6
BYLAYER
 10
28.4435496613
 20
27.4176736691
 11
29.3146220475
 21
27.4176736691
  0
LINE
  5
267
100
AcDbEntity
  8
00_COMPONENTS_2
100
AcDbLine
 62
7
  6
BYLAYER
 10
29.3829530761
 20
27.4176736691
 11
30.314414341
 21
27.4176736691
  0
LINE
  5
268
100
AcDbEntity
  8
00_COMPONENTS_2
100
AcDbLine
 62
7
  6
BYLAYER
 10
30.3870551205
 20
27.4176736691
 11
31.3718162813
 21
27.4176736691
  0
LINE
  5
269
100
AcDbEntity
  8
00_COMPONENTS_2
100
AcDbLine
 62
7
  6
BYLAYER
 10
31.4482139714
 20
27.4176736691
 11
32.4787804011
 21
27.4176736691
  0
LINE
  5
26A
100
AcDbEntity
  8
00_COMPONENTS_2
100
AcDbLine
 62
7
  6
BYLAYER
 10
32.5583535693
 20
27.4176736691
 11
33.6268820351
 21
27.4176736691
  0
LINE
  5
26B
100
AcDbEntity
  8
00_COMPONENTS_2
100
AcDbLine
 62
7
  6
BYLAYER
 10
33.7090250815
 20
27.4176736691
 11
34.8073834366
 21
27.4176736691
  0
LINE
  5
26C
100
AcDbEntity
  8
00_COMPONENTS_2
100
AcDbLine
 62
7
  6
BYLAYER
 10
34.891471203
 20
27.4176736691
 11
36.0113002771
 21
27.4176736691
  0
LINE
  5
26D
100
AcDbEntity
  8
00_COMPONENTS_2
100
AcDbLine
 62
7
  6
BYLAYER
 10
36.0966928049
 20
27.4176736691
 11
37.2294700226
 21
27.4176736691
  0
LINE
  5
26E
100
AcDbEntity
  8
00_COMPONENTS_2
100
AcDbLine
 62
7
  6
BYLAYER
 10
37.3155174231
 20
27.4176736691
 11
38.4526216656
 21
27.4176736691
  0
LINE
  5
26F
100
AcDbEntity
  8
00_COMPONENTS_2
100
AcDbLine
 62
7
  6
BYLAYER
 10
38.5386690662
 20
27.4176736691
 11
39.6714462838
 21
27.4176736691
  0
LINE
  5
270
100
AcDbEntity
  8
00_COMPONENTS_2
100
AcDbLine
 62
7
  6
BYLAYER
 10
39.7568388116
 20
27.4176736691
 11
40.8766678857
 21
27.4176736691
  0
LINE
  5
271
100
AcDbEntity
  8
00_COMPONENTS_2
100
AcDbLine
 62
7
  6
BYLAYER
 10
40.9607556522
 20
27.4176736691
 11
42.0591140072
 21
27.4176736691
  0
LINE
  5
272
100
AcDbEntity
  8
00_COMPONENTS_2
100
AcDbLine
 62
7
  6
BYLAYER
 10
42.1412570536
 20
27.4176736691
 11
43.2097855195
 21
27.4176736691
  0
LINE
  5
273
100
AcDbEntity
  8
00_COMPONENTS_2
100
AcDbLine
 62
7
  6
BYLAYER
 10
43.2893586876
 20
27.4176736691
 11
44.3199251174
 21
27.4176736691
  0
LINE
  5
274
100
AcDbEntity
  8
00_COMPONENTS_2
100
AcDbLine
 62
7
  6
BYLAYER
 10
44.3963228074
 20
27.4176736691
 11
45.3810839683
 21
27.4176736691
  0
LINE
  5
275
100
AcDbEntity
  8
00_COMPONENTS_2
100
AcDbLine
 62
7
  6
BYLAYER
 10
45.4537247477
 20
27.4176736691
 11
46.3851860126
 21
27.4176736691
  0
LINE
  5
276
100
AcDbEntity
  8
00_COMPONENTS_2
100
AcDbLine
 62
7
  6
BYLAYER
 10
46.4535170412
 20
27.4176736691
 11
47.3245894275
 21
27.4176736691
  0
LINE
  5
277
100
AcDbEntity
  8
00_COMPONENTS_2
100
AcDbLine
 62
7
  6
BYLAYER
 10
47.3880906649
 20
27.4176736691
 11
48.1921447857
 21
27.4176736691
  0
LINE
  5
278
100
AcDbEntity
  8
00_COMPONENTS_2
100
AcDbLine
 62
7
  6
BYLAYER
 10
48.2503329491
 20
27.4176736691
 11
48.9812494672
 21
27.4176736691
  0
LINE
  5
279
100
AcDbEntity
  8
00_COMPONENTS_2
100
AcDbLine
 62
7
  6
BYLAYER
 10
49.0336817095
 20
27.4176736691
 11
49.6858979088
 21
27.4176736691
  0
LINE
  5
27A
100
AcDbEntity
  8
00_COMPONENTS_2
100
AcDbLine
 62
7
  6
BYLAYER
 10
49.7321751891
 20
27.4176736691
 11
50.3007273103
 21
27.4176736691
  0
LINE
  5
27B
100
AcDbEntity
  8
00_COMPONENTS_2
100
AcDbLine
 62
7
  6
BYLAYER
 10
50.3404974305
 20
27.4176736691
 11
50.821058449
 21
27.4176736691
  0
LINE
  5
27C
100
AcDbEntity
  8
00_COMPONENTS_2
100
AcDbLine
 62
7
  6
BYLAYER
 10
50.8540187344
 20
27.4176736691
 11
51.2429312904
 21
27.4176736691
  0
LINE
  5
27D
100
AcDbEntity
  8
00_COMPONENTS_2
100
AcDbLine
 62
7
  6
BYLAYER
 10
51.2688308935
 20
27.4176736691
 11
51.5631351277
 21
27.4176736691
  0
LINE
  5
27E
100
AcDbEntity
  8
00_COMPONENTS_2
100
AcDbLine
 62
7
  6
BYLAYER
 10
51.5817769368
 20
27.4176736691
 11
51.7792330163
 21
27.4176736691
  0
LINE
  5
27F
100
AcDbEntity
  8
00_COMPONENTS_2
100
AcDbLine
 62
7
  6
BYLAYER
 10
51.8933372313
 20
27.4176736691
 11
51.9048695444
 21
27.4176736691
  0
LINE
  5
280
100
AcDbEntity
  8
00_COMPONENTS_2
100
AcDbLine
 62
7
  6
BYLAYER
 10
51.7904751559
 20
27.4176736691
 11
51.8895803207
 21
27.4176736691
  0
LINE
  5
281
100
AcDbEntity
  8
00_COMPONENTS_4
100
AcDbLine
 62
7
  6
BYLAYER
 10
22.1380695404
 20
28.1288736691
 11
53.6300695484
 21
28.1288736691
  0
LINE
  5
282
100
AcDbEntity
  8
00_COMPONENTS_4
100
AcDbLine
 62
7
  6
BYLAYER
 10
21.8840695404
 20
28.3828736691
 11
53.8840695484
 21
28.3828736691
  0
LINE
  5
283
100
AcDbEntity
  8
0
100
AcDbLine
 62
7
  6
BYLAYER
 10
16.2562080753
 20
88.1899860472
 11
16.2562080753
 21
88.8365644879
  0
LINE
  5
284
100
AcDbEntity
  8
0
100
AcDbLine
 62
7
  6
BYLAYER
 10
16.4464695444
 20
62.4442736691
 11
16.4464695444
 21
69.8864736691
  0
LINE
  5
285
100
AcDbEntity
  8
0
100
AcDbLine
 62
7
  6
BYLAYER
 10
17.5894695444
 20
62.4442736691
 11
17.5894695444
 21
60.0439736691
  0
LINE
  5
286
100
AcDbEntity
  8
0
100
AcDbLine
 62
7
  6
BYLAYER
 10
17.6748695444
 20
94.5244736691
 11
17.6748695444
 21
96.3278736691
  0
LINE
  5
287
100
AcDbEntity
  8
00_COMPONENTS_2
100
AcDbLine
 62
7
  6
BYLAYER
 10
25.1033234342
 20
23.7469342855
 11
25.1126045849
 21
23.723754861
  0
LINE
  5
288
100
AcDbEntity
  8
0
100
AcDbLine
 62
7
  6
BYLAYER
 10
18.0403195444
 20
60.0439736691
 11
18.0403195444
 21
58.4564736691
  0
LINE
  5
289
100
AcDbEntity
  8
00_COMPONENTS_4
100
AcDbLine
 62
7
  6
BYLAYER
 10
18.8340695444
 20
50.5824736691
 11
18.8340695444
 21
52.1064736691
  0
LINE
  5
28A
100
AcDbEntity
  8
00_COMPONENTS_4
100
AcDbLine
 62
7
  6
BYLAYER
 10
19.4690695444
 20
49.3124736691
 11
19.4690695444
 21
50.5824736691
  0
LINE
  5
28B
100
AcDbEntity
  8
00_COMPONENTS_4
100
AcDbLine
 62
7
  6
BYLAYER
 10
20.4215695444
 20
43.0194484354
 11
20.4215695444
 21
49.3124736691
  0
LINE
  5
28C
100
AcDbEntity
  8
0
100
AcDbLine
 62
7
  6
BYLAYER
 10
20.4688695444
 20
94.5244736691
 11
20.4688695444
 21
91.4681122915
  0
LINE
  5
28D
100
AcDbEntity
  8
0
100
AcDbLine
 62
7
  6
BYLAYER
 10
20.4688695444
 20
90.5762352722
 11
20.4688695444
 21
88.4538205312
  0
LINE
  5
28E
100
AcDbEntity
  8
0
100
AcDbLine
 62
7
  6
BYLAYER
 10
20.4688695444
 20
85.9752698418
 11
20.4688695444
 21
79.1861962143
  0
LINE
  5
28F
100
AcDbEntity
  8
00_COMPONENTS_2
100
AcDbLine
 62
7
  6
BYLAYER
 10
25.5638867988
 20
23.7469342855
 11
25.5698608477
 21
23.7270849442
  0
LINE
  5
290
100
AcDbEntity
  8
00_COMPONENTS_2
100
AcDbLine
 62
7
  6
BYLAYER
 10
26.1182141931
 20
23.7469342855
 11
26.1215895807
 21
23.7310987871
  0
LINE
  5
291
100
AcDbEntity
  8
00_COMPONENTS_2
100
AcDbLine
 62
7
  6
BYLAYER
 10
26.0052583348
 20
24.0604987901
 11
25.9966034947
 21
24.1023696626
  0
LINE
  5
292
100
AcDbEntity
  8
00_COMPONENTS_4
100
AcDbLine
 62
7
  6
BYLAYER
 10
21.8840695404
 20
41.7204680671
 11
21.8840695404
 21
28.3828736691
  0
LINE
  5
293
100
AcDbEntity
  8
0
100
AcDbLine
 62
7
  6
BYLAYER
 10
22.8980695444
 20
58.4564736691
 11
22.8980695444
 21
52.1064736691
  0
LINE
  5
294
100
AcDbEntity
  8
00_COMPONENTS_2
100
AcDbLine
 62
7
  6
BYLAYER
 10
23.8632695444
 20
28.1288736691
 11
23.8632695444
 21
27.4176736691
  0
LINE
  5
295
100
AcDbEntity
  8
00_COMPONENTS_2
100
AcDbLine
 62
7
  6
BYLAYER
 10
23.8745929387
 20
27.4176736691
 11
23.8745929387
 21
24.1408685336
  0
LINE
  5
296
100
AcDbEntity
  8
00_COMPONENTS_2
100
AcDbLine
 62
7
  6
BYLAYER
 10
23.878558768
 20
27.4176736691
 11
23.878558768
 21
24.141073669
  0
LINE
  5
297
100
AcDbEntity
  8
00_COMPONENTS_2
100
AcDbLine
 62
7
  6
BYLAYER
 10
23.9690137365
 20
27.4176736691
 11
23.9690137365
 21
24.0604987901
  0
LINE
  5
298
100
AcDbEntity
  8
00_COMPONENTS_2
100
AcDbLine
 62
7
  6
BYLAYER
 10
23.9755915708
 20
27.4176736691
 11
23.9755915708
 21
24.139038702
  0
LINE
  5
299
100
AcDbEntity
  8
00_COMPONENTS_2
100
AcDbLine
 62
7
  6
BYLAYER
 10
23.9776639329
 20
24.141073669
 11
23.9776639329
 21
27.4176736691
  0
LINE
  5
29A
100
AcDbEntity
  8
00_COMPONENTS_2
100
AcDbLine
 62
7
  6
BYLAYER
 10
23.9889060724
 20
27.4176736691
 11
23.9889060724
 21
24.141073669
  0
LINE
  5
29B
100
AcDbEntity
  8
00_COMPONENTS_2
100
AcDbLine
 62
7
  6
BYLAYER
 10
24.0949416335
 20
27.4176736691
 11
24.0949416335
 21
24.0604987901
  0
LINE
  5
29C
100
AcDbEntity
  8
00_COMPONENTS_2
100
AcDbLine
 62
7
  6
BYLAYER
 10
24.180509025
 20
27.4176736691
 11
24.180509025
 21
24.1353253987
  0
LINE
  5
29D
100
AcDbEntity
  8
00_COMPONENTS_2
100
AcDbLine
 62
7
  6
BYLAYER
 10
24.186362152
 20
24.141073669
 11
24.186362152
 21
27.4176736691
  0
LINE
  5
29E
100
AcDbEntity
  8
00_COMPONENTS_2
100
AcDbLine
 62
7
  6
BYLAYER
 10
24.205003961
 20
27.4176736691
 11
24.205003961
 21
24.141073669
  0
LINE
  5
29F
100
AcDbEntity
  8
00_COMPONENTS_2
100
AcDbLine
 62
7
  6
BYLAYER
 10
24.3033369217
 20
23.7469342855
 11
24.3033369217
 21
23.7604844951
  0
LINE
  5
2A0
100
AcDbEntity
  8
00_COMPONENTS_2
100
AcDbLine
 62
7
  6
BYLAYER
 10
24.3258131201
 20
27.4176736691
 11
24.3258131201
 21
24.0604987901
  0
LINE
  5
2A1
100
AcDbEntity
  8
00_COMPONENTS_2
100
AcDbLine
 62
7
  6
BYLAYER
 10
24.4524424589
 20
23.7469342855
 11
24.4524424589
 21
23.7771892348
  0
LINE
  5
2A2
100
AcDbEntity
  8
00_COMPONENTS_2
100
AcDbLine
 62
7
  6
BYLAYER
 10
24.4877857559
 20
27.4176736691
 11
24.4877857559
 21
24.141073669
  0
LINE
  5
2A3
100
AcDbEntity
  8
00_COMPONENTS_2
100
AcDbLine
 62
7
  6
BYLAYER
 10
24.4993081952
 20
24.141073669
 11
24.4993081952
 21
27.4176736691
  0
LINE
  5
2A4
100
AcDbEntity
  8
00_COMPONENTS_2
100
AcDbLine
 62
7
  6
BYLAYER
 10
24.5252077983
 20
27.4176736691
 11
24.5252077983
 21
24.141073669
  0
LINE
  5
2A5
100
AcDbEntity
  8
00_COMPONENTS_2
100
AcDbLine
 62
7
  6
BYLAYER
 10
24.6598711248
 20
27.4176736691
 11
24.6598711248
 21
24.0604987901
  0
LINE
  5
2A6
100
AcDbEntity
  8
00_COMPONENTS_2
100
AcDbLine
 62
7
  6
BYLAYER
 10
24.7037707884
 20
23.7469342855
 11
24.7037707884
 21
23.7986644343
  0
LINE
  5
2A7
100
AcDbEntity
  8
00_COMPONENTS_4
100
AcDbLine
 62
7
  6
BYLAYER
 10
20.4215695444
 20
43.0194484354
 11
21.4903695404
 21
42.40237647
  0
LINE
  5
2A8
100
AcDbEntity
  8
00_COMPONENTS_2
100
AcDbLine
 62
7
  6
BYLAYER
 10
26.7620868511
 20
23.7469342855
 11
26.763591795
 21
23.7357761724
  0
LINE
  5
2A9
100
AcDbEntity
  8
00_COMPONENTS_2
100
AcDbLine
 62
7
  6
BYLAYER
 10
26.6863019376
 20
24.0604987901
 11
26.6824431068
 21
24.0899117499
  0
LINE
  5
2AA
100
AcDbEntity
  8
00_COMPONENTS_2
100
AcDbLine
 62
7
  6
BYLAYER
 10
27.490604513
 20
23.7469342855
 11
27.4909814662
 21
23.7410689954
  0
LINE
  5
2AB
100
AcDbEntity
  8
00_COMPONENTS_2
100
AcDbLine
 62
7
  6
BYLAYER
 10
27.4525673132
 20
24.0604987901
 11
27.4516007666
 21
24.0759045447
  0
LINE
  5
2AC
100
AcDbEntity
  8
00_COMPONENTS_2
100
AcDbLine
 62
7
  6
BYLAYER
 10
24.895083202
 20
27.4176736691
 11
24.895083202
 21
24.141073669
  0
LINE
  5
2AD
100
AcDbEntity
  8
00_COMPONENTS_2
100
AcDbLine
 62
7
  6
BYLAYER
 10
24.9141203543
 20
24.141073669
 11
24.9141203543
 21
27.4176736691
  0
LINE
  5
2AE
100
AcDbEntity
  8
00_COMPONENTS_2
100
AcDbLine
 62
7
  6
BYLAYER
 10
24.9470806398
 20
27.4176736691
 11
24.9470806398
 21
24.141073669
  0
LINE
  5
2AF
100
AcDbEntity
  8
00_COMPONENTS_2
100
AcDbLine
 62
7
  6
BYLAYER
 10
25.0554091499
 20
23.7469342855
 11
25.0554091499
 21
23.8278105207
  0
LINE
  5
2B0
100
AcDbEntity
  8
00_COMPONENTS_2
100
AcDbLine
 62
7
  6
BYLAYER
 10
25.0945732644
 20
27.4176736691
 11
25.0945732644
 21
24.0604987901
  0
LINE
  5
2B1
100
AcDbEntity
  8
0
100
AcDbLine
 62
7
  6
BYLAYER
 10
25.3964695444
 20
69.8864736691
 11
25.3964695444
 21
77.4353702093
  0
LINE
  5
2B2
100
AcDbEntity
  8
0
100
AcDbLine
 62
7
  6
BYLAYER
 10
25.3964695444
 20
79.5400222193
 11
25.3964695444
 21
94.5244736691
  0
LINE
  5
2B3
100
AcDbEntity
  8
00_COMPONENTS_2
100
AcDbLine
 62
7
  6
BYLAYER
 10
25.3993015837
 20
27.4176736691
 11
25.3993015837
 21
24.141073669
  0
LINE
  5
2B4
100
AcDbEntity
  8
00_COMPONENTS_2
100
AcDbLine
 62
7
  6
BYLAYER
 10
25.4276416582
 20
24.141073669
 11
25.4276416582
 21
27.4176736691
  0
LINE
  5
2B5
100
AcDbEntity
  8
00_COMPONENTS_2
100
AcDbLine
 62
7
  6
BYLAYER
 10
25.4674117784
 20
27.4176736691
 11
25.4674117784
 21
24.141073669
  0
LINE
  5
2B6
100
AcDbEntity
  8
00_COMPONENTS_2
100
AcDbLine
 62
7
  6
BYLAYER
 10
25.5046813631
 20
23.7469342855
 11
25.5046813631
 21
23.8705633449
  0
LINE
  5
2B7
100
AcDbEntity
  8
00_COMPONENTS_2
100
AcDbLine
 62
7
  6
BYLAYER
 10
25.6266111932
 20
27.4176736691
 11
25.6266111932
 21
24.0604987901
  0
LINE
  5
2B8
100
AcDbEntity
  8
00_COMPONENTS_2
100
AcDbLine
 62
7
  6
BYLAYER
 10
25.9966034947
 20
27.4176736691
 11
25.9966034947
 21
24.1023729032
  0
LINE
  5
2B9
100
AcDbEntity
  8
00_COMPONENTS_2
100
AcDbLine
 62
7
  6
BYLAYER
 10
26.0359638997
 20
24.141073669
 11
26.0359638997
 21
27.4176736691
  0
LINE
  5
2BA
100
AcDbEntity
  8
00_COMPONENTS_2
100
AcDbLine
 62
7
  6
BYLAYER
 10
26.0481681954
 20
23.7469342855
 11
26.0481681954
 21
23.940639171
  0
LINE
  5
2BB
100
AcDbEntity
  8
00_COMPONENTS_2
100
AcDbLine
 62
7
  6
BYLAYER
 10
26.08224118
 20
27.4176736691
 11
26.08224118
 21
24.141073669
  0
LINE
  5
2BC
100
AcDbEntity
  8
00_COMPONENTS_2
100
AcDbLine
 62
7
  6
BYLAYER
 10
26.2519357813
 20
27.4176736691
 11
26.2519357813
 21
24.0604987901
  0
LINE
  5
2BD
100
AcDbEntity
  8
00_COMPONENTS_2
100
AcDbLine
 62
7
  6
BYLAYER
 10
26.6817333835
 20
23.7469342855
 11
26.6817333835
 21
24.0604987901
  0
LINE
  5
2BE
100
AcDbEntity
  8
00_COMPONENTS_2
100
AcDbLine
 62
7
  6
BYLAYER
 10
26.6824431068
 20
27.4176736691
 11
26.6824431068
 21
24.0899083268
  0
LINE
  5
2BF
100
AcDbEntity
  8
00_COMPONENTS_2
100
AcDbLine
 62
7
  6
BYLAYER
 10
26.7344573792
 20
24.141073669
 11
26.7344573792
 21
27.4176736691
  0
LINE
  5
2C0
100
AcDbEntity
  8
00_COMPONENTS_2
100
AcDbLine
 62
7
  6
BYLAYER
 10
26.7868896216
 20
27.4176736691
 11
26.7868896216
 21
24.141073669
  0
LINE
  5
2C1
100
AcDbEntity
  8
00_COMPONENTS_2
100
AcDbLine
 62
7
  6
BYLAYER
 10
26.9657879311
 20
27.4176736691
 11
26.9657879311
 21
24.0604987901
  0
LINE
  5
2C2
100
AcDbEntity
  8
00_COMPONENTS_2
100
AcDbLine
 62
7
  6
BYLAYER
 10
27.4005551141
 20
23.7469342855
 11
27.4005551141
 21
27.4176736691
  0
LINE
  5
2C3
100
AcDbEntity
  8
00_COMPONENTS_2
100
AcDbLine
 62
7
  6
BYLAYER
 10
27.4516007665
 20
27.4176736691
 11
27.4516007665
 21
24.0759162691
  0
LINE
  5
2C4
100
AcDbEntity
  8
00_COMPONENTS_2
100
AcDbLine
 62
7
  6
BYLAYER
 10
27.5178061396
 20
24.141073669
 11
27.5178061396
 21
27.4176736691
  0
LINE
  5
2C5
100
AcDbEntity
  8
00_COMPONENTS_2
100
AcDbLine
 62
7
  6
BYLAYER
 10
27.575994303
 20
27.4176736691
 11
27.575994303
 21
24.141073669
  0
LINE
  5
2C6
100
AcDbEntity
  8
00_COMPONENTS_2
100
AcDbLine
 62
7
  6
BYLAYER
 10
27.7627347965
 20
27.4176736691
 11
27.7627347965
 21
24.0604987901
  0
LINE
  5
2C7
100
AcDbEntity
  8
0
100
AcDbLine
 62
7
  6
BYLAYER
 10
27.9364695444
 20
69.8864736691
 11
27.9364695444
 21
94.5244736691
  0
LINE
  5
2C8
100
AcDbEntity
  8
0
100
AcDbLine
 62
7
  6
BYLAYER
 10
27.9618695444
 20
94.5244736691
 11
27.9618695444
 21
69.8864736691
  0
LINE
  5
2C9
100
AcDbEntity
  8
00_COMPONENTS_4
100
AcDbLine
 62
7
  6
BYLAYER
 10
53.8840695484
 20
41.7204680671
 11
21.8840695404
 21
41.7204680671
  0
LINE
  5
2CA
100
AcDbEntity
  8
00_COMPONENTS_2
100
AcDbLine
 62
7
  6
BYLAYER
 10
51.8933372313
 20
24.1410736691
 11
51.8935461501
 21
24.1408784969
  0
LINE
  5
2CB
100
AcDbEntity
  8
00_COMPONENTS_2
100
AcDbLine
 62
7
  6
BYLAYER
 10
51.5817769368
 20
24.1410736691
 11
51.5876300637
 21
24.1353293818
  0
LINE
  5
2CC
100
AcDbEntity
  8
00_COMPONENTS_2
100
AcDbLine
 62
7
  6
BYLAYER
 10
51.7904751559
 20
24.1410736691
 11
51.792547518
 21
24.1390384479
  0
LINE
  5
2CD
100
AcDbEntity
  8
00_COMPONENTS_2
100
AcDbLine
 62
7
  6
BYLAYER
 10
51.0148383004
 20
23.7211395043
 11
51.0182872554
 21
23.7177406575
  0
LINE
  5
2CE
100
AcDbEntity
  8
00_COMPONENTS_2
100
AcDbLine
 62
7
  6
BYLAYER
 10
51.2734551117
 20
23.7192542056
 11
51.2749576751
 21
23.717740252
  0
LINE
  5
2CF
100
AcDbEntity
  8
00_COMPONENTS_2
100
AcDbLine
 62
7
  6
BYLAYER
 10
32.3506921499
 20
23.1249476137
 11
33.8924469388
 21
7.7073997244
  0
LINE
  5
2D0
100
AcDbEntity
  8
00_COMPONENTS_2
100
AcDbLine
 62
7
  6
BYLAYER
 10
28.1991627195
 20
23.7469342855
 11
28.1991627195
 21
27.4176736691
  0
LINE
  5
2D1
100
AcDbEntity
  8
00_COMPONENTS_2
100
AcDbLine
 62
7
  6
BYLAYER
 10
28.2982227195
 20
23.7469342855
 11
28.2982227195
 21
27.4176736691
  0
LINE
  5
2D2
100
AcDbEntity
  8
00_COMPONENTS_2
100
AcDbLine
 62
7
  6
BYLAYER
 10
28.3800484239
 20
24.141073669
 11
28.3800484239
 21
27.4176736691
  0
LINE
  5
2D3
100
AcDbEntity
  8
00_COMPONENTS_2
100
AcDbLine
 62
7
  6
BYLAYER
 10
28.4435496613
 20
27.4176736691
 11
28.4435496613
 21
24.141073669
  0
LINE
  5
2D4
100
AcDbEntity
  8
00_COMPONENTS_2
100
AcDbLine
 62
7
  6
BYLAYER
 10
28.6367111308
 20
27.4176736691
 11
28.6367111308
 21
24.0604987901
  0
LINE
  5
2D5
100
AcDbEntity
  8
00_COMPONENTS_2
100
AcDbLine
 62
7
  6
BYLAYER
 10
29.0714783138
 20
23.7469342855
 11
29.0714783138
 21
27.4176736691
  0
LINE
  5
2D6
100
AcDbEntity
  8
00_COMPONENTS_2
100
AcDbLine
 62
7
  6
BYLAYER
 10
29.1787950085
 20
27.4176736691
 11
29.1787950085
 21
23.7469342855
  0
LINE
  5
2D7
100
AcDbEntity
  8
00_COMPONENTS_2
100
AcDbLine
 62
7
  6
BYLAYER
 10
29.2168322083
 20
24.0604987901
 11
29.2168322083
 21
27.4176736691
  0
LINE
  5
2D8
100
AcDbEntity
  8
00_COMPONENTS_2
100
AcDbLine
 62
7
  6
BYLAYER
 10
29.3146220475
 20
24.141073669
 11
29.3146220475
 21
27.4176736691
  0
LINE
  5
2D9
100
AcDbEntity
  8
00_COMPONENTS_2
100
AcDbLine
 62
7
  6
BYLAYER
 10
29.3829530761
 20
27.4176736691
 11
29.3829530761
 21
24.141073669
  0
LINE
  5
2DA
100
AcDbEntity
  8
00_COMPONENTS_2
100
AcDbLine
 62
7
  6
BYLAYER
 10
29.5810654464
 20
27.4176736691
 11
29.5810654464
 21
24.0604987901
  0
LINE
  5
2DB
100
AcDbEntity
  8
00_COMPONENTS_2
100
AcDbLine
 62
7
  6
BYLAYER
 10
30.0108630486
 20
23.7469342855
 11
30.0108630486
 21
27.4176736691
  0
LINE
  5
2DC
100
AcDbEntity
  8
00_COMPONENTS_2
100
AcDbLine
 62
7
  6
BYLAYER
 10
30.1256196931
 20
27.4176736691
 11
30.1256196931
 21
23.7469342855
  0
LINE
  5
2DD
100
AcDbEntity
  8
00_COMPONENTS_2
100
AcDbLine
 62
7
  6
BYLAYER
 10
30.2014046066
 20
24.0604987901
 11
30.2014046066
 21
27.4176736691
  0
LINE
  5
2DE
100
AcDbEntity
  8
00_COMPONENTS_2
100
AcDbLine
 62
7
  6
BYLAYER
 10
30.314414341
 20
24.141073669
 11
30.314414341
 21
27.4176736691
  0
LINE
  5
2DF
100
AcDbEntity
  8
00_COMPONENTS_2
100
AcDbLine
 62
7
  6
BYLAYER
 10
30.3870551205
 20
27.4176736691
 11
30.3870551205
 21
24.141073669
  0
LINE
  5
2E0
100
AcDbEntity
  8
00_COMPONENTS_2
100
AcDbLine
 62
7
  6
BYLAYER
 10
30.5886106366
 20
27.4176736691
 11
30.5886106366
 21
24.0604987901
  0
LINE
  5
2E1
100
AcDbEntity
  8
00_COMPONENTS_4
100
AcDbLine
 62
7
  6
BYLAYER
 10
30.6508652114
 20
49.3124736691
 11
30.6508652114
 21
43.8501248748
  0
LINE
  5
2E2
100
AcDbEntity
  8
00_COMPONENTS_2
100
AcDbLine
 62
7
  6
BYLAYER
 10
31.0101676388
 20
23.7469342855
 11
31.0101676388
 21
27.4176736691
  0
LINE
  5
2E3
100
AcDbEntity
  8
00_COMPONENTS_2
100
AcDbLine
 62
7
  6
BYLAYER
 10
31.1314908657
 20
27.4176736691
 11
31.1314908657
 21
23.7469342855
  0
LINE
  5
2E4
100
AcDbEntity
  8
00_COMPONENTS_2
100
AcDbLine
 62
7
  6
BYLAYER
 10
31.244446724
 20
24.0604987901
 11
31.244446724
 21
27.4176736691
  0
LINE
  5
2E5
100
AcDbEntity
  8
00_COMPONENTS_2
100
AcDbLine
 62
7
  6
BYLAYER
 10
31.3718162813
 20
24.141073669
 11
31.3718162813
 21
27.4176736691
  0
LINE
  5
2E6
100
AcDbEntity
  8
0
100
AcDbLine
 62
7
  6
BYLAYER
 10
31.3732715322
 20
67.4057403357
 11
31.3732715322
 21
62.4442736691
  0
LINE
  5
2E7
100
AcDbEntity
  8
00_COMPONENTS_2
100
AcDbLine
 62
7
  6
BYLAYER
 10
31.4482139714
 20
27.4176736691
 11
31.4482139714
 21
24.141073669
  0
LINE
  5
2E8
100
AcDbEntity
  8
00_COMPONENTS_4
100
AcDbLine
 62
7
  6
BYLAYER
 10
21.4903695404
 20
42.40237647
 11
54.2777695484
 21
42.40237647
  0
LINE
  5
2E9
100
AcDbEntity
  8
00_COMPONENTS_2
100
AcDbLine
 62
7
  6
BYLAYER
 10
31.6516786742
 20
27.4176736691
 11
31.6516786742
 21
24.0604987901
  0
LINE
  5
2EA
100
AcDbEntity
  8
0
100
AcDbLine
 62
7
  6
BYLAYER
 10
31.9857421427
 20
69.8864736691
 11
31.9857421427
 21
67.4057403357
  0
LINE
  5
2EB
100
AcDbEntity
  8
00_COMPONENTS_2
100
AcDbLine
 62
7
  6
BYLAYER
 10
32.061786773
 20
23.7469342855
 11
32.061786773
 21
27.4176736691
  0
LINE
  5
2EC
100
AcDbEntity
  8
00_COMPONENTS_2
100
AcDbLine
 62
7
  6
BYLAYER
 10
32.1887532394
 20
27.4176736691
 11
32.1887532394
 21
23.7469342855
  0
LINE
  5
2ED
100
AcDbEntity
  8
00_COMPONENTS_2
100
AcDbLine
 62
7
  6
BYLAYER
 10
32.3380203802
 20
24.0604987901
 11
32.3380203802
 21
27.4176736691
  0
LINE
  5
2EE
100
AcDbEntity
  8
00_COMPONENTS_2
100
AcDbLine
 62
7
  6
BYLAYER
 10
32.4787804011
 20
24.141073669
 11
32.4787804011
 21
27.4176736691
  0
LINE
  5
2EF
100
AcDbEntity
  8
00_COMPONENTS_2
100
AcDbLine
 62
7
  6
BYLAYER
 10
32.5583535693
 20
27.4176736691
 11
32.5583535693
 21
24.141073669
  0
LINE
  5
2F0
100
AcDbEntity
  8
00_COMPONENTS_2
100
AcDbLine
 62
7
  6
BYLAYER
 10
32.7621789696
 20
27.4176736691
 11
32.7621789696
 21
24.0604987902
  0
LINE
  5
2F1
100
AcDbEntity
  8
00_COMPONENTS_2
100
AcDbLine
 62
7
  6
BYLAYER
 10
33.1577169947
 20
23.7469342855
 11
33.1577169947
 21
27.4176736691
  0
LINE
  5
2F2
100
AcDbEntity
  8
00_COMPONENTS_2
100
AcDbLine
 62
7
  6
BYLAYER
 10
33.2893604091
 20
27.4176736691
 11
33.2893604091
 21
23.7469342855
  0
LINE
  5
2F3
100
AcDbEntity
  8
00_COMPONENTS_2
100
AcDbLine
 62
7
  6
BYLAYER
 10
33.4738028193
 20
24.0604987902
 11
33.4738028193
 21
27.4176736691
  0
LINE
  5
2F4
100
AcDbEntity
  8
00_COMPONENTS_2
100
AcDbLine
 62
7
  6
BYLAYER
 10
33.6268820351
 20
24.141073669
 11
33.6268820351
 21
27.4176736691
  0
LINE
  5
2F5
100
AcDbEntity
  8
00_COMPONENTS_2
100
AcDbLine
 62
7
  6
BYLAYER
 10
33.7090250815
 20
27.4176736691
 11
33.7090250815
 21
24.141073669
  0
LINE
  5
2F6
100
AcDbEntity
  8
00_COMPONENTS_2
100
AcDbLine
 62
7
  6
BYLAYER
 10
33.9116599449
 20
27.4176736691
 11
33.9116599449
 21
24.0604987902
  0
LINE
  5
2F7
100
AcDbEntity
  8
00_COMPONENTS_2
100
AcDbLine
 62
7
  6
BYLAYER
 10
34.2896176132
 20
23.7469342855
 11
34.2896176132
 21
27.4176736691
  0
LINE
  5
2F8
100
AcDbEntity
  8
00_COMPONENTS_2
100
AcDbLine
 62
7
  6
BYLAYER
 10
34.4249360897
 20
27.4176736691
 11
34.4249360897
 21
23.7469342855
  0
LINE
  5
2F9
100
AcDbEntity
  8
0
100
AcDbLine
 62
7
  6
BYLAYER
 10
34.5728695444
 20
69.8864736691
 11
34.5728695444
 21
94.5244736691
  0
LINE
  5
2FA
100
AcDbEntity
  8
0
100
AcDbLine
 62
7
  6
BYLAYER
 10
34.5785695444
 20
69.8864736691
 11
34.5785695444
 21
94.5244736691
  0
LINE
  5
2FB
100
AcDbEntity
  8
00_COMPONENTS_2
100
AcDbLine
 62
7
  6
BYLAYER
 10
34.6431500512
 20
24.0604987902
 11
34.6431500512
 21
27.4176736691
  0
LINE
  5
2FC
100
AcDbEntity
  8
00_COMPONENTS_2
100
AcDbLine
 62
7
  6
BYLAYER
 10
34.8073834366
 20
24.141073669
 11
34.8073834366
 21
27.4176736691
  0
LINE
  5
2FD
100
AcDbEntity
  8
00_COMPONENTS_4
100
AcDbLine
 62
7
  6
BYLAYER
 10
34.8149758671
 20
50.5824736691
 11
34.8149758671
 21
49.3124736691
  0
LINE
  5
2FE
100
AcDbEntity
  8
00_COMPONENTS_2
100
AcDbLine
 62
7
  6
BYLAYER
 10
34.891471203
 20
27.4176736691
 11
34.891471203
 21
24.141073669
  0
LINE
  5
2FF
100
AcDbEntity
  8
00_COMPONENTS_2
100
AcDbLine
 62
7
  6
BYLAYER
 10
35.0913733559
 20
27.4176736691
 11
35.0913733559
 21
24.0604987902
  0
LINE
  5
300
100
AcDbEntity
  8
00_COMPONENTS_2
100
AcDbLine
 62
7
  6
BYLAYER
 10
35.4488741812
 20
23.7469342855
 11
35.4488741812
 21
27.4176736691
  0
LINE
  5
301
100
AcDbEntity
  8
00_COMPONENTS_2
100
AcDbLine
 62
7
  6
BYLAYER
 10
35.5868378645
 20
27.4176736691
 11
35.5868378645
 21
23.7469342855
  0
LINE
  5
302
100
AcDbEntity
  8
00_COMPONENTS_2
100
AcDbLine
 62
7
  6
BYLAYER
 10
35.8371626373
 20
24.0604987902
 11
35.8371626373
 21
27.4176736691
  0
LINE
  5
303
100
AcDbEntity
  8
00_COMPONENTS_2
100
AcDbLine
 62
7
  6
BYLAYER
 10
36.0113002771
 20
24.1410736691
 11
36.0113002771
 21
27.4176736691
  0
LINE
  5
304
100
AcDbEntity
  8
00_COMPONENTS_2
100
AcDbLine
 62
7
  6
BYLAYER
 10
36.0966928049
 20
27.4176736691
 11
36.0966928049
 21
24.1410736691
  0
LINE
  5
305
100
AcDbEntity
  8
00_COMPONENTS_2
100
AcDbLine
 62
7
  6
BYLAYER
 10
36.2923408712
 20
27.4176736691
 11
36.2923408712
 21
24.0604987902
  0
LINE
  5
306
100
AcDbEntity
  8
0
100
AcDbLine
 62
7
  6
BYLAYER
 10
36.2965695444
 20
69.8864736691
 11
36.2965695444
 21
62.4442736691
  0
LINE
  5
307
100
AcDbEntity
  8
00_COMPONENTS_2
100
AcDbLine
 62
7
  6
BYLAYER
 10
36.6266640564
 20
23.7469342855
 11
36.6266640564
 21
27.4176736691
  0
LINE
  5
308
100
AcDbEntity
  8
00_COMPONENTS_2
100
AcDbLine
 62
7
  6
BYLAYER
 10
36.7662229596
 20
27.4176736691
 11
36.7662229596
 21
23.7469342855
  0
LINE
  5
309
100
AcDbEntity
  8
00_COMPONENTS_2
100
AcDbLine
 62
7
  6
BYLAYER
 10
36.9493679235
 20
8.4554898428
 11
36.9493654144
 21
23.3536736691
  0
LINE
  5
30A
100
AcDbEntity
  8
00_COMPONENTS_2
100
AcDbLine
 62
7
  6
BYLAYER
 10
37.046753421
 20
24.0604987902
 11
37.046753421
 21
27.4176736691
  0
LINE
  5
30B
100
AcDbEntity
  8
00_COMPONENTS_2
100
AcDbLine
 62
7
  6
BYLAYER
 10
37.2294700226
 20
24.1410736691
 11
37.2294700226
 21
27.4176736691
  0
LINE
  5
30C
100
AcDbEntity
  8
00_COMPONENTS_2
100
AcDbLine
 62
7
  6
BYLAYER
 10
37.3155174231
 20
27.4176736691
 11
37.3155174231
 21
24.1410736691
  0
LINE
  5
30D
100
AcDbEntity
  8
00_COMPONENTS_2
100
AcDbLine
 62
7
  6
BYLAYER
 10
37.5054224028
 20
27.4176736691
 11
37.5054224028
 21
24.0604987902
  0
LINE
  5
30E
100
AcDbEntity
  8
00_COMPONENTS_2
100
AcDbLine
 62
7
  6
BYLAYER
 10
37.8140235466
 20
23.7469342855
 11
37.8140235466
 21
27.4176736691
  0
LINE
  5
30F
100
AcDbEntity
  8
00_COMPONENTS_4
100
AcDbLine
 62
7
  6
BYLAYER
 10
37.8840695444
 20
23.3536736691
 11
37.8840695444
 21
-21.3111263309
  0
LINE
  5
310
100
AcDbEntity
  8
00_COMPONENTS_2
100
AcDbLine
 62
7
  6
BYLAYER
 10
37.9541155421
 20
27.4176736691
 11
37.9541155421
 21
23.7469342855
  0
LINE
  5
311
100
AcDbEntity
  8
00_COMPONENTS_2
100
AcDbLine
 62
7
  6
BYLAYER
 10
38.262716686
 20
24.0604987902
 11
38.262716686
 21
27.4176736691
  0
LINE
  5
312
100
AcDbEntity
  8
00_COMPONENTS_4
100
AcDbLine
 62
7
  6
BYLAYER
 10
19.4690695444
 20
49.3124736691
 11
56.2990695444
 21
49.3124736691
  0
LINE
  5
313
100
AcDbEntity
  8
00_COMPONENTS_4
100
AcDbLine
 62
7
  6
BYLAYER
 10
18.8340695444
 20
50.5824736691
 11
56.9340695444
 21
50.5824736691
  0
LINE
  5
314
100
AcDbEntity
  8
00_COMPONENTS_4
100
AcDbLine
 62
7
  6
BYLAYER
 10
56.9340695444
 20
52.1064736691
 11
18.8340695444
 21
52.1064736691
  0
LINE
  5
315
100
AcDbEntity
  8
0
100
AcDbLine
 62
7
  6
BYLAYER
 10
15.0013169401
 20
90.8812287312
 11
15.7376919085
 21
89.4506289607
  0
LINE
  5
316
100
AcDbEntity
  8
0
100
AcDbLine
 62
7
  6
BYLAYER
 10
20.4688695444
 20
91.4681122915
 11
20.3650113897
 21
91.7306712258
  0
LINE
  5
317
100
AcDbEntity
  8
00_COMPONENTS_2
100
AcDbLine
 62
7
  6
BYLAYER
 10
38.4526216657
 20
24.1410736691
 11
38.4526216657
 21
27.4176736691
  0
LINE
  5
318
100
AcDbEntity
  8
00_COMPONENTS_2
100
AcDbLine
 62
7
  6
BYLAYER
 10
38.5386690662
 20
27.4176736691
 11
38.5386690662
 21
24.1410736691
  0
LINE
  5
319
100
AcDbEntity
  8
00_COMPONENTS_2
100
AcDbLine
 62
7
  6
BYLAYER
 10
38.7213856677
 20
27.4176736691
 11
38.7213856677
 21
24.0604987902
  0
LINE
  5
31A
100
AcDbEntity
  8
00_COMPONENTS_2
100
AcDbLine
 62
7
  6
BYLAYER
 10
38.8187723194
 20
8.4554898155
 11
38.8187736743
 21
23.3536736691
  0
LINE
  5
31B
100
AcDbEntity
  8
00_COMPONENTS_2
100
AcDbLine
 62
7
  6
BYLAYER
 10
39.0019161291
 20
23.7469342855
 11
39.0019161291
 21
27.4176736691
  0
LINE
  5
31C
100
AcDbEntity
  8
00_COMPONENTS_2
100
AcDbLine
 62
7
  6
BYLAYER
 10
39.1414750323
 20
27.4176736691
 11
39.1414750323
 21
23.7469342855
  0
LINE
  5
31D
100
AcDbEntity
  8
0
100
AcDbLine
 62
7
  6
BYLAYER
 10
39.4715695444
 20
69.8864736691
 11
39.4715695444
 21
62.4442736691
  0
LINE
  5
31E
100
AcDbEntity
  8
00_COMPONENTS_2
100
AcDbLine
 62
7
  6
BYLAYER
 10
39.4757982175
 20
24.0604987902
 11
39.4757982175
 21
27.4176736691
  0
LINE
  5
31F
100
AcDbEntity
  8
00_COMPONENTS_2
100
AcDbLine
 62
7
  6
BYLAYER
 10
39.6714462838
 20
24.1410736691
 11
39.6714462838
 21
27.4176736691
  0
LINE
  5
320
100
AcDbEntity
  8
00_COMPONENTS_2
100
AcDbLine
 62
7
  6
BYLAYER
 10
39.7568388116
 20
27.4176736691
 11
39.7568388116
 21
24.1410736691
  0
LINE
  5
321
100
AcDbEntity
  8
00_COMPONENTS_2
100
AcDbLine
 62
7
  6
BYLAYER
 10
39.9309764514
 20
27.4176736691
 11
39.9309764514
 21
24.0604987902
  0
LINE
  5
322
100
AcDbEntity
  8
00_COMPONENTS_2
100
AcDbLine
 62
7
  6
BYLAYER
 10
40.1813012242
 20
23.7469342855
 11
40.1813012242
 21
27.4176736691
  0
LINE
  5
323
100
AcDbEntity
  8
00_COMPONENTS_2
100
AcDbLine
 62
7
  6
BYLAYER
 10
40.3192649075
 20
27.4176736691
 11
40.3192649075
 21
23.7469342855
  0
LINE
  5
324
100
AcDbEntity
  8
00_COMPONENTS_2
100
AcDbLine
 62
7
  6
BYLAYER
 10
40.6767657328
 20
24.0604987902
 11
40.6767657328
 21
27.4176736691
  0
LINE
  5
325
100
AcDbEntity
  8
00_COMPONENTS_2
100
AcDbLine
 62
7
  6
BYLAYER
 10
40.8766678857
 20
24.1410736691
 11
40.8766678857
 21
27.4176736691
  0
LINE
  5
326
100
AcDbEntity
  8
00_COMPONENTS_4
100
AcDbLine
 62
7
  6
BYLAYER
 10
40.9531632217
 20
49.3124736691
 11
40.9531632217
 21
50.5824736691
  0
LINE
  5
327
100
AcDbEntity
  8
00_COMPONENTS_2
100
AcDbLine
 62
7
  6
BYLAYER
 10
40.9607556521
 20
27.4176736691
 11
40.9607556521
 21
24.1410736691
  0
LINE
  5
328
100
AcDbEntity
  8
00_COMPONENTS_2
100
AcDbLine
 62
7
  6
BYLAYER
 10
41.1249890375
 20
27.4176736691
 11
41.1249890375
 21
24.0604987902
  0
LINE
  5
329
100
AcDbEntity
  8
00_COMPONENTS_2
100
AcDbLine
 62
7
  6
BYLAYER
 10
41.343202999
 20
23.7469342855
 11
41.343202999
 21
27.4176736691
  0
LINE
  5
32A
100
AcDbEntity
  8
00_COMPONENTS_2
100
AcDbLine
 62
7
  6
BYLAYER
 10
41.4785214755
 20
27.4176736691
 11
41.4785214755
 21
23.7469342855
  0
LINE
  5
32B
100
AcDbEntity
  8
0
100
AcDbLine
 62
7
  6
BYLAYER
 10
55.3507643668
 20
82.5358317474
 11
55.2414617411
 21
82.3234829877
  0
LINE
  5
32C
100
AcDbEntity
  8
0
100
AcDbLine
 62
7
  6
BYLAYER
 10
20.5266773476
 20
91.1780155231
 11
20.417374722
 21
91.3903642828
  0
LINE
  5
32D
100
AcDbEntity
  8
00_COMPONENTS_2
100
AcDbLine
 62
7
  6
BYLAYER
 10
41.8564791438
 20
24.0604987902
 11
41.8564791438
 21
27.4176736691
  0
LINE
  5
32E
100
AcDbEntity
  8
00_COMPONENTS_2
100
AcDbLine
 62
7
  6
BYLAYER
 10
42.0591140072
 20
24.1410736691
 11
42.0591140072
 21
27.4176736691
  0
LINE
  5
32F
100
AcDbEntity
  8
00_COMPONENTS_2
100
AcDbLine
 62
7
  6
BYLAYER
 10
42.1412570536
 20
27.4176736691
 11
42.1412570536
 21
24.1410736691
  0
LINE
  5
330
100
AcDbEntity
  8
00_COMPONENTS_2
100
AcDbLine
 62
7
  6
BYLAYER
 10
42.2943362694
 20
27.4176736691
 11
42.2943362694
 21
24.0604987902
  0
LINE
  5
331
100
AcDbEntity
  8
00_COMPONENTS_2
100
AcDbLine
 62
7
  6
BYLAYER
 10
42.4787786796
 20
23.7469342855
 11
42.4787786796
 21
27.4176736691
  0
LINE
  5
332
100
AcDbEntity
  8
00_COMPONENTS_2
100
AcDbLine
 62
7
  6
BYLAYER
 10
42.610422094
 20
27.4176736691
 11
42.610422094
 21
23.7469342855
  0
LINE
  5
333
100
AcDbEntity
  8
00_COMPONENTS_2
100
AcDbLine
 62
7
  6
BYLAYER
 10
43.0059601191
 20
24.0604987902
 11
43.0059601191
 21
27.4176736691
  0
LINE
  5
334
100
AcDbEntity
  8
00_COMPONENTS_2
100
AcDbLine
 62
7
  6
BYLAYER
 10
43.2097855195
 20
24.1410736691
 11
43.2097855195
 21
27.4176736691
  0
LINE
  5
335
100
AcDbEntity
  8
00_COMPONENTS_2
100
AcDbLine
 62
7
  6
BYLAYER
 10
43.2893586876
 20
27.4176736691
 11
43.2893586876
 21
24.1410736691
  0
LINE
  5
336
100
AcDbEntity
  8
00_COMPONENTS_2
100
AcDbLine
 62
7
  6
BYLAYER
 10
43.4301187085
 20
27.4176736691
 11
43.4301187085
 21
24.0604987902
  0
LINE
  5
337
100
AcDbEntity
  8
00_COMPONENTS_2
100
AcDbLine
 62
7
  6
BYLAYER
 10
43.5793858493
 20
23.7469342855
 11
43.5793858493
 21
27.4176736691
  0
LINE
  5
338
100
AcDbEntity
  8
00_COMPONENTS_2
100
AcDbLine
 62
7
  6
BYLAYER
 10
43.7063523157
 20
27.4176736691
 11
43.7063523157
 21
23.7469342855
  0
LINE
  5
339
100
AcDbEntity
  8
0
100
AcDbLine
 62
7
  6
BYLAYER
 10
43.782396946
 20
67.4057403357
 11
43.782396946
 21
69.8864736691
  0
LINE
  5
33A
100
AcDbEntity
  8
00_COMPONENTS_2
100
AcDbLine
 62
7
  6
BYLAYER
 10
44.1164604145
 20
24.0604987902
 11
44.1164604145
 21
27.4176736691
  0
LINE
  5
33B
100
AcDbEntity
  8
00_COMPONENTS_2
100
AcDbLine
 62
7
  6
BYLAYER
 10
44.3199251174
 20
24.1410736691
 11
44.3199251174
 21
27.4176736691
  0
LINE
  5
33C
100
AcDbEntity
  8
0
100
AcDbLine
 62
7
  6
BYLAYER
 10
44.3948675566
 20
62.4442736691
 11
44.3948675566
 21
67.4057403357
  0
LINE
  5
33D
100
AcDbEntity
  8
00_COMPONENTS_2
100
AcDbLine
 62
7
  6
BYLAYER
 10
44.3963228074
 20
27.4176736691
 11
44.3963228074
 21
24.1410736691
  0
LINE
  5
33E
100
AcDbEntity
  8
00_COMPONENTS_2
100
AcDbLine
 62
7
  6
BYLAYER
 10
44.5236923647
 20
27.4176736691
 11
44.5236923647
 21
24.0604987902
  0
LINE
  5
33F
100
AcDbEntity
  8
00_COMPONENTS_2
100
AcDbLine
 62
7
  6
BYLAYER
 10
44.636648223
 20
23.7469342855
 11
44.636648223
 21
27.4176736691
  0
LINE
  5
340
100
AcDbEntity
  8
00_COMPONENTS_2
100
AcDbLine
 62
7
  6
BYLAYER
 10
44.75797145
 20
27.4176736691
 11
44.75797145
 21
23.7469342855
  0
LINE
  5
341
100
AcDbEntity
  8
00_COMPONENTS_4
100
AcDbLine
 62
7
  6
BYLAYER
 10
45.1172738773
 20
49.3124736691
 11
45.1172738773
 21
43.8501248748
  0
LINE
  5
342
100
AcDbEntity
  8
0
100
AcDbLine
 62
7
  6
BYLAYER
 10
55.4031276991
 20
82.8761386904
 11
55.2992695444
 21
82.6135797561
  0
LINE
  5
343
100
AcDbEntity
  8
0
100
AcDbLine
 62
7
  6
BYLAYER
 10
60.0304471803
 20
80.5960964253
 11
60.7668221486
 21
82.0266961958
  0
LINE
  5
344
100
AcDbEntity
  8
0
100
AcDbLine
 62
7
  6
BYLAYER
 10
18.0403195444
 20
58.4564736691
 11
57.7278195444
 21
58.4564736691
  0
LINE
  5
345
100
AcDbEntity
  8
00_COMPONENTS_2
100
AcDbLine
 62
7
  6
BYLAYER
 10
45.1795284521
 20
24.0604987902
 11
45.1795284521
 21
27.4176736691
  0
LINE
  5
346
100
AcDbEntity
  8
00_COMPONENTS_2
100
AcDbLine
 62
7
  6
BYLAYER
 10
45.3810839683
 20
24.1410736691
 11
45.3810839683
 21
27.4176736691
  0
LINE
  5
347
100
AcDbEntity
  8
00_COMPONENTS_2
100
AcDbLine
 62
7
  6
BYLAYER
 10
45.4537247477
 20
27.4176736691
 11
45.4537247477
 21
24.1410736691
  0
LINE
  5
348
100
AcDbEntity
  8
00_COMPONENTS_2
100
AcDbLine
 62
7
  6
BYLAYER
 10
45.5667344821
 20
27.4176736691
 11
45.5667344821
 21
24.0604987902
  0
LINE
  5
349
100
AcDbEntity
  8
00_COMPONENTS_2
100
AcDbLine
 62
7
  6
BYLAYER
 10
45.6425193956
 20
23.7469342855
 11
45.6425193956
 21
27.4176736691
  0
LINE
  5
34A
100
AcDbEntity
  8
00_COMPONENTS_2
100
AcDbLine
 62
7
  6
BYLAYER
 10
45.7572760401
 20
27.4176736691
 11
45.7572760401
 21
23.7469342855
  0
LINE
  5
34B
100
AcDbEntity
  8
00_COMPONENTS_2
100
AcDbLine
 62
7
  6
BYLAYER
 10
46.1870736423
 20
24.0604987902
 11
46.1870736423
 21
27.4176736691
  0
LINE
  5
34C
100
AcDbEntity
  8
00_COMPONENTS_2
100
AcDbLine
 62
7
  6
BYLAYER
 10
46.3851860126
 20
24.1410736691
 11
46.3851860126
 21
27.4176736691
  0
LINE
  5
34D
100
AcDbEntity
  8
00_COMPONENTS_2
100
AcDbLine
 62
7
  6
BYLAYER
 10
46.4535170412
 20
27.4176736691
 11
46.4535170412
 21
24.1410736691
  0
LINE
  5
34E
100
AcDbEntity
  8
00_COMPONENTS_2
100
AcDbLine
 62
7
  6
BYLAYER
 10
46.5513068804
 20
27.4176736691
 11
46.5513068804
 21
24.0604987902
  0
LINE
  5
34F
100
AcDbEntity
  8
00_COMPONENTS_2
100
AcDbLine
 62
7
  6
BYLAYER
 10
46.5893440802
 20
23.7469342855
 11
46.5893440802
 21
27.4176736691
  0
LINE
  5
350
100
AcDbEntity
  8
00_COMPONENTS_2
100
AcDbLine
 62
7
  6
BYLAYER
 10
46.6966607749
 20
27.4176736691
 11
46.6966607749
 21
23.7469342855
  0
LINE
  5
351
100
AcDbEntity
  8
00_COMPONENTS_2
100
AcDbLine
 62
7
  6
BYLAYER
 10
47.1314279579
 20
24.0604987902
 11
47.1314279579
 21
27.4176736691
  0
LINE
  5
352
100
AcDbEntity
  8
00_COMPONENTS_2
100
AcDbLine
 62
7
  6
BYLAYER
 10
47.3245894275
 20
24.1410736691
 11
47.3245894275
 21
27.4176736691
  0
LINE
  5
353
100
AcDbEntity
  8
00_COMPONENTS_2
100
AcDbLine
 62
7
  6
BYLAYER
 10
47.3880906649
 20
27.4176736691
 11
47.3880906649
 21
24.1410736691
  0
LINE
  5
354
100
AcDbEntity
  8
00_COMPONENTS_2
100
AcDbLine
 62
7
  6
BYLAYER
 10
47.4699163692
 20
27.4176736691
 11
47.4699163692
 21
23.7469342855
  0
LINE
  5
355
100
AcDbEntity
  8
00_COMPONENTS_2
100
AcDbLine
 62
7
  6
BYLAYER
 10
47.5689763692
 20
27.4176736691
 11
47.5689763692
 21
23.7469342855
  0
LINE
  5
356
100
AcDbEntity
  8
0
100
AcDbLine
 62
7
  6
BYLAYER
 10
47.8062695444
 20
69.8864736691
 11
47.8062695444
 21
94.5244736691
  0
LINE
  5
357
100
AcDbEntity
  8
0
100
AcDbLine
 62
7
  6
BYLAYER
 10
47.8316695444
 20
69.8864736691
 11
47.8316695444
 21
94.5244736691
  0
LINE
  5
358
100
AcDbEntity
  8
00_COMPONENTS_2
100
AcDbLine
 62
7
  6
BYLAYER
 10
48.0054042922
 20
24.0604987902
 11
48.0054042922
 21
27.4176736691
  0
LINE
  5
359
100
AcDbEntity
  8
00_COMPONENTS_2
100
AcDbLine
 62
7
  6
BYLAYER
 10
48.1921447857
 20
24.1410736691
 11
48.1921447857
 21
27.4176736691
  0
LINE
  5
35A
100
AcDbEntity
  8
00_COMPONENTS_2
100
AcDbLine
 62
7
  6
BYLAYER
 10
48.2503329491
 20
27.4176736691
 11
48.2503329491
 21
24.1410736691
  0
LINE
  5
35B
100
AcDbEntity
  8
00_COMPONENTS_2
100
AcDbLine
 62
7
  6
BYLAYER
 10
48.3165383222
 20
24.0759162691
 11
48.3165383222
 21
27.4176736691
  0
LINE
  5
35C
100
AcDbEntity
  8
00_COMPONENTS_2
100
AcDbLine
 62
7
  6
BYLAYER
 10
48.3675839747
 20
27.4176736691
 11
48.3675839747
 21
23.7469342855
  0
LINE
  5
35D
100
AcDbEntity
  8
00_COMPONENTS_2
100
AcDbLine
 62
7
  6
BYLAYER
 10
41.8756921499
 20
7.7073997244
 11
43.4174469388
 21
23.1249476137
  0
LINE
  5
35E
100
AcDbEntity
  8
00_COMPONENTS_2
100
AcDbLine
 62
7
  6
BYLAYER
 10
23.9755915708
 20
24.1390384358
 11
23.9776639329
 21
24.141073669
  0
LINE
  5
35F
100
AcDbEntity
  8
00_COMPONENTS_2
100
AcDbLine
 62
7
  6
BYLAYER
 10
24.180509025
 20
24.1353297595
 11
24.186362152
 21
24.141073669
  0
LINE
  5
360
100
AcDbEntity
  8
0
100
AcDbLine
 62
7
  6
BYLAYER
 10
17.5894695444
 20
60.0439736691
 11
58.1786695444
 21
60.0439736691
  0
LINE
  5
361
100
AcDbEntity
  8
0
100
AcDbLine
 62
7
  6
BYLAYER
 10
16.4464695444
 20
62.4442736691
 11
59.3216695444
 21
62.4442736691
  0
LINE
  5
362
100
AcDbEntity
  8
00_COMPONENTS_2
100
AcDbLine
 62
7
  6
BYLAYER
 10
48.8023511577
 20
24.0604987902
 11
48.8023511577
 21
27.4176736691
  0
LINE
  5
363
100
AcDbEntity
  8
00_COMPONENTS_2
100
AcDbLine
 62
7
  6
BYLAYER
 10
48.9812494672
 20
24.1410736691
 11
48.9812494672
 21
27.4176736691
  0
LINE
  5
364
100
AcDbEntity
  8
00_COMPONENTS_2
100
AcDbLine
 62
7
  6
BYLAYER
 10
49.0336817095
 20
27.4176736691
 11
49.0336817095
 21
24.1410736691
  0
LINE
  5
365
100
AcDbEntity
  8
00_COMPONENTS_2
100
AcDbLine
 62
7
  6
BYLAYER
 10
49.0856959819
 20
24.0899083268
 11
49.0856959819
 21
27.4176736691
  0
LINE
  5
366
100
AcDbEntity
  8
00_COMPONENTS_2
100
AcDbLine
 62
7
  6
BYLAYER
 10
49.0864057052
 20
24.0604987902
 11
49.0864057052
 21
23.7469342855
  0
LINE
  5
367
100
AcDbEntity
  8
00_COMPONENTS_2
100
AcDbLine
 62
7
  6
BYLAYER
 10
49.5162033074
 20
24.0604987902
 11
49.5162033074
 21
27.4176736691
  0
LINE
  5
368
100
AcDbEntity
  8
00_COMPONENTS_2
100
AcDbLine
 62
7
  6
BYLAYER
 10
49.6858979088
 20
24.1410736691
 11
49.6858979088
 21
27.4176736691
  0
LINE
  5
369
100
AcDbEntity
  8
00_COMPONENTS_2
100
AcDbLine
 62
7
  6
BYLAYER
 10
49.7199708934
 20
23.9406391712
 11
49.7199708934
 21
23.7469342855
  0
LINE
  5
36A
100
AcDbEntity
  8
00_COMPONENTS_2
100
AcDbLine
 62
7
  6
BYLAYER
 10
49.7321751891
 20
27.4176736691
 11
49.7321751891
 21
24.1410736691
  0
LINE
  5
36B
100
AcDbEntity
  8
00_COMPONENTS_2
100
AcDbLine
 62
7
  6
BYLAYER
 10
49.771535594
 20
24.1023729032
 11
49.771535594
 21
27.4176736691
  0
LINE
  5
36C
100
AcDbEntity
  8
00_COMPONENTS_2
100
AcDbLine
 62
7
  6
BYLAYER
 10
50.1415278955
 20
24.0604987902
 11
50.1415278955
 21
27.4176736691
  0
LINE
  5
36D
100
AcDbEntity
  8
00_COMPONENTS_2
100
AcDbLine
 62
7
  6
BYLAYER
 10
50.2634577256
 20
23.8705633451
 11
50.2634577256
 21
23.7469342855
  0
LINE
  5
36E
100
AcDbEntity
  8
00_COMPONENTS_2
100
AcDbLine
 62
7
  6
BYLAYER
 10
50.3007273103
 20
24.1410736691
 11
50.3007273103
 21
27.4176736691
  0
LINE
  5
36F
100
AcDbEntity
  8
00_COMPONENTS_2
100
AcDbLine
 62
7
  6
BYLAYER
 10
50.3404974305
 20
27.4176736691
 11
50.3404974305
 21
24.1410736691
  0
LINE
  5
370
100
AcDbEntity
  8
00_COMPONENTS_2
100
AcDbLine
 62
7
  6
BYLAYER
 10
50.3688375051
 20
24.1410736691
 11
50.3688375051
 21
27.4176736691
  0
LINE
  5
371
100
AcDbEntity
  8
0
100
AcDbLine
 62
7
  6
BYLAYER
 10
50.3716695444
 20
94.5244736691
 11
50.3716695444
 21
79.5400222193
  0
LINE
  5
372
100
AcDbEntity
  8
0
100
AcDbLine
 62
7
  6
BYLAYER
 10
50.3716695444
 20
77.4353702093
 11
50.3716695444
 21
69.8864736691
  0
LINE
  5
373
100
AcDbEntity
  8
00_COMPONENTS_2
100
AcDbLine
 62
7
  6
BYLAYER
 10
50.6735658243
 20
24.0604987902
 11
50.6735658243
 21
27.4176736691
  0
LINE
  5
374
100
AcDbEntity
  8
00_COMPONENTS_2
100
AcDbLine
 62
7
  6
BYLAYER
 10
50.7127299389
 20
23.8278105208
 11
50.7127299389
 21
23.7469342855
  0
LINE
  5
375
100
AcDbEntity
  8
00_COMPONENTS_2
100
AcDbLine
 62
7
  6
BYLAYER
 10
50.821058449
 20
24.1410736691
 11
50.821058449
 21
27.4176736691
  0
LINE
  5
376
100
AcDbEntity
  8
00_COMPONENTS_2
100
AcDbLine
 62
7
  6
BYLAYER
 10
50.8540187344
 20
27.4176736691
 11
50.8540187344
 21
24.1410736691
  0
LINE
  5
377
100
AcDbEntity
  8
00_COMPONENTS_2
100
AcDbLine
 62
7
  6
BYLAYER
 10
50.8730558868
 20
24.1410736691
 11
50.8730558868
 21
27.4176736691
  0
LINE
  5
378
100
AcDbEntity
  8
00_COMPONENTS_2
100
AcDbLine
 62
7
  6
BYLAYER
 10
51.0643683004
 20
23.7986644344
 11
51.0643683004
 21
23.7469342855
  0
LINE
  5
379
100
AcDbEntity
  8
00_COMPONENTS_2
100
AcDbLine
 62
7
  6
BYLAYER
 10
51.108267964
 20
24.0604987902
 11
51.108267964
 21
27.4176736691
  0
LINE
  5
37A
100
AcDbEntity
  8
00_COMPONENTS_2
100
AcDbLine
 62
7
  6
BYLAYER
 10
51.2429312904
 20
24.1410736691
 11
51.2429312904
 21
27.4176736691
  0
LINE
  5
37B
100
AcDbEntity
  8
00_COMPONENTS_2
100
AcDbLine
 62
7
  6
BYLAYER
 10
51.2688308935
 20
27.4176736691
 11
51.2688308935
 21
24.1410736691
  0
LINE
  5
37C
100
AcDbEntity
  8
00_COMPONENTS_2
100
AcDbLine
 62
7
  6
BYLAYER
 10
51.2803533328
 20
24.1410736691
 11
51.2803533328
 21
27.4176736691
  0
LINE
  5
37D
100
AcDbEntity
  8
00_COMPONENTS_2
100
AcDbLine
 62
7
  6
BYLAYER
 10
51.3156966299
 20
23.7771892349
 11
51.3156966299
 21
23.7469342855
  0
LINE
  5
37E
100
AcDbEntity
  8
00_COMPONENTS_2
100
AcDbLine
 62
7
  6
BYLAYER
 10
51.4423259686
 20
24.0604987902
 11
51.4423259686
 21
27.4176736691
  0
LINE
  5
37F
100
AcDbEntity
  8
00_COMPONENTS_2
100
AcDbLine
 62
7
  6
BYLAYER
 10
51.464802167
 20
23.7604844951
 11
51.464802167
 21
23.7469342855
  0
LINE
  5
380
100
AcDbEntity
  8
00_COMPONENTS_2
100
AcDbLine
 62
7
  6
BYLAYER
 10
51.5631351277
 20
24.1410736691
 11
51.5631351277
 21
27.4176736691
  0
LINE
  5
381
100
AcDbEntity
  8
00_COMPONENTS_2
100
AcDbLine
 62
7
  6
BYLAYER
 10
51.5817769368
 20
27.4176736691
 11
51.5817769368
 21
24.1410736691
  0
LINE
  5
382
100
AcDbEntity
  8
00_COMPONENTS_2
100
AcDbLine
 62
7
  6
BYLAYER
 10
51.5876300637
 20
24.1353253987
 11
51.5876300637
 21
27.4176736691
  0
LINE
  5
383
100
AcDbEntity
  8
00_COMPONENTS_2
100
AcDbLine
 62
7
  6
BYLAYER
 10
51.6731974552
 20
24.0604987902
 11
51.6731974552
 21
27.4176736691
  0
LINE
  5
384
100
AcDbEntity
  8
00_COMPONENTS_2
100
AcDbLine
 62
7
  6
BYLAYER
 10
51.7792330163
 20
24.1410736691
 11
51.7792330163
 21
27.4176736691
  0
LINE
  5
385
100
AcDbEntity
  8
00_COMPONENTS_2
100
AcDbLine
 62
7
  6
BYLAYER
 10
51.7904751559
 20
27.4176736691
 11
51.7904751559
 21
24.1410736691
  0
LINE
  5
386
100
AcDbEntity
  8
00_COMPONENTS_2
100
AcDbLine
 62
7
  6
BYLAYER
 10
51.792547518
 20
24.1390387021
 11
51.792547518
 21
27.4176736691
  0
LINE
  5
387
100
AcDbEntity
  8
00_COMPONENTS_2
100
AcDbLine
 62
7
  6
BYLAYER
 10
51.7991253523
 20
24.0604987902
 11
51.7991253523
 21
27.4176736691
  0
LINE
  5
388
100
AcDbEntity
  8
00_COMPONENTS_2
100
AcDbLine
 62
7
  6
BYLAYER
 10
51.8895803207
 20
24.1410736691
 11
51.8895803207
 21
27.4176736691
  0
LINE
  5
389
100
AcDbEntity
  8
00_COMPONENTS_2
100
AcDbLine
 62
7
  6
BYLAYER
 10
51.8933372313
 20
27.4176736691
 11
51.8933372313
 21
24.1410736691
  0
LINE
  5
38A
100
AcDbEntity
  8
00_COMPONENTS_2
100
AcDbLine
 62
7
  6
BYLAYER
 10
51.9048695444
 20
28.1288736691
 11
51.9048695444
 21
27.4176736691
  0
LINE
  5
38B
100
AcDbEntity
  8
00_COMPONENTS_2
100
AcDbLine
 62
7
  6
BYLAYER
 10
48.3165383221
 20
24.075904313
 11
48.3155717755
 21
24.0604987902
  0
LINE
  5
38C
100
AcDbEntity
  8
00_COMPONENTS_2
100
AcDbLine
 62
7
  6
BYLAYER
 10
48.2771576226
 20
23.7410720075
 11
48.2775345757
 21
23.7469342855
  0
LINE
  5
38D
100
AcDbEntity
  8
00_COMPONENTS_2
100
AcDbLine
 62
7
  6
BYLAYER
 10
23.8745929387
 20
24.1408785201
 11
23.8748018574
 21
24.141073669
  0
LINE
  5
38E
100
AcDbEntity
  8
0
100
AcDbLine
 62
7
  6
BYLAYER
 10
52.8700695444
 20
52.1064736691
 11
52.8700695444
 21
58.4564736691
  0
LINE
  5
38F
100
AcDbEntity
  8
00_COMPONENTS_4
100
AcDbLine
 62
7
  6
BYLAYER
 10
53.8840695484
 20
28.3828736691
 11
53.8840695484
 21
41.7204680671
  0
LINE
  5
390
100
AcDbEntity
  8
0
100
AcDbLine
 62
7
  6
BYLAYER
 10
55.2992695444
 20
79.1861962143
 11
55.2992695444
 21
81.7217027368
  0
LINE
  5
391
100
AcDbEntity
  8
0
100
AcDbLine
 62
7
  6
BYLAYER
 10
55.2992695444
 20
82.6135797561
 11
55.2992695444
 21
85.9752698418
  0
LINE
  5
392
100
AcDbEntity
  8
0
100
AcDbLine
 62
7
  6
BYLAYER
 10
55.2992695444
 20
88.4538205312
 11
55.2992695444
 21
94.5244736691
  0
LINE
  5
393
100
AcDbEntity
  8
00_COMPONENTS_4
100
AcDbLine
 62
7
  6
BYLAYER
 10
55.3465695444
 20
49.3124736691
 11
55.3465695444
 21
43.0194484354
  0
LINE
  5
394
100
AcDbEntity
  8
00_COMPONENTS_2
100
AcDbLine
 62
7
  6
BYLAYER
 10
49.0856959819
 20
24.089911845
 11
49.0818371512
 21
24.0604987902
  0
LINE
  5
395
100
AcDbEntity
  8
00_COMPONENTS_2
100
AcDbLine
 62
7
  6
BYLAYER
 10
49.0045472937
 20
23.7357777178
 11
49.0060522377
 21
23.7469342855
  0
LINE
  5
396
100
AcDbEntity
  8
00_COMPONENTS_2
100
AcDbLine
 62
7
  6
BYLAYER
 10
49.771535594
 20
24.102369841
 11
49.7628807539
 21
24.0604987902
  0
LINE
  5
397
100
AcDbEntity
  8
00_COMPONENTS_2
100
AcDbLine
 62
7
  6
BYLAYER
 10
49.646549508
 20
23.7310969777
 11
49.6499248956
 21
23.7469342855
  0
LINE
  5
398
100
AcDbEntity
  8
00_COMPONENTS_4
100
AcDbLine
 62
7
  6
BYLAYER
 10
54.2777695484
 20
42.40237647
 11
55.3465695444
 21
43.0194484354
  0
LINE
  5
399
100
AcDbEntity
  8
0
100
AcDbLine
 62
7
  6
BYLAYER
 10
16.4464695444
 20
67.4057403357
 11
31.9857421427
 21
67.4057403357
  0
LINE
  5
39A
100
AcDbEntity
  8
0
100
AcDbLine
 62
7
  6
BYLAYER
 10
43.782396946
 20
67.4057403357
 11
59.3216695444
 21
67.4057403357
  0
LINE
  5
39B
100
AcDbEntity
  8
00_COMPONENTS_4
100
AcDbLine
 62
7
  6
BYLAYER
 10
56.2990695444
 20
50.5824736691
 11
56.2990695444
 21
49.3124736691
  0
LINE
  5
39C
100
AcDbEntity
  8
00_COMPONENTS_4
100
AcDbLine
 62
7
  6
BYLAYER
 10
56.9340695444
 20
52.1064736691
 11
56.9340695444
 21
50.5824736691
  0
LINE
  5
39D
100
AcDbEntity
  8
0
100
AcDbLine
 62
7
  6
BYLAYER
 10
57.7278195444
 20
58.4564736691
 11
57.7278195444
 21
60.0439736691
  0
LINE
  5
39E
100
AcDbEntity
  8
0
100
AcDbLine
 62
7
  6
BYLAYER
 10
58.0932695444
 20
94.5244736691
 11
58.0932695444
 21
96.3278736691
  0
LINE
  5
39F
100
AcDbEntity
  8
0
100
AcDbLine
 62
7
  6
BYLAYER
 10
58.1786695444
 20
60.0439736691
 11
58.1786695444
 21
62.4442736691
  0
LINE
  5
3A0
100
AcDbEntity
  8
00_COMPONENTS_2
100
AcDbLine
 62
7
  6
BYLAYER
 10
50.198278241
 20
23.7270832608
 11
50.20425229
 21
23.7469342855
  0
LINE
  5
3A1
100
AcDbEntity
  8
0
100
AcDbLine
 62
7
  6
BYLAYER
 10
59.3216695444
 20
69.8864736691
 11
16.4464695444
 21
69.8864736691
  0
LINE
  5
3A2
100
AcDbEntity
  8
0
100
AcDbLine
 62
7
  6
BYLAYER
 10
27.9364695444
 20
69.9118736691
 11
27.9618695444
 21
69.9118736691
  0
LINE
  5
3A3
100
AcDbEntity
  8
0
100
AcDbLine
 62
7
  6
BYLAYER
 10
47.8062695444
 20
69.9118736691
 11
47.8316695444
 21
69.9118736691
  0
LINE
  5
3A4
100
AcDbEntity
  8
0
100
AcDbLine
 62
7
  6
BYLAYER
 10
25.3964695444
 20
70.0122944134
 11
12.6964695444
 21
70.0122944134
  0
LINE
  5
3A5
100
AcDbEntity
  8
0
100
AcDbLine
 62
7
  6
BYLAYER
 10
50.3716695444
 20
70.0122944134
 11
63.0716695444
 21
70.0122944134
  0
LINE
  5
3A6
100
AcDbEntity
  8
0
100
AcDbLine
 62
7
  6
BYLAYER
 10
59.3216695444
 20
69.8864736691
 11
59.3216695444
 21
62.4442736691
  0
LINE
  5
3A7
100
AcDbEntity
  8
0
100
AcDbLine
 62
7
  6
BYLAYER
 10
61.5476695444
 20
94.5244736691
 11
61.5476695444
 21
96.3278736691
  0
LINE
  5
3A8
100
AcDbEntity
  8
0
100
AcDbLine
 62
7
  6
BYLAYER
 10
61.8016695444
 20
80.5960964253
 11
61.8016695444
 21
79.2279296202
  0
LINE
  5
3A9
100
AcDbEntity
  8
00_COMPONENTS_2
100
AcDbLine
 62
7
  6
BYLAYER
 10
50.6555345039
 20
23.7237558277
 11
50.6648156545
 21
23.7469342855
  0
LINE
  5
3AA
100
AcDbEntity
  8
0
100
AcDbLine
 62
7
  6
BYLAYER
 10
63.0716695444
 20
70.0122944134
 11
63.0716695444
 21
94.5244736691
  0
LINE
  5
3AB
100
AcDbEntity
  8
0
100
AcDbLine
 62
7
  6
BYLAYER
 10
50.3716695444
 20
77.4353702093
 11
47.8316695444
 21
77.4353702093
  0
LINE
  5
3AC
100
AcDbEntity
  8
0
100
AcDbLine
 62
7
  6
BYLAYER
 10
27.9364695444
 20
77.4353702093
 11
25.3964695444
 21
77.4353702093
  0
LINE
  5
3AD
100
AcDbEntity
  8
0
100
AcDbLine
 62
7
  6
BYLAYER
 10
27.9364695444
 20
77.7891962143
 11
17.7548339439
 21
77.7891962143
  0
LINE
  5
3AE
100
AcDbEntity
  8
0
100
AcDbLine
 62
7
  6
BYLAYER
 10
47.8316695444
 20
77.7891962143
 11
58.0133051449
 21
77.7891962143
  0
LINE
  5
3AF
100
AcDbEntity
  8
0
100
AcDbLine
 62
7
  6
BYLAYER
 10
27.9364695444
 20
79.1861962143
 11
20.4688695444
 21
79.1861962143
  0
LINE
  5
3B0
100
AcDbEntity
  8
0
100
AcDbLine
 62
7
  6
BYLAYER
 10
47.8316695444
 20
79.1861962143
 11
55.2992695444
 21
79.1861962143
  0
LINE
  5
3B1
100
AcDbEntity
  8
0
100
AcDbLine
 62
7
  6
BYLAYER
 10
25.3964695444
 20
79.5400222193
 11
27.9364695444
 21
79.5400222193
  0
LINE
  5
3B2
100
AcDbEntity
  8
0
100
AcDbLine
 62
7
  6
BYLAYER
 10
47.8316695444
 20
79.5400222193
 11
50.3716695444
 21
79.5400222193
  0
LINE
  5
3B3
100
AcDbEntity
  8
0
100
AcDbLine
 62
7
  6
BYLAYER
 10
16.554568484
 20
87.8851988349
 11
15.7482080753
 21
88.2143940932
  0
LINE
  5
3B4
100
AcDbEntity
  8
0
100
AcDbLine
 62
7
  6
BYLAYER
 10
16.2562080753
 20
88.1899860472
 11
16.909004551
 21
87.923483002
  0
LINE
  5
3B5
100
AcDbEntity
  8
0
100
AcDbLine
 62
7
  6
BYLAYER
 10
16.2562080753
 20
88.8365644879
 11
17.9639808441
 21
88.1393691746
  0
LINE
  5
3B6
100
AcDbEntity
  8
00_COMPONENTS_2
100
AcDbLine
 62
7
  6
BYLAYER
 10
51.7771578972
 20
24.0174386784
 11
51.8191512725
 21
24.0604987902
  0
LINE
  5
3B7
100
AcDbEntity
  8
00_COMPONENTS_4
100
AcDbLine
 62
7
  6
BYLAYER
 10
53.6300695484
 20
28.1288736691
 11
53.8840695484
 21
28.3828736691
  0
LINE
  5
3B8
100
AcDbEntity
  8
00_COMPONENTS_2
100
AcDbLine
 62
7
  6
BYLAYER
 10
51.1174695444
 20
23.3536736691
 11
51.5105500824
 21
23.7469341923
  0
LINE
  5
3B9
100
AcDbEntity
  8
00_COMPONENTS_2
100
AcDbLine
 62
7
  6
BYLAYER
 10
51.7642718991
 20
24.0274998392
 11
51.7991253523
 21
24.0604987902
  0
LINE
  5
3BA
100
AcDbEntity
  8
00_COMPONENTS_2
100
AcDbLine
 62
7
  6
BYLAYER
 10
51.5993629289
 20
23.995193585
 11
51.6731974552
 21
24.0604987902
  0
LINE
  5
3BB
100
AcDbEntity
  8
0
100
AcDbLine
 62
7
  6
BYLAYER
 10
17.7548339439
 20
77.7891962143
 11
12.6964695444
 21
76.4873461087
  0
LINE
  5
3BC
100
AcDbEntity
  8
0
100
AcDbLine
 62
7
  6
BYLAYER
 10
60.0304471803
 20
80.5960964253
 11
61.8016695444
 21
80.5960964253
  0
LINE
  5
3BD
100
AcDbEntity
  8
0
100
AcDbLine
 62
7
  6
BYLAYER
 10
63.0716695444
 20
76.4873461087
 11
58.0133051449
 21
77.7891962143
  0
LINE
  5
3BE
100
AcDbEntity
  8
0
100
AcDbLine
 62
7
  6
BYLAYER
 10
25.3964695444
 20
85.9752698418
 11
20.4688695444
 21
85.9752698418
  0
LINE
  5
3BF
100
AcDbEntity
  8
0
100
AcDbLine
 62
7
  6
BYLAYER
 10
50.3716695444
 20
85.9752698418
 11
55.2992695444
 21
85.9752698418
  0
LINE
  5
3C0
100
AcDbEntity
  8
0
100
AcDbLine
 62
7
  6
BYLAYER
 10
63.0716695444
 20
78.9010750278
 11
60.7668221486
 21
79.4942639696
  0
LINE
  5
3C1
100
AcDbEntity
  8
0
100
AcDbLine
 62
7
  6
BYLAYER
 10
58.0133051449
 20
77.7891962143
 11
55.2992695444
 21
79.1861962143
  0
LINE
  5
3C2
100
AcDbEntity
  8
0
100
AcDbLine
 62
7
  6
BYLAYER
 10
12.6964695444
 20
83.9749197362
 11
20.4688695444
 21
85.9752698418
  0
LINE
  5
3C3
100
AcDbEntity
  8
0
100
AcDbLine
 62
7
  6
BYLAYER
 10
25.3964695444
 20
88.4538205312
 11
20.4688695444
 21
88.4538205312
  0
LINE
  5
3C4
100
AcDbEntity
  8
0
100
AcDbLine
 62
7
  6
BYLAYER
 10
50.3716695444
 20
88.4538205312
 11
55.2992695444
 21
88.4538205312
  0
LINE
  5
3C5
100
AcDbEntity
  8
0
100
AcDbLine
 62
7
  6
BYLAYER
 10
13.9664695444
 20
89.4506289607
 11
15.7376919085
 21
89.4506289607
  0
LINE
  5
3C6
100
AcDbEntity
  8
0
100
AcDbLine
 62
7
  6
BYLAYER
 10
60.7668221486
 20
82.0266961958
 11
63.0716695444
 21
81.433507254
  0
LINE
  5
3C7
100
AcDbEntity
  8
0
100
AcDbLine
 62
7
  6
BYLAYER
 10
63.0716695444
 20
83.9749197362
 11
55.2992695444
 21
85.9752698418
  0
LINE
  5
3C8
100
AcDbEntity
  8
0
100
AcDbLine
 62
7
  6
BYLAYER
 10
20.4688695444
 20
88.4538205312
 11
12.6964695444
 21
86.4534704256
  0
LINE
  5
3C9
100
AcDbEntity
  8
0
100
AcDbLine
 62
7
  6
BYLAYER
 10
15.0013169401
 20
88.348796505
 11
12.6964695444
 21
87.7556075632
  0
LINE
  5
3CA
100
AcDbEntity
  8
0
100
AcDbLine
 62
7
  6
BYLAYER
 10
63.0716695444
 20
86.4534704256
 11
55.2992695444
 21
88.4538205312
  0
LINE
  5
3CB
100
AcDbEntity
  8
0
100
AcDbLine
 62
7
  6
BYLAYER
 10
12.6964695444
 20
90.2880397893
 11
15.0013169401
 21
90.8812287312
  0
LINE
  5
3CC
100
AcDbEntity
  8
0
100
AcDbLine
 62
7
  6
BYLAYER
 10
47.8316695444
 20
94.4990736691
 11
47.8062695444
 21
94.4990736691
  0
LINE
  5
3CD
100
AcDbEntity
  8
0
100
AcDbLine
 62
7
  6
BYLAYER
 10
27.9618695444
 20
94.4990736691
 11
27.9364695444
 21
94.4990736691
  0
LINE
  5
3CE
100
AcDbEntity
  8
0
100
AcDbLine
 62
7
  6
BYLAYER
 10
12.6964695444
 20
94.5244736691
 11
63.0716695444
 21
94.5244736691
  0
LINE
  5
3CF
100
AcDbEntity
  8
0
100
AcDbLine
 62
7
  6
BYLAYER
 10
61.5476695444
 20
96.3278736691
 11
58.0932695444
 21
96.3278736691
  0
LINE
  5
3D0
100
AcDbEntity
  8
0
100
AcDbLine
 62
7
  6
BYLAYER
 10
17.6748695444
 20
96.3278736691
 11
14.2204695444
 21
96.3278736691
  0
ARC
  5
3D1
100
AcDbEntity
  8
00_COMPONENTS_2
100
AcDbCircle
 62
7
  6
BYLAYER
 10
-75.910237364
 20
38.9707232808
 40
125.1174106619
100
AcDbArc
 50
353.0111594654
 51
353.1558046422
  0
ARC
  5
3D2
100
AcDbEntity
  8
00_COMPONENTS_2
100
AcDbCircle
 62
7
  6
BYLAYER
 10
-92.6364275047
 20
38.6829192247
 40
122.7274707718
100
AcDbArc
 50
353.0097510865
 51
353.1572130204
  0
ARC
  5
3D3
100
AcDbEntity
  8
00_COMPONENTS_2
100
AcDbCircle
 62
7
  6
BYLAYER
 10
-15.9673926455
 20
39.6162047309
 40
66.8833483347
100
AcDbArc
 50
346.2746555045
 51
346.5510055787
  0
ARC
  5
3D4
100
AcDbEntity
  8
00_COMPONENTS_2
100
AcDbCircle
 62
7
  6
BYLAYER
 10
-33.6336738378
 20
39.3227583948
 40
65.63424265
100
AcDbArc
 50
346.2720258466
 51
346.5536352355
  0
ARC
  5
3D5
100
AcDbEntity
  8
00_COMPONENTS_2
100
AcDbCircle
 62
7
  6
BYLAYER
 10
3.1628060987
 20
40.6701930915
 40
49.4716979965
100
AcDbArc
 50
339.9963745351
 51
340.3823751031
  0
ARC
  5
3D6
100
AcDbEntity
  8
00_COMPONENTS_2
100
AcDbCircle
 62
7
  6
BYLAYER
 10
-14.515447693
 20
40.3675335807
 40
48.578671459
100
AcDbArc
 50
339.9928265768
 51
340.3859230591
  0
ARC
  5
3D7
100
AcDbEntity
  8
00_COMPONENTS_2
100
AcDbCircle
 62
7
  6
BYLAYER
 10
12.0526788297
 20
42.100663389
 40
42.3367680568
100
AcDbArc
 50
334.3090035561
 51
334.7789905985
  0
ARC
  5
3D8
100
AcDbEntity
  8
00_COMPONENTS_2
100
AcDbCircle
 62
7
  6
BYLAYER
 10
-5.3007581812
 20
41.7854998231
 40
41.6035252498
100
AcDbArc
 50
334.3048618796
 51
334.783132273
  0
ARC
  5
3D9
100
AcDbEntity
  8
00_COMPONENTS_2
100
AcDbCircle
 62
7
  6
BYLAYER
 10
16.8229545734
 20
43.8641515711
 40
39.3697090763
100
AcDbArc
 50
329.2707297781
 51
329.8001619501
  0
ARC
  5
3DA
100
AcDbEntity
  8
00_COMPONENTS_2
100
AcDbCircle
 62
7
  6
BYLAYER
 10
0.009505311
 20
43.5335728985
 40
38.717693926
100
AcDbArc
 50
329.2662718627
 51
329.8046198631
  0
ARC
  5
3DB
100
AcDbEntity
  8
00_COMPONENTS_2
100
AcDbCircle
 62
7
  6
BYLAYER
 10
19.5192940462
 20
45.9070749423
 40
38.5211280422
100
AcDbArc
 50
324.8812912762
 51
325.449506197
  0
ARC
  5
3DC
100
AcDbEntity
  8
00_COMPONENTS_2
100
AcDbCircle
 62
7
  6
BYLAYER
 10
3.416809131
 20
45.5586385322
 40
37.9111379363
100
AcDbArc
 50
324.8767199482
 51
325.4540775223
  0
ARC
  5
3DD
100
AcDbEntity
  8
00_COMPONENTS_2
100
AcDbCircle
 62
7
  6
BYLAYER
 10
28.3089298526
 20
28.3081312047
 40
6.0869923353
100
AcDbArc
 50
223.8712610526
 51
224.252460465
  0
ARC
  5
3DE
100
AcDbEntity
  8
00_COMPONENTS_2
100
AcDbCircle
 62
7
  6
BYLAYER
 10
21.1966471067
 20
21.1404997279
 40
4.0264638647
100
AcDbArc
 50
46.4856423475
 51
47.2074737368
  0
ARC
  5
3DF
100
AcDbEntity
  8
00_COMPONENTS_2
100
AcDbCircle
 62
7
  6
BYLAYER
 10
25.0575577171
 20
24.559262503
 40
1.108479202
100
AcDbArc
 50
227.1242772437
 51
227.6566549636
  0
ARC
  5
3E0
100
AcDbEntity
  8
00_COMPONENTS_4
100
AcDbCircle
 62
7
  6
BYLAYER
 10
21.0966695404
 20
41.7204680671
 40
0.7874
100
AcDbArc
 50
0.0
 51
60.0
  0
ARC
  5
3E1
100
AcDbEntity
  8
00_COMPONENTS_2
100
AcDbCircle
 62
7
  6
BYLAYER
 10
34.1451863851
 20
7.7326736691
 40
0.254
100
AcDbArc
 50
185.7105931374
 51
270.0
  0
ARC
  5
3E2
100
AcDbEntity
  8
00_COMPONENTS_2
100
AcDbCircle
 62
7
  6
BYLAYER
 10
32.0979527036
 20
23.0996736691
 40
0.254
100
AcDbArc
 50
5.7105931374
 51
90.0
  0
ARC
  5
3E3
100
AcDbEntity
  8
00_COMPONENTS_2
100
AcDbCircle
 62
7
  6
BYLAYER
 10
16.7571169213
 20
67.0922480411
 40
53.1807005145
100
AcDbArc
 50
305.4069802387
 51
305.9859595278
  0
ARC
  5
3E4
100
AcDbEntity
  8
00_COMPONENTS_2
100
AcDbCircle
 62
7
  6
BYLAYER
 10
15.921510045
 20
66.8758534971
 40
52.9831442518
100
AcDbArc
 50
305.5102050577
 51
306.0898856119
  0
ARC
  5
3E5
100
AcDbEntity
  8
00_COMPONENTS_2
100
AcDbCircle
 62
7
  6
BYLAYER
 10
17.5924332452
 20
66.8758534966
 40
52.9831442512
100
AcDbArc
 50
305.5102050576
 51
306.0898856119
  0
ARC
  5
3E6
100
AcDbEntity
  8
00_COMPONENTS_2
100
AcDbCircle
 62
7
  6
BYLAYER
 10
18.4192394134
 20
66.2332446877
 40
52.3981074082
100
AcDbArc
 50
305.8222364412
 51
306.4039905539
  0
ARC
  5
3E7
100
AcDbEntity
  8
00_COMPONENTS_2
100
AcDbCircle
 62
7
  6
BYLAYER
 10
15.0901097496
 20
66.2332446868
 40
52.3981074067
100
AcDbArc
 50
305.8222364407
 51
306.4039905534
  0
ARC
  5
3E8
100
AcDbEntity
  8
00_COMPONENTS_2
100
AcDbCircle
 62
7
  6
BYLAYER
 10
19.225495458
 20
65.1839463026
 40
51.4484110249
100
AcDbArc
 50
306.350229189
 51
306.935333179
  0
ARC
  5
3E9
100
AcDbEntity
  8
00_COMPONENTS_2
100
AcDbCircle
 62
7
  6
BYLAYER
 10
14.263496015
 20
65.1839463023
 40
51.4484110244
100
AcDbArc
 50
306.3502291889
 51
306.9353331789
  0
ARC
  5
3EA
100
AcDbEntity
  8
00_COMPONENTS_2
100
AcDbCircle
 62
7
  6
BYLAYER
 10
13.4378177297
 20
63.7598396345
 40
50.1718724034
100
AcDbArc
 50
307.1063867113
 51
307.6959386812
  0
ARC
  5
3EB
100
AcDbEntity
  8
00_COMPONENTS_2
100
AcDbCircle
 62
7
  6
BYLAYER
 10
19.9949231394
 20
63.759839634
 40
50.171872403
100
AcDbArc
 50
307.1063867117
 51
307.6959386816
  0
ARC
  5
3EC
100
AcDbEntity
  8
00_COMPONENTS_2
100
AcDbCircle
 62
7
  6
BYLAYER
 10
20.706178408
 20
62.0041938513
 40
48.6210966995
100
AcDbArc
 50
308.1083722202
 51
308.7031798851
  0
ARC
  5
3ED
100
AcDbEntity
  8
00_COMPONENTS_2
100
AcDbCircle
 62
7
  6
BYLAYER
 10
12.6038705639
 20
62.0041938508
 40
48.6210966986
100
AcDbArc
 50
308.1083722199
 51
308.7031798848
  0
ARC
  5
3EE
100
AcDbEntity
  8
00_COMPONENTS_2
100
AcDbCircle
 62
7
  6
BYLAYER
 10
21.5217094688
 20
59.7410012979
 40
46.5654544801
100
AcDbArc
 50
309.377940389
 51
309.9822043183
  0
ARC
  5
3EF
100
AcDbEntity
  8
00_COMPONENTS_2
100
AcDbCircle
 62
7
  6
BYLAYER
 10
11.9358627959
 20
59.7410011157
 40
46.5654542428
100
AcDbArc
 50
309.3779403869
 51
309.9822043192
  0
ARC
  5
3F0
100
AcDbEntity
  8
00_COMPONENTS_2
100
AcDbCircle
 62
7
  6
BYLAYER
 10
11.0302498845
 20
57.5004735247
 40
44.6894597437
100
AcDbArc
 50
310.9492114656
 51
311.5588862386
  0
ARC
  5
3F1
100
AcDbEntity
  8
00_COMPONENTS_2
100
AcDbCircle
 62
7
  6
BYLAYER
 10
22.2460728858
 20
57.2486891971
 40
44.3555025536
100
AcDbArc
 50
310.9483235913
 51
311.4352600876
  0
ARC
  5
3F2
100
AcDbEntity
  8
00_COMPONENTS_2
100
AcDbCircle
 62
7
  6
BYLAYER
 10
10.0376007656
 20
55.1125612817
 40
42.7882934247
100
AcDbArc
 50
312.8579531484
 51
313.4717254455
  0
ARC
  5
3F3
100
AcDbEntity
  8
00_COMPONENTS_2
100
AcDbCircle
 62
7
  6
BYLAYER
 10
22.476439841
 20
54.9886051117
 40
42.6188590457
100
AcDbArc
 50
312.8574661607
 51
313.4091527654
  0
ARC
  5
3F4
100
AcDbEntity
  8
00_COMPONENTS_2
100
AcDbCircle
 62
7
  6
BYLAYER
 10
22.4502354971
 20
52.6552475758
 40
40.9901509622
100
AcDbArc
 50
315.1502366514
 51
315.6811285837
  0
ARC
  5
3F5
100
AcDbEntity
  8
00_COMPONENTS_2
100
AcDbCircle
 62
7
  6
BYLAYER
 10
8.8999773123
 20
52.6498197795
 40
40.9819440505
100
AcDbArc
 50
315.1495267211
 51
315.7646143779
  0
ARC
  5
3F6
100
AcDbEntity
  8
00_COMPONENTS_2
100
AcDbCircle
 62
7
  6
BYLAYER
 10
21.7793936339
 20
50.5763298956
 40
40.003939688
100
AcDbArc
 50
317.8812932159
 51
318.4838987081
  0
ARC
  5
3F7
100
AcDbEntity
  8
00_COMPONENTS_2
100
AcDbCircle
 62
7
  6
BYLAYER
 10
7.5281123099
 20
50.1870783943
 40
39.4201513804
100
AcDbArc
 50
317.8768310631
 51
318.4883608578
  0
ARC
  5
3F8
100
AcDbEntity
  8
00_COMPONENTS_2
100
AcDbCircle
 62
7
  6
BYLAYER
 10
21.0231464802
 20
48.1673601754
 40
38.8911628811
100
AcDbArc
 50
321.1033840208
 51
321.6944916875
  0
ARC
  5
3F9
100
AcDbEntity
  8
00_COMPONENTS_2
100
AcDbCircle
 62
7
  6
BYLAYER
 10
5.7798255699
 20
47.7991661653
 40
38.3010161789
100
AcDbArc
 50
321.0988300493
 51
321.6990456572
  0
ARC
  5
3FA
100
AcDbEntity
  8
0
100
AcDbCircle
 62
7
  6
BYLAYER
 10
17.5519759236
 20
86.5633364942
 40
2.079664176
100
AcDbArc
 50
128.5403706278
 51
133.7507702358
  0
ARC
  5
3FB
100
AcDbEntity
  8
00_COMPONENTS_2
100
AcDbCircle
 62
7
  6
BYLAYER
 10
170.777115935
 20
38.9707232703
 40
125.1174105762
100
AcDbArc
 50
186.8441953576
 51
186.9888405346
  0
ARC
  5
3FC
100
AcDbEntity
  8
00_COMPONENTS_2
100
AcDbCircle
 62
7
  6
BYLAYER
 10
149.3058268411
 20
38.6829192023
 40
122.7274705854
100
AcDbArc
 50
186.8427869795
 51
186.9902489136
  0
ARC
  5
3FD
100
AcDbEntity
  8
00_COMPONENTS_2
100
AcDbCircle
 62
7
  6
BYLAYER
 10
110.6159644552
 20
39.6162047734
 40
66.8833485161
100
AcDbArc
 50
193.4489944216
 51
193.725344495
  0
ARC
  5
3FE
100
AcDbEntity
  8
00_COMPONENTS_2
100
AcDbCircle
 62
7
  6
BYLAYER
 10
90.5213802936
 20
39.3227583736
 40
65.6342425591
100
AcDbArc
 50
193.4463647644
 51
193.7279741537
  0
ARC
  5
3FF
100
AcDbEntity
  8
00_COMPONENTS_2
100
AcDbCircle
 62
7
  6
BYLAYER
 10
91.123766974
 20
40.6701930752
 40
49.4716979478
100
AcDbArc
 50
199.617624897
 51
200.0036254653
  0
ARC
  5
400
100
AcDbEntity
  8
00_COMPONENTS_2
100
AcDbCircle
 62
7
  6
BYLAYER
 10
71.7651527274
 20
40.3675335719
 40
48.578671433
100
AcDbArc
 50
199.6140769408
 51
200.0071734233
  0
ARC
  5
401
100
AcDbEntity
  8
00_COMPONENTS_2
100
AcDbCircle
 62
7
  6
BYLAYER
 10
81.730959393
 20
42.1006634287
 40
42.3367681492
100
AcDbArc
 50
205.221009402
 51
205.6909964434
  0
ARC
  5
402
100
AcDbEntity
  8
00_COMPONENTS_2
100
AcDbCircle
 62
7
  6
BYLAYER
 10
63.0533981247
 20
41.7854997781
 40
41.603525145
100
AcDbArc
 50
205.2168677265
 51
205.6951381211
  0
ARC
  5
403
100
AcDbEntity
  8
00_COMPONENTS_2
100
AcDbCircle
 62
7
  6
BYLAYER
 10
76.3206396976
 20
43.8641515344
 40
39.3697090032
100
AcDbArc
 50
210.1998380499
 51
210.7292702229
  0
ARC
  5
404
100
AcDbEntity
  8
00_COMPONENTS_2
100
AcDbCircle
 62
7
  6
BYLAYER
 10
58.3831783861
 20
43.5335728127
 40
38.7176937565
100
AcDbArc
 50
210.195380136
 51
210.7337281388
  0
ARC
  5
405
100
AcDbEntity
  8
00_COMPONENTS_2
100
AcDbCircle
 62
7
  6
BYLAYER
 10
72.8520186467
 20
45.907074852
 40
38.5211278839
100
AcDbArc
 50
214.5504938022
 51
215.1187087253
  0
ARC
  5
406
100
AcDbEntity
  8
00_COMPONENTS_2
100
AcDbCircle
 62
7
  6
BYLAYER
 10
55.7481560628
 20
45.5586384208
 40
37.9111377408
100
AcDbArc
 50
214.5459224769
 51
215.1232800539
  0
ARC
  5
407
100
AcDbEntity
  8
00_COMPONENTS_2
100
AcDbCircle
 62
7
  6
BYLAYER
 10
47.9275595343
 20
27.8548723818
 40
5.435232949
100
AcDbArc
 50
315.7246835258
 51
316.151583052
  0
ARC
  5
408
100
AcDbEntity
  8
00_COMPONENTS_2
100
AcDbCircle
 62
7
  6
BYLAYER
 10
54.8688712329
 20
20.8233067277
 40
4.4612500738
100
AcDbArc
 50
132.8276865742
 51
133.4791817568
  0
ARC
  5
409
100
AcDbEntity
  8
00_COMPONENTS_4
100
AcDbCircle
 62
7
  6
BYLAYER
 10
54.6714695484
 20
41.7204680671
 40
0.7874
100
AcDbArc
 50
120.0
 51
180.0
  0
ARC
  5
40A
100
AcDbEntity
  8
00_COMPONENTS_2
100
AcDbCircle
 62
7
  6
BYLAYER
 10
43.6701863851
 20
23.0996736691
 40
0.254
100
AcDbArc
 50
90.0
 51
174.2894068626
  0
ARC
  5
40B
100
AcDbEntity
  8
00_COMPONENTS_2
100
AcDbCircle
 62
7
  6
BYLAYER
 10
41.6229527036
 20
7.7326736691
 40
0.254
100
AcDbArc
 50
270.0
 51
354.2894068626
  0
ARC
  5
40C
100
AcDbEntity
  8
00_COMPONENTS_2
100
AcDbCircle
 62
7
  6
BYLAYER
 10
59.0110221658
 20
67.0922480403
 40
53.1807005129
100
AcDbArc
 50
234.0140404732
 51
234.5930197623
  0
ARC
  5
40D
100
AcDbEntity
  8
00_COMPONENTS_2
100
AcDbCircle
 62
7
  6
BYLAYER
 10
58.1757058427
 20
66.8758534969
 40
52.983144251
100
AcDbArc
 50
233.910114389
 51
234.4897949433
  0
ARC
  5
40E
100
AcDbEntity
  8
00_COMPONENTS_2
100
AcDbCircle
 62
7
  6
BYLAYER
 10
59.8466290425
 20
66.8758534966
 40
52.9831442507
100
AcDbArc
 50
233.9101143888
 51
234.4897949431
  0
ARC
  5
40F
100
AcDbEntity
  8
00_COMPONENTS_2
100
AcDbCircle
 62
7
  6
BYLAYER
 10
57.348899674
 20
66.2332446878
 40
52.3981074075
100
AcDbArc
 50
233.5960094474
 51
234.17776356
  0
ARC
  5
410
100
AcDbEntity
  8
00_COMPONENTS_2
100
AcDbCircle
 62
7
  6
BYLAYER
 10
60.6780293383
 20
66.2332446872
 40
52.3981074066
100
AcDbArc
 50
233.5960094476
 51
234.1777635603
  0
ARC
  5
411
100
AcDbEntity
  8
00_COMPONENTS_2
100
AcDbCircle
 62
7
  6
BYLAYER
 10
56.5426436297
 20
65.1839463026
 40
51.4484110243
100
AcDbArc
 50
233.0646668219
 51
233.6497708119
  0
ARC
  5
412
100
AcDbEntity
  8
00_COMPONENTS_2
100
AcDbCircle
 62
7
  6
BYLAYER
 10
61.5046430734
 20
65.1839463026
 40
51.4484110245
100
AcDbArc
 50
233.0646668217
 51
233.6497708117
  0
ARC
  5
413
100
AcDbEntity
  8
00_COMPONENTS_2
100
AcDbCircle
 62
7
  6
BYLAYER
 10
62.3303213577
 20
63.7598396337
 40
50.1718724019
100
AcDbArc
 50
232.3040613195
 51
232.8936132893
  0
ARC
  5
414
100
AcDbEntity
  8
00_COMPONENTS_2
100
AcDbCircle
 62
7
  6
BYLAYER
 10
55.7732159472
 20
63.7598396334
 40
50.1718724013
100
AcDbArc
 50
232.3040613198
 51
232.8936132897
  0
ARC
  5
415
100
AcDbEntity
  8
00_COMPONENTS_2
100
AcDbCircle
 62
7
  6
BYLAYER
 10
63.1642685243
 20
62.0041938509
 40
48.6210966984
100
AcDbArc
 50
231.2968201157
 51
231.8916277806
  0
ARC
  5
416
100
AcDbEntity
  8
00_COMPONENTS_2
100
AcDbCircle
 62
7
  6
BYLAYER
 10
55.0619606779
 20
62.0041938501
 40
48.6210966968
100
AcDbArc
 50
231.2968201166
 51
231.8916277815
  0
ARC
  5
417
100
AcDbEntity
  8
00_COMPONENTS_2
100
AcDbCircle
 62
7
  6
BYLAYER
 10
64.225106141
 20
60.2145019465
 40
47.180684231
100
AcDbArc
 50
230.0217354783
 51
230.6181198159
  0
ARC
  5
418
100
AcDbEntity
  8
00_COMPONENTS_2
100
AcDbCircle
 62
7
  6
BYLAYER
 10
54.6392591893
 20
60.2145017947
 40
47.1806840332
100
AcDbArc
 50
230.0217354779
 51
230.6181198181
  0
ARC
  5
419
100
AcDbEntity
  8
00_COMPONENTS_2
100
AcDbCircle
 62
7
  6
BYLAYER
 10
65.1358679971
 20
57.9542166773
 40
45.292999133
100
AcDbArc
 50
228.4451758256
 51
229.0467264702
  0
ARC
  5
41A
100
AcDbEntity
  8
00_COMPONENTS_2
100
AcDbCircle
 62
7
  6
BYLAYER
 10
53.8275724954
 20
57.5977671071
 40
44.8193836123
100
AcDbArc
 50
228.5672598196
 51
229.0491564885
  0
ARC
  5
41B
100
AcDbEntity
  8
00_COMPONENTS_2
100
AcDbCircle
 62
7
  6
BYLAYER
 10
66.1363579249
 20
55.5452470603
 40
43.3815021356
100
AcDbArc
 50
226.5324710259
 51
227.1378503798
  0
ARC
  5
41C
100
AcDbEntity
  8
00_COMPONENTS_2
100
AcDbCircle
 62
7
  6
BYLAYER
 10
53.6347185194
 20
55.3547366196
 40
43.1205648713
100
AcDbArc
 50
226.594056683
 51
227.1393243901
  0
ARC
  5
41D
100
AcDbEntity
  8
00_COMPONENTS_2
100
AcDbCircle
 62
7
  6
BYLAYER
 10
67.2857401787
 20
53.060788402
 40
41.5678255915
100
AcDbArc
 50
224.2397203675
 51
224.8461385332
  0
ARC
  5
41E
100
AcDbEntity
  8
00_COMPONENTS_2
100
AcDbCircle
 62
7
  6
BYLAYER
 10
53.3809368127
 20
52.7174021332
 40
41.0786732296
100
AcDbArc
 50
224.3194726144
 51
224.8492201423
  0
ARC
  5
41F
100
AcDbEntity
  8
00_COMPONENTS_2
100
AcDbCircle
 62
7
  6
BYLAYER
 10
68.6751146813
 20
50.5763297543
 40
40.0039394752
100
AcDbArc
 50
221.5161012913
 51
222.1187067867
  0
ARC
  5
420
100
AcDbEntity
  8
00_COMPONENTS_2
100
AcDbCircle
 62
7
  6
BYLAYER
 10
53.5536572248
 20
50.1870782442
 40
39.4201511548
100
AcDbArc
 50
221.5116391412
 51
222.1231689394
  0
ARC
  5
421
100
AcDbEntity
  8
00_COMPONENTS_2
100
AcDbCircle
 62
7
  6
BYLAYER
 10
70.4495246682
 20
48.167360187
 40
38.8911628994
100
AcDbArc
 50
218.305508313
 51
218.8966159794
  0
ARC
  5
422
100
AcDbEntity
  8
00_COMPONENTS_2
100
AcDbCircle
 62
7
  6
BYLAYER
 10
54.2837813074
 20
47.7991660336
 40
38.3010159671
100
AcDbArc
 50
218.3009543419
 51
218.9011699532
  0
SPLINE
  5
423
100
AcDbEntity
  8
00_COMPONENTS_2
100
AcDbSpline
 62
7
  6
BYLAYER
 70
0
 71
3
 72
9
 73
5
 74
0
 42
0.0000001
 43
0.0000001
 44
0.0000000001
 40
0.0
 40
0.0
 40
0.0
 40
0.0
 40
0.4431104617
 40
1.0
 40
1.0
 40
1.0
 40
1.0
 10
50.3688371753
 20
24.1132190922
 30
0.0
 10
50.3688372113
 20
24.105067585
 30
0.0
 10
50.3649004864
 20
24.0867772607
 30
0.0
 10
50.3578851912
 20
24.069766581
 30
0.0
 10
50.3535194307
 20
24.0604987902
 30
0.0
  0
SPLINE
  5
424
100
AcDbEntity
  8
00_COMPONENTS_2
100
AcDbSpline
 62
7
  6
BYLAYER
 70
0
 71
3
 72
10
 73
6
 74
0
 42
0.0000001
 43
0.0000001
 44
0.0000000001
 40
0.0
 40
0.0
 40
0.0
 40
0.0
 40
0.188028039
 40
0.4200626538
 40
1.0
 40
1.0
 40
1.0
 40
1.0
 10
50.8730559029
 20
24.122368929
 30
0.0
 10
50.87305621
 20
24.1181803914
 30
0.0
 10
50.8715024277
 20
24.1088448525
 30
0.0
 10
50.8642886308
 20
24.0877393277
 30
0.0
 10
50.8557569836
 20
24.071663845
 30
0.0
 10
50.8492580647
 20
24.0604987902
 30
0.0
  0
SPLINE
  5
425
100
AcDbEntity
  8
00_COMPONENTS_2
100
AcDbSpline
 62
7
  6
BYLAYER
 70
0
 71
3
 72
12
 73
8
 74
0
 42
0.0000001
 43
0.0000001
 44
0.0000000001
 40
0.0
 40
0.0
 40
0.0
 40
0.0
 40
0.0600602998
 40
0.1413112664
 40
0.3641210272
 40
0.6553848153
 40
1.0
 40
1.0
 40
1.0
 40
1.0
 10
51.5876296889
 20
24.1353250597
 30
0.0
 10
51.5876299684
 20
24.1335528325
 30
0.0
 10
51.5867453047
 20
24.1294104208
 30
0.0
 10
51.582757155
 20
24.119431019
 30
0.0
 10
51.5738285243
 20
24.1042085596
 30
0.0
 10
51.5594221972
 20
24.0833782585
 30
0.0
 10
51.5479982255
 20
24.0684780276
 30
0.0
 10
51.541694683
 20
24.0604987902
 30
0.0
  0
SPLINE
  5
426
100
AcDbEntity
  8
00_COMPONENTS_2
100
AcDbSpline
 62
7
  6
BYLAYER
 70
0
 71
3
 72
11
 73
7
 74
0
 42
0.0000001
 43
0.0000001
 44
0.0000000001
 40
0.0
 40
0.0
 40
0.0
 40
0.0
 40
0.1657570939
 40
0.3930165368
 40
0.6742723501
 40
1.0
 40
1.0
 40
1.0
 40
1.0
 10
51.2803528131
 20
24.1297549541
 30
0.0
 10
51.2803521534
 20
24.1254531083
 30
0.0
 10
51.2777580929
 20
24.1153682487
 30
0.0
 10
51.2705851509
 20
24.0994338551
 30
0.0
 10
51.259787196
 20
24.0806151747
 30
0.0
 10
51.2511184067
 20
24.0674610834
 30
0.0
 10
51.2463237854
 20
24.0604987902
 30
0.0
  0
SPLINE
  5
427
100
AcDbEntity
  8
00_COMPONENTS_2
100
AcDbSpline
 62
7
  6
BYLAYER
 70
0
 71
3
 72
15
 73
11
 74
0
 42
0.0000001
 43
0.0000001
 44
0.0000000001
 40
0.0
 40
0.0
 40
0.0
 40
0.0
 40
0.3931592308
 40
0.5607810297
 40
0.7053951383
 40
0.8241217858
 40
0.9141560053
 40
0.9731743351
 40
0.9905553999
 40
1.0
 40
1.0
 40
1.0
 40
1.0
 10
23.9208242369
 20
24.0896000866
 30
0.0
 10
23.9145491718
 20
24.0961356651
 30
0.0
 10
23.9056276536
 20
24.1054849826
 30
0.0
 10
23.8945159457
 20
24.1173520205
 30
0.0
 10
23.8877959888
 20
24.1246613681
 30
0.0
 10
23.8823499691
 20
24.130726601
 30
0.0
 10
23.8783565354
 20
24.135408322
 30
0.0
 10
23.8759250735
 20
24.1384195361
 30
0.0
 10
23.8748870752
 20
24.1400700228
 30
0.0
 10
23.8745944074
 20
24.1406499871
 30
0.0
 10
23.8745938607
 20
24.1408676375
 30
0.0
  0
SPLINE
  5
428
100
AcDbEntity
  8
00_COMPONENTS_2
100
AcDbSpline
 62
7
  6
BYLAYER
 70
0
 71
3
 72
14
 73
10
 74
0
 42
0.0000001
 43
0.0000001
 44
0.0000000001
 40
0.0
 40
0.0
 40
0.0
 40
0.0
 40
0.3638256921
 40
0.5240036085
 40
0.6662632471
 40
0.787763585
 40
0.8854592054
 40
0.9566308451
 40
1.0
 40
1.0
 40
1.0
 40
1.0
 10
24.0350162822
 20
24.0604987901
 30
0.0
 10
24.0270589122
 20
24.0694869349
 30
0.0
 10
24.0157079919
 20
24.0825329094
 30
0.0
 10
24.0016776511
 20
24.099455778
 30
0.0
 10
23.9929727567
 20
24.1104123341
 30
0.0
 10
23.9858439816
 20
24.119960616
 30
0.0
 10
23.9804319697
 20
24.1279133709
 30
0.0
 10
23.9770324116
 20
24.1339627081
 30
0.0
 10
23.9755910158
 20
24.1376077538
 30
0.0
 10
23.9755915522
 20
24.1390387198
 30
0.0
  0
SPLINE
  5
429
100
AcDbEntity
  8
00_COMPONENTS_2
100
AcDbSpline
 62
7
  6
BYLAYER
 70
0
 71
3
 72
12
 73
8
 74
0
 42
0.0000001
 43
0.0000001
 44
0.0000000001
 40
0.0
 40
0.0
 40
0.0
 40
0.0
 40
0.3446149955
 40
0.635878917
 40
0.8586886226
 40
0.9399396397
 40
1.0
 40
1.0
 40
1.0
 40
1.0
 10
24.2264444058
 20
24.0604987901
 30
0.0
 10
24.2201408665
 20
24.0684780234
 30
0.0
 10
24.2087168939
 20
24.0833782529
 30
0.0
 10
24.1943105726
 20
24.1042085529
 30
0.0
 10
24.1853819288
 20
24.119431013
 30
0.0
 10
24.1813937926
 20
24.1294104202
 30
0.0
 10
24.1805091165
 20
24.1335528335
 30
0.0
 10
24.1805093968
 20
24.1353250625
 30
0.0
  0
SPLINE
  5
42A
100
AcDbEntity
  8
00_COMPONENTS_2
100
AcDbSpline
 62
7
  6
BYLAYER
 70
0
 71
3
 72
11
 73
7
 74
0
 42
0.0000001
 43
0.0000001
 44
0.0000000001
 40
0.0
 40
0.0
 40
0.0
 40
0.0
 40
0.3257274698
 40
0.606983413
 40
0.8342428396
 40
1.0
 40
1.0
 40
1.0
 40
1.0
 10
24.5218153034
 20
24.0604987901
 30
0.0
 10
24.517020685
 20
24.0674610791
 30
0.0
 10
24.5083518955
 20
24.0806151678
 30
0.0
 10
24.4975539453
 20
24.0994338465
 30
0.0
 10
24.4903809936
 20
24.1153682408
 30
0.0
 10
24.4877869406
 20
24.1254531026
 30
0.0
 10
24.4877862805
 20
24.1297549498
 30
0.0
  0
SPLINE
  5
42B
100
AcDbEntity
  8
00_COMPONENTS_2
100
AcDbSpline
 62
7
  6
BYLAYER
 70
0
 71
3
 72
10
 73
6
 74
0
 42
0.0000001
 43
0.0000001
 44
0.0000000001
 40
0.0
 40
0.0
 40
0.0
 40
0.0
 40
0.579937294
 40
0.8119719988
 40
1.0
 40
1.0
 40
1.0
 40
1.0
 10
24.918881024
 20
24.0604987901
 30
0.0
 10
24.9123821057
 20
24.0716638441
 30
0.0
 10
24.9038504602
 20
24.0877393286
 30
0.0
 10
24.8966366599
 20
24.1088448522
 30
0.0
 10
24.8950828769
 20
24.1181803926
 30
0.0
 10
24.8950831853
 20
24.1223689294
 30
0.0
  0
SPLINE
  5
42C
100
AcDbEntity
  8
00_COMPONENTS_2
100
AcDbSpline
 62
7
  6
BYLAYER
 70
0
 71
3
 72
9
 73
5
 74
0
 42
0.0000001
 43
0.0000001
 44
0.0000000001
 40
0.0
 40
0.0
 40
0.0
 40
0.0
 40
0.5568893803
 40
1.0
 40
1.0
 40
1.0
 40
1.0
 10
25.414619658
 20
24.0604987901
 30
0.0
 10
25.4102538986
 20
24.0697665786
 30
0.0
 10
25.4032386043
 20
24.0867772589
 30
0.0
 10
25.3993018764
 20
24.1050675832
 30
0.0
 10
25.3993019118
 20
24.1132190934
 30
0.0
  0
SPLINE
  5
42D
100
AcDbEntity
  8
00_COMPONENTS_2
100
AcDbSpline
 62
7
  6
BYLAYER
 70
0
 71
3
 72
10
 73
6
 74
0
 42
0.0000001
 43
0.0000001
 44
0.0000000001
 40
0.0
 40
0.0
 40
0.0
 40
0.0
 40
0.6158778141
 40
0.8416364014
 40
1.0
 40
1.0
 40
1.0
 40
1.0
 10
51.0281098239
 20
23.7469342855
 30
0.0
 10
51.024655254
 20
23.7420237372
 30
0.0
 10
51.0200724852
 20
23.7351506786
 30
0.0
 10
51.0158936035
 20
23.7263706079
 30
0.0
 10
51.0148396208
 20
23.7226841445
 30
0.0
 10
51.0148388542
 20
23.7211403178
 30
0.0
  0
SPLINE
  5
42E
100
AcDbEntity
  8
00_COMPONENTS_2
100
AcDbSpline
 62
7
  6
BYLAYER
 70
0
 71
3
 72
14
 73
10
 74
0
 42
0.0000001
 43
0.0000001
 44
0.0000000001
 40
0.0
 40
0.0
 40
0.0
 40
0.0
 40
0.0433692892
 40
0.1145408624
 40
0.2122364542
 40
0.3337368192
 40
0.4759964381
 40
0.6361742241
 40
1.0
 40
1.0
 40
1.0
 40
1.0
 10
51.7925475357
 20
24.1390387191
 30
0.0
 10
51.792548077
 20
24.1376077486
 30
0.0
 10
51.7911066662
 20
24.1339627024
 30
0.0
 10
51.7877071196
 20
24.1279133612
 30
0.0
 10
51.7822951008
 20
24.1199606116
 30
0.0
 10
51.7751663288
 20
24.1104123295
 30
0.0
 10
51.7664614366
 20
24.0994557766
 30
0.0
 10
51.7524310974
 20
24.0825329102
 30
0.0
 10
51.7410801783
 20
24.0694869369
 30
0.0
 10
51.7331228065
 20
24.0604987902
 30
0.0
  0
SPLINE
  5
42F
100
AcDbEntity
  8
00_COMPONENTS_2
100
AcDbSpline
 62
7
  6
BYLAYER
 70
0
 71
3
 72
13
 73
9
 74
0
 42
0.0000001
 43
0.0000001
 44
0.0000000001
 40
0.0
 40
0.0
 40
0.0
 40
0.0
 40
0.0362207656
 40
0.1030759174
 40
0.198744411
 40
0.3201565138
 40
0.6272887347
 40
1.0
 40
1.0
 40
1.0
 40
1.0
 10
51.4294184041
 20
23.7181216415
 30
0.0
 10
51.4294187636
 20
23.7185695292
 30
0.0
 10
51.4300419363
 20
23.7197596962
 30
0.0
 10
51.4313235728
 20
23.7218053409
 30
0.0
 10
51.4334373545
 20
23.7246379274
 30
0.0
 10
51.4374633482
 20
23.7297045767
 30
0.0
 10
51.4439087673
 20
23.7372424355
 30
0.0
 10
51.4495009421
 20
23.7435161118
 30
0.0
 10
51.4525923451
 20
23.7469342855
 30
0.0
  0
SPLINE
  5
430
100
AcDbEntity
  8
00_COMPONENTS_2
100
AcDbSpline
 62
7
  6
BYLAYER
 70
0
 71
3
 72
15
 73
11
 74
0
 42
0.0000001
 43
0.0000001
 44
0.0000000001
 40
0.0
 40
0.0
 40
0.0
 40
0.0
 40
0.0094446164
 40
0.0268257063
 40
0.0858443048
 40
0.1758786576
 40
0.2946053249
 40
0.4392194897
 40
0.6068413246
 40
1.0
 40
1.0
 40
1.0
 40
1.0
 10
51.8935452269
 20
24.1408676363
 30
0.0
 10
51.8935446791
 20
24.1406499822
 30
0.0
 10
51.8932520044
 20
24.1400700094
 30
0.0
 10
51.8922139852
 20
24.1384194923
 30
0.0
 10
51.8897824745
 20
24.1354082288
 30
0.0
 10
51.8857889718
 20
24.1307264304
 30
0.0
 10
51.8803428611
 20
24.1246611054
 30
0.0
 10
51.8736227966
 20
24.1173516472
 30
0.0
 10
51.8625109218
 20
24.1054844401
 30
0.0
 10
51.8535892729
 20
24.0961349909
 30
0.0
 10
51.8473141191
 20
24.0895993234
 30
0.0
  0
SPLINE
  5
431
100
AcDbEntity
  8
00_COMPONENTS_2
100
AcDbSpline
 62
7
  6
BYLAYER
 70
0
 71
3
 72
13
 73
9
 74
0
 42
0.0000001
 43
0.0000001
 44
0.0000000001
 40
0.0
 40
0.0
 40
0.0
 40
0.0
 40
0.3727065576
 40
0.6798386101
 40
0.8012537874
 40
0.8969277416
 40
0.9637798946
 40
1.0
 40
1.0
 40
1.0
 40
1.0
 10
24.3155467436
 20
23.7469342855
 30
0.0
 10
24.3186380894
 20
23.743516175
 30
0.0
 10
24.3242301957
 20
23.7372425812
 30
0.0
 10
24.3306755605
 20
23.7297047922
 30
0.0
 10
24.3347015992
 20
23.72463808
 30
0.0
 10
24.3368154332
 20
23.7218055032
 30
0.0
 10
24.3380971541
 20
23.7197598378
 30
0.0
 10
24.3387201035
 20
23.7185696871
 30
0.0
 10
24.3387205159
 20
23.7181218102
 30
0.0
  0
SPLINE
  5
432
100
AcDbEntity
  8
00_COMPONENTS_2
100
AcDbSpline
 62
7
  6
BYLAYER
 70
0
 71
3
 72
11
 73
7
 74
0
 42
0.0000001
 43
0.0000001
 44
0.0000000001
 40
0.0
 40
0.0
 40
0.0
 40
0.0
 40
0.3523748765
 40
0.6477239501
 40
0.8687690364
 40
1.0
 40
1.0
 40
1.0
 40
1.0
 10
24.4767691786
 20
23.7469342855
 30
0.0
 10
24.4792168698
 20
23.743901293
 30
0.0
 10
24.4836285451
 20
23.7382728489
 30
0.0
 10
24.4893009403
 20
23.7304493352
 30
0.0
 10
24.492942802
 20
23.7243998264
 30
0.0
 10
24.4946857703
 20
23.7207078005
 30
0.0
 10
24.49468373
 20
23.7192563133
 30
0.0
  0
SPLINE
  5
433
100
AcDbEntity
  8
00_COMPONENTS_2
100
AcDbSpline
 62
7
  6
BYLAYER
 70
0
 71
3
 72
10
 73
6
 74
0
 42
0.0000001
 43
0.0000001
 44
0.0000000001
 40
0.0
 40
0.0
 40
0.0
 40
0.0
 40
0.6158599928
 40
0.8416086957
 40
1.0
 40
1.0
 40
1.0
 40
1.0
 10
24.7400292649
 20
23.7469342855
 30
0.0
 10
24.7434836925
 20
23.7420239393
 30
0.0
 10
24.7480659841
 20
23.7351511859
 30
0.0
 10
24.7522456313
 20
23.7263713961
 30
0.0
 10
24.7532988968
 20
23.7226847102
 30
0.0
 10
24.7532998801
 20
23.7211406324
 30
0.0
  0
SPLINE
  5
434
100
AcDbEntity
  8
00_COMPONENTS_2
100
AcDbSpline
 62
7
  6
BYLAYER
 70
0
 71
3
 72
11
 73
7
 74
0
 42
0.0000001
 43
0.0000001
 44
0.0000000001
 40
0.0
 40
0.0
 40
0.0
 40
0.0
 40
0.3523800753
 40
0.6477366105
 40
0.8687803675
 40
1.0
 40
1.0
 40
1.0
 40
1.0
 10
51.2913699101
 20
23.7469342855
 30
0.0
 10
51.2889221761
 20
23.74390124
 30
0.0
 10
51.2845102993
 20
23.7382727737
 30
0.0
 10
51.2788380795
 20
23.7304488477
 30
0.0
 10
51.2751961317
 20
23.7243996779
 30
0.0
 10
51.2734528315
 20
23.7207076347
 30
0.0
 10
51.2734553131
 20
23.7192562696
 30
0.0
  0
SPLINE
  5
435
100
AcDbEntity
  8
00_COMPONENTS_2
100
AcDbSpline
 62
7
  6
BYLAYER
 70
0
 71
3
 72
10
 73
6
 74
0
 42
0.0000001
 43
0.0000001
 44
0.0000000001
 40
0.0
 40
0.0
 40
0.0
 40
0.0
 40
0.5330738309
 40
0.7818557648
 40
1.0
 40
1.0
 40
1.0
 40
1.0
 10
47.1314279579
 20
24.0604987902
 30
0.0
 10
47.1618672377
 20
24.0826837245
 30
0.0
 10
47.2095612382
 20
24.111767898
 30
0.0
 10
47.2761920708
 20
24.1358557905
 30
0.0
 10
47.309175799
 20
24.1410736691
 30
0.0
 10
47.3245894275
 20
24.1410736691
 30
0.0
  0
SPLINE
  5
436
100
AcDbEntity
  8
00_COMPONENTS_2
100
AcDbSpline
 62
7
  6
BYLAYER
 70
0
 71
3
 72
12
 73
8
 74
0
 42
0.0000001
 43
0.0000001
 44
0.0000000001
 40
0.0
 40
0.0
 40
0.0
 40
0.0
 40
0.288960713
 40
0.4133118692
 40
0.5295529912
 40
0.7561151377
 40
1.0
 40
1.0
 40
1.0
 40
1.0
 10
47.3880906649
 20
24.1410736691
 30
0.0
 10
47.4006194325
 20
24.1410736691
 30
0.0
 10
47.4189500023
 20
24.138663875
 30
0.0
 10
47.4395865746
 20
24.1281791347
 30
0.0
 10
47.4551182244
 20
24.1148684306
 30
0.0
 10
47.467604701
 20
24.0916945645
 30
0.0
 10
47.4699163692
 20
24.0710731576
 30
0.0
 10
47.4699163692
 20
24.0604987902
 30
0.0
  0
SPLINE
  5
437
100
AcDbEntity
  8
00_COMPONENTS_2
100
AcDbSpline
 62
7
  6
BYLAYER
 70
0
 71
3
 72
11
 73
7
 74
0
 42
0.0000001
 43
0.0000001
 44
0.0000000001
 40
0.0
 40
0.0
 40
0.0
 40
0.0
 40
0.2636079822
 40
0.4895046772
 40
0.7198135638
 40
1.0
 40
1.0
 40
1.0
 40
1.0
 10
24.8950831853
 20
24.1223689294
 30
0.0
 10
24.8950833818
 20
24.1250382113
 30
0.0
 10
24.8955998027
 20
24.1300605107
 30
0.0
 10
24.899302239
 20
24.1366762795
 30
0.0
 10
24.9060378783
 20
24.1405357754
 30
0.0
 10
24.9112831998
 20
24.141073669
 30
0.0
 10
24.9141203543
 20
24.141073669
 30
0.0
  0
SPLINE
  5
438
100
AcDbEntity
  8
00_COMPONENTS_2
100
AcDbSpline
 62
7
  6
BYLAYER
 70
0
 71
3
 72
11
 73
7
 74
0
 42
0.0000001
 43
0.0000001
 44
0.0000000001
 40
0.0
 40
0.0
 40
0.0
 40
0.0
 40
0.2760926988
 40
0.5437945324
 40
0.7903031307
 40
1.0
 40
1.0
 40
1.0
 40
1.0
 10
48.0054042922
 20
24.0604987902
 30
0.0
 10
48.0207471071
 20
24.0716384787
 30
0.0
 10
48.0518566403
 20
24.0923892355
 30
0.0
 10
48.0998407836
 20
24.118016376
 30
0.0
 10
48.1464633269
 20
24.1356438878
 30
0.0
 10
48.1777440982
 20
24.1410736691
 30
0.0
 10
48.1921447857
 20
24.1410736691
 30
0.0
  0
SPLINE
  5
439
100
AcDbEntity
  8
00_COMPONENTS_2
100
AcDbSpline
 62
7
  6
BYLAYER
 70
0
 71
3
 72
11
 73
7
 74
0
 42
0.0000001
 43
0.0000001
 44
0.0000000001
 40
0.0
 40
0.0
 40
0.0
 40
0.0
 40
0.2875715938
 40
0.5248478755
 40
0.7516765581
 40
1.0
 40
1.0
 40
1.0
 40
1.0
 10
48.2503329491
 20
24.1410736691
 30
0.0
 10
48.2604190824
 20
24.1410736691
 30
0.0
 10
48.2791588495
 20
24.1388351658
 30
0.0
 10
48.3024092348
 20
24.1242632563
 30
0.0
 10
48.3146835539
 20
24.101474732
 30
0.0
 10
48.3165383707
 20
24.084625857
 30
0.0
 10
48.3165383917
 20
24.0759162926
 30
0.0
  0
SPLINE
  5
43A
100
AcDbEntity
  8
00_COMPONENTS_2
100
AcDbSpline
 62
7
  6
BYLAYER
 70
0
 71
3
 72
11
 73
7
 74
0
 42
0.0000001
 43
0.0000001
 44
0.0000000001
 40
0.0
 40
0.0
 40
0.0
 40
0.0
 40
0.2839711329
 40
0.5552001873
 40
0.7994006395
 40
1.0
 40
1.0
 40
1.0
 40
1.0
 10
48.8023511577
 20
24.0604987902
 30
0.0
 10
48.8175460215
 20
24.0715731999
 30
0.0
 10
48.8480416513
 20
24.0921708099
 30
0.0
 10
48.8945042175
 20
24.117768318
 30
0.0
 10
48.938611875
 20
24.1353995114
 30
0.0
 10
48.9679673808
 20
24.1410736691
 30
0.0
 10
48.9812494672
 20
24.1410736691
 30
0.0
  0
SPLINE
  5
43B
100
AcDbEntity
  8
00_COMPONENTS_2
100
AcDbSpline
 62
7
  6
BYLAYER
 70
0
 71
3
 72
11
 73
7
 74
0
 42
0.0000001
 43
0.0000001
 44
0.0000000001
 40
0.0
 40
0.0
 40
0.0
 40
0.0
 40
0.2856554169
 40
0.5209636125
 40
0.7476609822
 40
1.0
 40
1.0
 40
1.0
 40
1.0
 10
49.0336817095
 20
24.1410736691
 30
0.0
 10
49.0415630164
 20
24.1410736691
 30
0.0
 10
49.0561833427
 20
24.1394081992
 30
0.0
 10
49.0745035437
 20
24.1282031114
 30
0.0
 10
49.0842563159
 20
24.1102390807
 30
0.0
 10
49.0856962572
 20
24.096870461
 30
0.0
 10
49.085696045
 20
24.0899083621
 30
0.0
  0
SPLINE
  5
43C
100
AcDbEntity
  8
00_COMPONENTS_2
100
AcDbSpline
 62
7
  6
BYLAYER
 70
0
 71
3
 72
11
 73
7
 74
0
 42
0.0000001
 43
0.0000001
 44
0.0000000001
 40
0.0
 40
0.0
 40
0.0
 40
0.0
 40
0.2927490443
 40
0.5678932545
 40
0.8095216138
 40
1.0
 40
1.0
 40
1.0
 40
1.0
 10
49.5162033074
 20
24.0604987902
 30
0.0
 10
49.5311314358
 20
24.0715045975
 30
0.0
 10
49.5607774258
 20
24.0919371811
 30
0.0
 10
49.6053700578
 20
24.117497921
 30
0.0
 10
49.6466161131
 20
24.1351069775
 30
0.0
 10
49.6738304784
 20
24.1410736691
 30
0.0
 10
49.6858979088
 20
24.1410736691
 30
0.0
  0
SPLINE
  5
43D
100
AcDbEntity
  8
00_COMPONENTS_2
100
AcDbSpline
 62
7
  6
BYLAYER
 70
0
 71
3
 72
11
 73
7
 74
0
 42
0.0000001
 43
0.0000001
 44
0.0000000001
 40
0.0
 40
0.0
 40
0.0
 40
0.0
 40
0.2837394035
 40
0.5171961992
 40
0.7436798395
 40
1.0
 40
1.0
 40
1.0
 40
1.0
 10
49.7321751891
 20
24.1410736691
 30
0.0
 10
49.7381056519
 20
24.1410736691
 30
0.0
 10
49.7490920913
 20
24.1398735767
 30
0.0
 10
49.7629851654
 20
24.1315732731
 30
0.0
 10
49.7704564895
 20
24.1179431209
 30
0.0
 10
49.7715357238
 20
24.1077304611
 30
0.0
 10
49.7715358877
 20
24.1023730903
 30
0.0
  0
SPLINE
  5
43E
100
AcDbEntity
  8
00_COMPONENTS_2
100
AcDbSpline
 62
7
  6
BYLAYER
 70
0
 71
3
 72
13
 73
9
 74
0
 42
0.0000001
 43
0.0000001
 44
0.0000000001
 40
0.0
 40
0.0
 40
0.0
 40
0.0
 40
0.1795673471
 40
0.2626277969
 40
0.3592416458
 40
0.4796623087
 40
0.6275119676
 40
1.0
 40
1.0
 40
1.0
 40
1.0
 10
25.5698612334
 20
23.7270855047
 30
0.0
 10
25.5698613387
 20
23.7248182307
 30
0.0
 10
25.5691546754
 20
23.7211539021
 30
0.0
 10
25.565357783
 20
23.7183562499
 30
0.0
 10
25.5615694007
 20
23.7175793348
 30
0.0
 10
25.5569416115
 20
23.7179117413
 30
0.0
 10
25.5490691372
 20
23.7198824746
 30
0.0
 10
25.5430416093
 20
23.7226144966
 30
0.0
 10
25.5388519788
 20
23.7247514643
 30
0.0
  0
SPLINE
  5
43F
100
AcDbEntity
  8
00_COMPONENTS_2
100
AcDbSpline
 62
7
  6
BYLAYER
 70
0
 71
3
 72
9
 73
5
 74
0
 42
0.0000001
 43
0.0000001
 44
0.0000000001
 40
0.0
 40
0.0
 40
0.0
 40
0.0
 40
0.2275225619
 40
1.0
 40
1.0
 40
1.0
 40
1.0
 10
25.5388519788
 20
23.7247514643
 30
0.0
 10
25.5360975202
 20
23.7261564066
 30
0.0
 10
25.5242178593
 20
23.7327745995
 30
0.0
 10
25.5130542745
 20
23.7406014722
 30
0.0
 10
25.5046813631
 20
23.7469342855
 30
0.0
  0
SPLINE
  5
440
100
AcDbEntity
  8
00_COMPONENTS_2
100
AcDbSpline
 62
7
  6
BYLAYER
 70
0
 71
3
 72
12
 73
8
 74
0
 42
0.0000001
 43
0.0000001
 44
0.0000000001
 40
0.0
 40
0.0
 40
0.0
 40
0.0
 40
0.3024622202
 40
0.5818581966
 40
0.8204748465
 40
0.9184504796
 40
1.0
 40
1.0
 40
1.0
 40
1.0
 10
50.1415278955
 20
24.0604987902
 30
0.0
 10
50.1560739755
 20
24.0714325667
 30
0.0
 10
50.1846596454
 20
24.0917021208
 30
0.0
 10
50.2269888033
 20
24.1171543406
 30
0.0
 10
50.26077882
 20
24.1328239449
 30
0.0
 10
50.2850249933
 20
24.1397048049
 30
0.0
 10
50.2958210181
 20
24.1410736691
 30
0.0
 10
50.3007273103
 20
24.1410736691
 30
0.0
  0
SPLINE
  5
441
100
AcDbEntity
  8
00_COMPONENTS_2
100
AcDbSpline
 62
7
  6
BYLAYER
 70
0
 71
3
 72
11
 73
7
 74
0
 42
0.0000001
 43
0.0000001
 44
0.0000000001
 40
0.0
 40
0.0
 40
0.0
 40
0.0
 40
0.281893533
 40
0.5136684611
 40
0.7398762031
 40
1.0
 40
1.0
 40
1.0
 40
1.0
 10
50.3404974305
 20
24.1410736691
 30
0.0
 10
50.344743631
 20
24.1410736691
 30
0.0
 10
50.3526009466
 20
24.1402452701
 30
0.0
 10
50.362619293
 20
24.1343902027
 30
0.0
 10
50.3680652998
 20
24.1245555844
 30
0.0
 10
50.3688371579
 20
24.1171373722
 30
0.0
 10
50.3688371753
 20
24.1132190922
 30
0.0
  0
SPLINE
  5
442
100
AcDbEntity
  8
00_COMPONENTS_2
100
AcDbSpline
 62
7
  6
BYLAYER
 70
0
 71
3
 72
11
 73
7
 74
0
 42
0.0000001
 43
0.0000001
 44
0.0000000001
 40
0.0
 40
0.0
 40
0.0
 40
0.0
 40
0.2601239223
 40
0.4863319961
 40
0.7181066701
 40
1.0
 40
1.0
 40
1.0
 40
1.0
 10
25.3993019118
 20
24.1132190934
 30
0.0
 10
25.3993019288
 20
24.1171373753
 30
0.0
 10
25.4000737942
 20
24.1245555933
 30
0.0
 10
25.4055198023
 20
24.134390216
 30
0.0
 10
25.415538153
 20
24.1402452726
 30
0.0
 10
25.4233954607
 20
24.141073669
 30
0.0
 10
25.4276416582
 20
24.141073669
 30
0.0
  0
SPLINE
  5
443
100
AcDbEntity
  8
00_COMPONENTS_2
100
AcDbSpline
 62
7
  6
BYLAYER
 70
0
 71
3
 72
12
 73
8
 74
0
 42
0.0000001
 43
0.0000001
 44
0.0000000001
 40
0.0
 40
0.0
 40
0.0
 40
0.0
 40
0.3136736668
 40
0.5980762802
 40
0.8334428371
 40
0.9261352449
 40
1.0
 40
1.0
 40
1.0
 40
1.0
 10
50.6735658243
 20
24.0604987902
 30
0.0
 10
50.687619051
 20
24.0713570001
 30
0.0
 10
50.7149191186
 20
24.0914402966
 30
0.0
 10
50.7547211023
 20
24.1168064007
 30
0.0
 10
50.785777637
 20
24.1326099429
 30
0.0
 10
50.8074630539
 20
24.1396266225
 30
0.0
 10
50.8168764314
 20
24.1410736691
 30
0.0
 10
50.821058449
 20
24.1410736691
 30
0.0
  0
SPLINE
  5
444
100
AcDbEntity
  8
00_COMPONENTS_2
100
AcDbSpline
 62
7
  6
BYLAYER
 70
0
 71
3
 72
11
 73
7
 74
0
 42
0.0000001
 43
0.0000001
 44
0.0000000001
 40
0.0
 40
0.0
 40
0.0
 40
0.0
 40
0.2801864992
 40
0.5104957253
 40
0.7363923815
 40
1.0
 40
1.0
 40
1.0
 40
1.0
 10
50.8540187344
 20
24.1410736691
 30
0.0
 10
50.8568558896
 20
24.1410736691
 30
0.0
 10
50.8621012157
 20
24.1405357713
 30
0.0
 10
50.868836853
 20
24.1366762684
 30
0.0
 10
50.8725392983
 20
24.130060505
 30
0.0
 10
50.8730557072
 20
24.1250382072
 30
0.0
 10
50.8730559029
 20
24.122368929
 30
0.0
  0
SPLINE
  5
445
100
AcDbEntity
  8
00_COMPONENTS_2
100
AcDbSpline
 62
7
  6
BYLAYER
 70
0
 71
3
 72
12
 73
8
 74
0
 42
0.0000001
 43
0.0000001
 44
0.0000000001
 40
0.0
 40
0.0
 40
0.0
 40
0.0
 40
0.3265484998
 40
0.6167356387
 40
0.8484421515
 40
0.9350592736
 40
1.0
 40
1.0
 40
1.0
 40
1.0
 10
51.108267964
 20
24.0604987902
 30
0.0
 10
51.1217231123
 20
24.0712778475
 30
0.0
 10
51.147539945
 20
24.0911609222
 30
0.0
 10
51.1845241512
 20
24.1164173195
 30
0.0
 10
51.2126024942
 20
24.1323434835
 30
0.0
 10
51.231540461
 20
24.1395141624
 30
0.0
 10
51.239502704
 20
24.1410736691
 30
0.0
 10
51.2429312904
 20
24.1410736691
 30
0.0
  0
SPLINE
  5
446
100
AcDbEntity
  8
00_COMPONENTS_2
100
AcDbSpline
 62
7
  6
BYLAYER
 70
0
 71
3
 72
9
 73
5
 74
0
 42
0.0000001
 43
0.0000001
 44
0.0000000001
 40
0.0
 40
0.0
 40
0.0
 40
0.0
 40
0.5077779917
 40
1.0
 40
1.0
 40
1.0
 40
1.0
 10
51.2688308935
 20
24.1410736691
 30
0.0
 10
51.2718839181
 20
24.1410736691
 30
0.0
 10
51.2787842307
 20
24.1395733458
 30
0.0
 10
51.2803532669
 20
24.132714448
 30
0.0
 10
51.2803528131
 20
24.1297549541
 30
0.0
  0
SPLINE
  5
447
100
AcDbEntity
  8
00_COMPONENTS_2
100
AcDbSpline
 62
7
  6
BYLAYER
 70
0
 71
3
 72
13
 73
9
 74
0
 42
0.0000001
 43
0.0000001
 44
0.0000000001
 40
0.0
 40
0.0
 40
0.0
 40
0.0
 40
0.191671598
 40
0.279534547
 40
0.3775118473
 40
0.4961713599
 40
0.6402830295
 40
1.0
 40
1.0
 40
1.0
 40
1.0
 10
26.1215895548
 20
23.7311019129
 30
0.0
 10
26.1215897203
 20
23.728115505
 30
0.0
 10
26.1207648307
 20
23.7234172845
 30
0.0
 10
26.116317793
 20
23.7192787258
 30
0.0
 10
26.1117110355
 20
23.7177482712
 30
0.0
 10
26.106039259
 20
23.7176322763
 30
0.0
 10
26.0964564785
 20
23.7193676514
 30
0.0
 10
26.0891145802
 20
23.7223554676
 30
0.0
 10
26.0840478327
 20
23.7247514479
 30
0.0
  0
SPLINE
  5
448
100
AcDbEntity
  8
00_COMPONENTS_2
100
AcDbSpline
 62
7
  6
BYLAYER
 70
0
 71
3
 72
9
 73
5
 74
0
 42
0.0000001
 43
0.0000001
 44
0.0000000001
 40
0.0
 40
0.0
 40
0.0
 40
0.0
 40
0.2316092171
 40
1.0
 40
1.0
 40
1.0
 40
1.0
 10
26.0840478327
 20
23.7247514479
 30
0.0
 10
26.0811010426
 20
23.7261449357
 30
0.0
 10
26.0686078626
 20
23.7326467477
 30
0.0
 10
26.0568786291
 20
23.7405251122
 30
0.0
 10
26.0481681954
 20
23.7469342855
 30
0.0
  0
SPLINE
  5
449
100
AcDbEntity
  8
00_COMPONENTS_2
100
AcDbSpline
 62
7
  6
BYLAYER
 70
0
 71
3
 72
11
 73
7
 74
0
 42
0.0000001
 43
0.0000001
 44
0.0000000001
 40
0.0
 40
0.0
 40
0.0
 40
0.0
 40
0.128558192
 40
0.346547255
 40
0.6424417199
 40
1.0
 40
1.0
 40
1.0
 40
1.0
 10
51.2749576751
 20
23.717740252
 30
0.0
 10
51.2762344778
 20
23.7177392268
 30
0.0
 10
51.2795180899
 20
23.7191967199
 30
0.0
 10
51.2849370085
 20
23.7224146647
 30
0.0
 10
51.2920091807
 20
23.7274800676
 30
0.0
 10
51.2971200763
 20
23.7314634299
 30
0.0
 10
51.2998897594
 20
23.7336859599
 30
0.0
  0
LINE
  5
44A
100
AcDbEntity
  8
00_COMPONENTS_2
100
AcDbLine
 62
7
  6
BYLAYER
 10
51.2998897594
 20
23.7336859599
 11
51.3156966299
 21
23.7469342855
  0
SPLINE
  5
44B
100
AcDbEntity
  8
00_COMPONENTS_2
100
AcDbSpline
 62
7
  6
BYLAYER
 70
0
 71
3
 72
14
 73
10
 74
0
 42
0.0000001
 43
0.0000001
 44
0.0000000001
 40
0.0
 40
0.0
 40
0.0
 40
0.0
 40
0.3586959494
 40
0.5194144389
 40
0.6635161302
 40
0.7872264282
 40
0.8865811389
 40
0.9580621773
 40
1.0
 40
1.0
 40
1.0
 40
1.0
 10
51.6731974552
 20
24.0604987902
 30
0.0
 10
51.685168668
 20
24.0711094315
 30
0.0
 10
51.7026517645
 20
24.0863128874
 30
0.0
 10
51.7254342796
 20
24.1051935491
 30
0.0
 10
51.7403990151
 20
24.1170943768
 30
0.0
 10
51.7534912721
 20
24.1268996268
 30
0.0
 10
51.7643637447
 20
24.1343781154
 30
0.0
 10
51.7725150211
 20
24.1390303816
 30
0.0
 10
51.7773627181
 20
24.1410736691
 30
0.0
 10
51.7792330163
 20
24.1410736691
 30
0.0
  0
SPLINE
  5
44C
100
AcDbEntity
  8
00_COMPONENTS_2
100
AcDbSpline
 62
7
  6
BYLAYER
 70
0
 71
3
 72
11
 73
7
 74
0
 42
0.0000001
 43
0.0000001
 44
0.0000000001
 40
0.0
 40
0.0
 40
0.0
 40
0.0
 40
0.2563202413
 40
0.4828041974
 40
0.7162608776
 40
1.0
 40
1.0
 40
1.0
 40
1.0
 10
25.9966032018
 20
24.1023730897
 30
0.0
 10
25.9966033647
 20
24.107730462
 30
0.0
 10
25.9976825941
 20
24.1179431328
 30
0.0
 10
26.0051539424
 20
24.1315732789
 30
0.0
 10
26.0190470108
 20
24.139873581
 30
0.0
 10
26.0300334429
 20
24.141073669
 30
0.0
 10
26.0359638997
 20
24.141073669
 30
0.0
  0
SPLINE
  5
44D
100
AcDbEntity
  8
00_COMPONENTS_2
100
AcDbSpline
 62
7
  6
BYLAYER
 70
0
 71
3
 72
15
 73
11
 74
0
 42
0.0000001
 43
0.0000001
 44
0.0000000001
 40
0.0
 40
0.0
 40
0.0
 40
0.0
 40
0.3921062849
 40
0.5593888236
 40
0.703746964
 40
0.8223148094
 40
0.912414155
 40
0.9718958752
 40
0.9897975112
 40
1.0
 40
1.0
 40
1.0
 40
1.0
 10
51.8361322625
 20
24.0951940361
 30
0.0
 10
51.8429026232
 20
24.1014571202
 30
0.0
 10
51.8525992427
 20
24.1103511733
 30
0.0
 10
51.8649304183
 20
24.121396299
 30
0.0
 10
51.8725393033
 20
24.128064401
 30
0.0
 10
51.87886613
 20
24.1334527431
 30
0.0
 10
51.883768778
 20
24.1373988481
 30
0.0
 10
51.886943182
 20
24.1397809201
 30
0.0
 10
51.8887088646
 20
24.1407999212
 30
0.0
 10
51.8893403406
 20
24.1410736691
 30
0.0
 10
51.8895803207
 20
24.1410736691
 30
0.0
  0
SPLINE
  5
44E
100
AcDbEntity
  8
00_COMPONENTS_2
100
AcDbSpline
 62
7
  6
BYLAYER
 70
0
 71
3
 72
13
 73
9
 74
0
 42
0.0000001
 43
0.0000001
 44
0.0000000001
 40
0.0
 40
0.0
 40
0.0
 40
0.0
 40
0.1998290066
 40
0.2918215947
 40
0.3914834248
 40
0.5093222624
 40
0.6507275293
 40
1.0
 40
1.0
 40
1.0
 40
1.0
 10
26.7635919126
 20
23.7357735272
 30
0.0
 10
26.763591718
 20
23.7320115426
 30
0.0
 10
26.7626234604
 20
23.7261770132
 30
0.0
 10
26.7575097197
 20
23.72059418
 30
0.0
 10
26.7520665319
 20
23.7181602271
 30
0.0
 10
26.7452659789
 20
23.7174708032
 30
0.0
 10
26.733835348
 20
23.7188490845
 30
0.0
 10
26.725058882
 20
23.722083603
 30
0.0
 10
26.719048995
 20
23.7247514255
 30
0.0
  0
SPLINE
  5
44F
100
AcDbEntity
  8
00_COMPONENTS_2
100
AcDbSpline
 62
7
  6
BYLAYER
 70
0
 71
3
 72
9
 73
5
 74
0
 42
0.0000001
 43
0.0000001
 44
0.0000000001
 40
0.0
 40
0.0
 40
0.0
 40
0.0
 40
0.235384853
 40
1.0
 40
1.0
 40
1.0
 40
1.0
 10
26.719048995
 20
23.7247514255
 30
0.0
 10
26.7159325156
 20
23.7261348481
 30
0.0
 10
26.7029233683
 20
23.7325311179
 30
0.0
 10
26.690714754
 20
23.7404524626
 30
0.0
 10
26.6817333835
 20
23.7469342855
 30
0.0
  0
SPLINE
  5
450
100
AcDbEntity
  8
00_COMPONENTS_2
100
AcDbSpline
 62
7
  6
BYLAYER
 70
0
 71
3
 72
11
 73
7
 74
0
 42
0.0000001
 43
0.0000001
 44
0.0000000001
 40
0.0
 40
0.0
 40
0.0
 40
0.0
 40
0.2523391871
 40
0.4790366711
 40
0.7143449309
 40
1.0
 40
1.0
 40
1.0
 40
1.0
 10
26.6824430443
 20
24.0899083619
 30
0.0
 10
26.6824428334
 20
24.0968704653
 30
0.0
 10
26.6838827688
 20
24.1102390954
 30
0.0
 10
26.6936355664
 20
24.128203124
 30
0.0
 10
26.7119557631
 20
24.1394082054
 30
0.0
 10
26.726576082
 20
24.141073669
 30
0.0
 10
26.7344573792
 20
24.141073669
 30
0.0
  0
SPLINE
  5
451
100
AcDbEntity
  8
00_COMPONENTS_2
100
AcDbSpline
 62
7
  6
BYLAYER
 70
0
 71
3
 72
13
 73
9
 74
0
 42
0.0000001
 43
0.0000001
 44
0.0000000001
 40
0.0
 40
0.0
 40
0.0
 40
0.0
 40
0.2051986948
 40
0.300601768
 40
0.4021387948
 40
0.5198211787
 40
0.659322514
 40
1.0
 40
1.0
 40
1.0
 40
1.0
 10
27.4909816005
 20
23.7410646427
 30
0.0
 10
27.4909817568
 20
23.736482236
 30
0.0
 10
27.489843223
 20
23.7294311764
 30
0.0
 10
27.4840533202
 20
23.7223011847
 30
0.0
 10
27.4777579914
 20
23.7188374491
 30
0.0
 10
27.4697597697
 20
23.7174439067
 30
0.0
 10
27.4563578479
 20
23.7183286166
 30
0.0
 10
27.446033597
 20
23.7217977379
 30
0.0
 10
27.4390225378
 20
23.7247514762
 30
0.0
  0
SPLINE
  5
452
100
AcDbEntity
  8
00_COMPONENTS_2
100
AcDbSpline
 62
7
  6
BYLAYER
 70
0
 71
3
 72
9
 73
5
 74
0
 42
0.0000001
 43
0.0000001
 44
0.0000000001
 40
0.0
 40
0.0
 40
0.0
 40
0.0
 40
0.2388876133
 40
1.0
 40
1.0
 40
1.0
 40
1.0
 10
27.4390225378
 20
23.7247514762
 30
0.0
 10
27.4357600307
 20
23.7261259606
 30
0.0
 10
27.4223335799
 20
23.7324260548
 30
0.0
 10
27.4097371681
 20
23.7403833756
 30
0.0
 10
27.4005551141
 20
23.7469342855
 30
0.0
  0
SPLINE
  5
453
100
AcDbEntity
  8
00_COMPONENTS_2
100
AcDbSpline
 62
7
  6
BYLAYER
 70
0
 71
3
 72
11
 73
7
 74
0
 42
0.0000001
 43
0.0000001
 44
0.0000000001
 40
0.0
 40
0.0
 40
0.0
 40
0.0
 40
0.2483235862
 40
0.4751522878
 40
0.7124287646
 40
1.0
 40
1.0
 40
1.0
 40
1.0
 10
27.4516006961
 20
24.0759162929
 30
0.0
 10
27.451600717
 20
24.0846258625
 30
0.0
 10
27.4534555391
 20
24.1014747434
 30
0.0
 10
27.4657298689
 20
24.1242632763
 30
0.0
 10
27.4889802586
 20
24.1388351738
 30
0.0
 10
27.5077200188
 20
24.141073669
 30
0.0
 10
27.5178061396
 20
24.141073669
 30
0.0
  0
SPLINE
  5
454
100
AcDbEntity
  8
00_COMPONENTS_2
100
AcDbSpline
 62
7
  6
BYLAYER
 70
0
 71
3
 72
15
 73
11
 74
0
 42
0.0000001
 43
0.0000001
 44
0.0000000001
 40
0.0
 40
0.0
 40
0.0
 40
0.0
 40
0.0102024831
 40
0.0281041658
 40
0.0875860499
 40
0.1776857304
 40
0.2962535455
 40
0.4406116562
 40
0.6078941877
 40
1.0
 40
1.0
 40
1.0
 40
1.0
 10
23.878558768
 20
24.141073669
 30
0.0
 10
23.8787987515
 20
24.141073669
 30
0.0
 10
23.8794302367
 20
24.1407999138
 30
0.0
 10
23.8811959468
 20
24.1397808932
 30
0.0
 10
23.8843704051
 20
24.1373987756
 30
0.0
 10
23.8892731283
 20
24.1334526017
 30
0.0
 10
23.8956000491
 20
24.1280641746
 30
0.0
 10
23.9032090386
 20
24.1213959723
 30
0.0
 10
23.915540379
 20
24.1103506898
 30
0.0
 10
23.9252371273
 20
24.1014565124
 30
0.0
 10
23.9320075756
 20
24.0951933429
 30
0.0
  0
SPLINE
  5
455
100
AcDbEntity
  8
00_COMPONENTS_2
100
AcDbSpline
 62
7
  6
BYLAYER
 70
0
 71
3
 72
14
 73
10
 74
0
 42
0.0000001
 43
0.0000001
 44
0.0000000001
 40
0.0
 40
0.0
 40
0.0
 40
0.0
 40
0.0419378996
 40
0.1134191287
 40
0.2127737735
 40
0.3364840207
 40
0.480585734
 40
0.6413040822
 40
1.0
 40
1.0
 40
1.0
 40
1.0
 10
23.9889060724
 20
24.141073669
 30
0.0
 10
23.9907763741
 20
24.141073669
 30
0.0
 10
23.9956240814
 20
24.1390303729
 30
0.0
 10
24.003775364
 20
24.1343781011
 30
0.0
 10
24.0146478404
 20
24.1268996118
 30
0.0
 10
24.0277400916
 20
24.1170943613
 30
0.0
 10
24.0427048217
 20
24.1051935392
 30
0.0
 10
24.0654873312
 20
24.0863128813
 30
0.0
 10
24.0829704218
 20
24.0711094305
 30
0.0
 10
24.0949416335
 20
24.0604987901
 30
0.0
  0
SPLINE
  5
456
100
AcDbEntity
  8
00_COMPONENTS_2
100
AcDbSpline
 62
7
  6
BYLAYER
 70
0
 71
3
 72
15
 73
11
 74
0
 42
0.0000001
 43
0.0000001
 44
0.0000000001
 40
0.0
 40
0.0
 40
0.0
 40
0.0
 40
0.0401950856
 40
0.084215333
 40
0.1585562263
 40
0.2677643425
 40
0.4104186712
 40
0.5827424951
 40
0.780594653
 40
1.0
 40
1.0
 40
1.0
 40
1.0
 10
24.49468373
 20
23.7192563133
 30
0.0
 10
24.4946831228
 20
23.7188243876
 30
0.0
 10
24.4943739078
 20
23.7177699295
 30
0.0
 10
24.4924160547
 20
23.7176686599
 30
0.0
 10
24.4901799593
 20
23.7185061991
 30
0.0
 10
24.4870181686
 20
23.7201003413
 30
0.0
 10
24.4831679429
 20
23.7225259608
 30
0.0
 10
24.4786380016
 20
23.7256727025
 30
0.0
 10
24.4735672307
 20
23.7294704346
 30
0.0
 10
24.470044308
 20
23.7322451135
 30
0.0
 10
24.4682057059
 20
23.7337209756
 30
0.0
  0
LINE
  5
457
100
AcDbEntity
  8
00_COMPONENTS_2
100
AcDbLine
 62
7
  6
BYLAYER
 10
24.4682057059
 20
23.7337209756
 11
24.4524424589
 21
23.7469342855
  0
SPLINE
  5
458
100
AcDbEntity
  8
00_COMPONENTS_2
100
AcDbSpline
 62
7
  6
BYLAYER
 70
0
 71
3
 72
13
 73
9
 74
0
 42
0.0000001
 43
0.0000001
 44
0.0000000001
 40
0.0
 40
0.0
 40
0.0
 40
0.0
 40
0.0544238312
 40
0.1340034113
 40
0.2374430115
 40
0.3616833651
 40
0.65858834
 40
1.0
 40
1.0
 40
1.0
 40
1.0
 10
24.205003961
 20
24.141073669
 30
0.0
 10
24.2076579687
 20
24.141073669
 30
0.0
 10
24.2141042192
 20
24.1393361613
 30
0.0
 10
24.2246177327
 20
24.1345449232
 30
0.0
 10
24.2376383372
 20
24.1270638882
 30
0.0
 10
24.2590444526
 20
24.1130575162
 30
0.0
 10
24.2888988875
 20
24.0908321266
 30
0.0
 10
24.3130545876
 20
24.0711952014
 30
0.0
 10
24.3258131201
 20
24.0604987901
 30
0.0
  0
SPLINE
  5
459
100
AcDbEntity
  8
00_COMPONENTS_2
100
AcDbSpline
 62
7
  6
BYLAYER
 70
0
 71
3
 72
12
 73
8
 74
0
 42
0.0000001
 43
0.0000001
 44
0.0000000001
 40
0.0
 40
0.0
 40
0.0
 40
0.0
 40
0.0649408179
 40
0.1515581402
 40
0.3832645065
 40
0.6734515307
 40
1.0
 40
1.0
 40
1.0
 40
1.0
 10
24.5252077983
 20
24.141073669
 30
0.0
 10
24.5286363896
 20
24.141073669
 30
0.0
 10
24.5365986473
 20
24.1395141551
 30
0.0
 10
24.555536619
 20
24.1323434688
 30
0.0
 10
24.5836149581
 20
24.1164173054
 30
0.0
 10
24.6205991516
 20
24.0911609169
 30
0.0
 10
24.6464159777
 20
24.0712778464
 30
0.0
 10
24.6598711248
 20
24.0604987901
 30
0.0
  0
SPLINE
  5
45A
100
AcDbEntity
  8
00_COMPONENTS_2
100
AcDbSpline
 62
7
  6
BYLAYER
 70
0
 71
3
 72
13
 73
9
 74
0
 42
0.0000001
 43
0.0000001
 44
0.0000000001
 40
0.0
 40
0.0
 40
0.0
 40
0.0
 40
0.0665102623
 40
0.1232977444
 40
0.1946975466
 40
0.2951811724
 40
0.5917619169
 40
1.0
 40
1.0
 40
1.0
 40
1.0
 10
24.7532998801
 20
23.7211406324
 30
0.0
 10
24.7533003056
 20
23.7204724471
 30
0.0
 10
24.7531454556
 20
23.7191578656
 30
0.0
 10
24.7515471038
 20
23.7177632878
 30
0.0
 10
24.7491507635
 20
23.7176586026
 30
0.0
 10
24.7445736326
 20
23.7187528574
 30
0.0
 10
24.7372749543
 20
23.7224487084
 30
0.0
 10
24.7313194952
 20
23.7262488203
 30
0.0
 10
24.7279315779
 20
23.7285602488
 30
0.0
  0
SPLINE
  5
45B
100
AcDbEntity
  8
00_COMPONENTS_2
100
AcDbSpline
 62
7
  6
BYLAYER
 70
0
 71
3
 72
9
 73
5
 74
0
 42
0.0000001
 43
0.0000001
 44
0.0000000001
 40
0.0
 40
0.0
 40
0.0
 40
0.0
 40
0.2290689795
 40
1.0
 40
1.0
 40
1.0
 40
1.0
 10
24.7279315779
 20
23.7285602488
 30
0.0
 10
24.7260166521
 20
23.7298667194
 30
0.0
 10
24.717755004
 20
23.7357136328
 30
0.0
 10
24.7098015856
 20
23.7419849134
 30
0.0
 10
24.7037707884
 20
23.7469342855
 30
0.0
  0
SPLINE
  5
45C
100
AcDbEntity
  8
00_COMPONENTS_2
100
AcDbSpline
 62
7
  6
BYLAYER
 70
0
 71
3
 72
12
 73
8
 74
0
 42
0.0000001
 43
0.0000001
 44
0.0000000001
 40
0.0
 40
0.0
 40
0.0
 40
0.0
 40
0.0738648526
 40
0.1665574649
 40
0.401923863
 40
0.6863263633
 40
1.0
 40
1.0
 40
1.0
 40
1.0
 10
24.9470806398
 20
24.141073669
 30
0.0
 10
24.9512626628
 20
24.141073669
 30
0.0
 10
24.960676057
 20
24.1396266157
 30
0.0
 10
24.9823614794
 20
24.1326099279
 30
0.0
 10
25.0134180092
 20
24.1168063859
 30
0.0
 10
25.0532199787
 20
24.0914402913
 30
0.0
 10
25.0805200392
 20
24.071356999
 30
0.0
 10
25.0945732644
 20
24.0604987901
 30
0.0
  0
SPLINE
  5
45D
100
AcDbEntity
  8
00_COMPONENTS_2
100
AcDbSpline
 62
7
  6
BYLAYER
 70
0
 71
3
 72
9
 73
5
 74
0
 42
0.0000001
 43
0.0000001
 44
0.0000000001
 40
0.0
 40
0.0
 40
0.0
 40
0.0
 40
0.4922222394
 40
1.0
 40
1.0
 40
1.0
 40
1.0
 10
24.4877862805
 20
24.1297549498
 30
0.0
 10
24.4877858263
 20
24.1327144455
 30
0.0
 10
24.4893548564
 20
24.1395733473
 30
0.0
 10
24.4962551716
 20
24.141073669
 30
0.0
 10
24.4993081952
 20
24.141073669
 30
0.0
  0
SPLINE
  5
45E
100
AcDbEntity
  8
00_COMPONENTS_2
100
AcDbSpline
 62
7
  6
BYLAYER
 70
0
 71
3
 72
12
 73
8
 74
0
 42
0.0000001
 43
0.0000001
 44
0.0000000001
 40
0.0
 40
0.0
 40
0.0
 40
0.0
 40
0.0815496233
 40
0.1795254645
 40
0.4181419448
 40
0.6975378096
 40
1.0
 40
1.0
 40
1.0
 40
1.0
 10
25.4674117784
 20
24.141073669
 30
0.0
 10
25.4723180768
 20
24.141073669
 30
0.0
 10
25.48311412
 20
24.1397047984
 30
0.0
 10
25.5073602994
 20
24.1328239298
 30
0.0
 10
25.5411503104
 20
24.1171543253
 30
0.0
 10
25.5834794524
 20
24.0917021155
 30
0.0
 10
25.6120651147
 20
24.0714325656
 30
0.0
 10
25.6266111932
 20
24.0604987901
 30
0.0
  0
SPLINE
  5
45F
100
AcDbEntity
  8
00_COMPONENTS_2
100
AcDbSpline
 62
7
  6
BYLAYER
 70
0
 71
3
 72
11
 73
7
 74
0
 42
0.0000001
 43
0.0000001
 44
0.0000000001
 40
0.0
 40
0.0
 40
0.0
 40
0.0
 40
0.1904787043
 40
0.4321068847
 40
0.7072509849
 40
1.0
 40
1.0
 40
1.0
 40
1.0
 10
26.08224118
 20
24.141073669
 30
0.0
 10
26.0943086304
 20
24.141073669
 30
0.0
 10
26.121523003
 20
24.1351069635
 30
0.0
 10
26.1627690579
 20
24.1174979058
 30
0.0
 10
26.2073616725
 20
24.0919371756
 30
0.0
 10
26.2370076545
 20
24.0715045963
 30
0.0
 10
26.2519357813
 20
24.0604987901
 30
0.0
  0
SPLINE
  5
460
100
AcDbEntity
  8
00_COMPONENTS_2
100
AcDbSpline
 62
7
  6
BYLAYER
 70
0
 71
3
 72
17
 73
13
 74
0
 42
0.0000001
 43
0.0000001
 44
0.0000000001
 40
0.0
 40
0.0
 40
0.0
 40
0.0
 40
0.0094113163
 40
0.020164005
 40
0.0387912907
 40
0.0665298079
 40
0.1034864406
 40
0.149516853
 40
0.2671352266
 40
0.415240378
 40
0.5895013309
 40
1.0
 40
1.0
 40
1.0
 40
1.0
 10
24.3387205159
 20
23.7181218102
 30
0.0
 10
24.3387206199
 20
23.7180088181
 30
0.0
 10
24.3386291118
 20
23.7177253808
 30
0.0
 10
24.3380886931
 20
23.717737498
 30
0.0
 10
24.337473149
 20
23.7179827996
 30
0.0
 10
24.3365758207
 20
23.7184540823
 30
0.0
 10
24.3354590182
 20
23.7191681464
 30
0.0
 10
24.333484905
 20
23.7205524878
 30
0.0
 10
24.3305283851
 20
23.7228481425
 30
0.0
 10
24.3264530691
 20
23.7262103073
 30
0.0
 10
24.3197835373
 20
23.7319496825
 30
0.0
 10
24.3145604882
 20
23.7366422642
 30
0.0
 10
24.3109173172
 20
23.7399614262
 30
0.0
  0
SPLINE
  5
461
100
AcDbEntity
  8
00_COMPONENTS_2
100
AcDbSpline
 62
7
  6
BYLAYER
 70
0
 71
3
 72
11
 73
7
 74
0
 42
0.0000001
 43
0.0000001
 44
0.0000000001
 40
0.0
 40
0.0
 40
0.0
 40
0.0
 40
0.2005996856
 40
0.4447999506
 40
0.7160288961
 40
1.0
 40
1.0
 40
1.0
 40
1.0
 10
26.7868896216
 20
24.141073669
 30
0.0
 10
26.8001717294
 20
24.141073669
 30
0.0
 10
26.8295272431
 20
24.1353994977
 30
0.0
 10
26.8736349
 20
24.1177683023
 30
0.0
 10
26.9200974474
 20
24.0921708044
 30
0.0
 10
26.9505930688
 20
24.0715731987
 30
0.0
 10
26.9657879311
 20
24.0604987901
 30
0.0
  0
SPLINE
  5
462
100
AcDbEntity
  8
00_COMPONENTS_2
100
AcDbSpline
 62
7
  6
BYLAYER
 70
0
 71
3
 72
12
 73
8
 74
0
 42
0.0000001
 43
0.0000001
 44
0.0000000001
 40
0.0
 40
0.0
 40
0.0
 40
0.0
 40
0.1623968619
 40
0.3332622775
 40
0.4571066787
 40
0.6105730258
 40
1.0
 40
1.0
 40
1.0
 40
1.0
 10
25.1126039543
 20
23.7237570262
 30
0.0
 10
25.112602926
 20
23.7221402688
 30
0.0
 10
25.1116694513
 20
23.7183142953
 30
0.0
 10
25.1064742194
 20
23.7174723761
 30
0.0
 10
25.1021711473
 20
23.7183014553
 30
0.0
 10
25.0958142564
 20
23.7203860078
 30
0.0
 10
25.0909961017
 20
23.7228617688
 30
0.0
 10
25.0876108099
 20
23.7247514139
 30
0.0
  0
SPLINE
  5
463
100
AcDbEntity
  8
00_COMPONENTS_2
100
AcDbSpline
 62
7
  6
BYLAYER
 70
0
 71
3
 72
9
 73
5
 74
0
 42
0.0000001
 43
0.0000001
 44
0.0000000001
 40
0.0
 40
0.0
 40
0.0
 40
0.0
 40
0.2230876551
 40
1.0
 40
1.0
 40
1.0
 40
1.0
 10
25.0876108099
 20
23.7247514139
 30
0.0
 10
25.0850702888
 20
23.7261695142
 30
0.0
 10
25.0739008151
 20
23.732916446
 30
0.0
 10
25.0633823568
 20
23.7406816468
 30
0.0
 10
25.0554091499
 20
23.7469342855
 30
0.0
  0
SPLINE
  5
464
100
AcDbEntity
  8
00_COMPONENTS_2
100
AcDbSpline
 62
7
  6
BYLAYER
 70
0
 71
3
 72
11
 73
7
 74
0
 42
0.0000001
 43
0.0000001
 44
0.0000000001
 40
0.0
 40
0.0
 40
0.0
 40
0.0
 40
0.2096972008
 40
0.4562056043
 40
0.72390733
 40
1.0
 40
1.0
 40
1.0
 40
1.0
 10
27.575994303
 20
24.141073669
 30
0.0
 10
27.5903950133
 20
24.141073669
 30
0.0
 10
27.6216757929
 20
24.1356438745
 30
0.0
 10
27.6682983355
 20
24.1180163598
 30
0.0
 10
27.7162824588
 20
24.09238923
 30
0.0
 10
27.7473919833
 20
24.0716384774
 30
0.0
 10
27.7627347965
 20
24.0604987901
 30
0.0
  0
SPLINE
  5
465
100
AcDbEntity
  8
00_COMPONENTS_2
100
AcDbSpline
 62
7
  6
BYLAYER
 70
0
 71
3
 72
12
 73
8
 74
0
 42
0.0000001
 43
0.0000001
 44
0.0000000001
 40
0.0
 40
0.0
 40
0.0
 40
0.0
 40
0.2438848837
 40
0.4704471217
 40
0.5866883835
 40
0.7110396292
 40
1.0
 40
1.0
 40
1.0
 40
1.0
 10
28.2982227195
 20
24.0604987901
 30
0.0
 10
28.2982227195
 20
24.0710731586
 30
0.0
 10
28.3005343926
 20
24.0916945677
 30
0.0
 10
28.3130208678
 20
24.1148684527
 30
0.0
 10
28.3285525458
 20
24.1281791453
 30
0.0
 10
28.3491891083
 20
24.1386638922
 30
0.0
 10
28.367519671
 20
24.141073669
 30
0.0
 10
28.3800484239
 20
24.141073669
 30
0.0
  0
SPLINE
  5
466
100
AcDbEntity
  8
00_COMPONENTS_2
100
AcDbSpline
 62
7
  6
BYLAYER
 70
0
 71
3
 72
10
 73
6
 74
0
 42
0.0000001
 43
0.0000001
 44
0.0000000001
 40
0.0
 40
0.0
 40
0.0
 40
0.0
 40
0.2181445727
 40
0.4669263048
 40
1.0
 40
1.0
 40
1.0
 40
1.0
 10
28.4435496613
 20
24.141073669
 30
0.0
 10
28.4589633135
 20
24.141073669
 30
0.0
 10
28.4919470504
 20
24.1358557774
 30
0.0
 10
28.5585778796
 20
24.1117678814
 30
0.0
 10
28.6062718589
 20
24.0826837188
 30
0.0
 10
28.6367111308
 20
24.0604987901
 30
0.0
  0
SPLINE
  5
467
100
AcDbEntity
  8
00_COMPONENTS_2
100
AcDbSpline
 62
7
  6
BYLAYER
 70
0
 71
3
 72
11
 73
7
 74
0
 42
0.0000001
 43
0.0000001
 44
0.0000000001
 40
0.0
 40
0.0
 40
0.0
 40
0.0
 40
0.2326342065
 40
0.4594432046
 40
0.7061455313
 40
1.0
 40
1.0
 40
1.0
 40
1.0
 10
29.2168322083
 20
24.0604987901
 30
0.0
 10
29.2181257104
 20
24.0712743324
 30
0.0
 10
29.2234237239
 20
24.0924653387
 30
0.0
 10
29.2431006051
 20
24.120070635
 30
0.0
 10
29.2753548166
 20
24.1379559775
 30
0.0
 10
29.3009130858
 20
24.141073669
 30
0.0
 10
29.3146220475
 20
24.141073669
 30
0.0
  0
SPLINE
  5
468
100
AcDbEntity
  8
00_COMPONENTS_2
100
AcDbSpline
 62
7
  6
BYLAYER
 70
0
 71
3
 72
10
 73
6
 74
0
 42
0.0000001
 43
0.0000001
 44
0.0000000001
 40
0.0
 40
0.0
 40
0.0
 40
0.0
 40
0.2257919352
 40
0.476481271
 40
1.0
 40
1.0
 40
1.0
 40
1.0
 10
29.3829530761
 20
24.141073669
 30
0.0
 10
29.3992655692
 20
24.141073669
 30
0.0
 10
29.43370898
 20
24.1360369884
 30
0.0
 10
29.5021461481
 20
24.1122132364
 30
0.0
 10
29.5506226238
 20
24.0829428521
 30
0.0
 10
29.5810654464
 20
24.0604987901
 30
0.0
  0
SPLINE
  5
469
100
AcDbEntity
  8
00_COMPONENTS_2
100
AcDbSpline
 62
7
  6
BYLAYER
 70
0
 71
3
 72
11
 73
7
 74
0
 42
0.0000001
 43
0.0000001
 44
0.0000000001
 40
0.0
 40
0.0
 40
0.0
 40
0.0
 40
0.2250796044
 40
0.4530464072
 40
0.7050062065
 40
1.0
 40
1.0
 40
1.0
 40
1.0
 10
30.2014046066
 20
24.0604987901
 30
0.0
 10
30.2040294141
 20
24.0714735553
 30
0.0
 10
30.2123507803
 20
24.093067558
 30
0.0
 10
30.2362733598
 20
24.1202147272
 30
0.0
 10
30.2719196474
 20
24.1377964649
 30
0.0
 10
30.2996249335
 20
24.141073669
 30
0.0
 10
30.314414341
 20
24.141073669
 30
0.0
  0
SPLINE
  5
46A
100
AcDbEntity
  8
00_COMPONENTS_2
100
AcDbSpline
 62
7
  6
BYLAYER
 70
0
 71
3
 72
10
 73
6
 74
0
 42
0.0000001
 43
0.0000001
 44
0.0000000001
 40
0.0
 40
0.0
 40
0.0
 40
0.0
 40
0.2329127067
 40
0.4853378274
 40
1.0
 40
1.0
 40
1.0
 40
1.0
 10
30.3870551205
 20
24.141073669
 30
0.0
 10
30.4041450078
 20
24.141073669
 30
0.0
 10
30.4397990503
 20
24.1361978718
 30
0.0
 10
30.5095389335
 20
24.1126264193
 30
0.0
 10
30.5584242523
 20
24.0831888332
 30
0.0
 10
30.5886106366
 20
24.0604987901
 30
0.0
  0
SPLINE
  5
46B
100
AcDbEntity
  8
00_COMPONENTS_2
100
AcDbSpline
 62
7
  6
BYLAYER
 70
0
 71
3
 72
11
 73
7
 74
0
 42
0.0000001
 43
0.0000001
 44
0.0000000001
 40
0.0
 40
0.0
 40
0.0
 40
0.0
 40
0.2207637577
 40
0.4505869244
 40
0.7061181238
 40
1.0
 40
1.0
 40
1.0
 40
1.0
 10
31.244446724
 20
24.0604987901
 30
0.0
 10
31.2484221972
 20
24.0716509916
 30
0.0
 10
31.2597119562
 20
24.0934887253
 30
0.0
 10
31.2875245328
 20
24.1202440066
 30
0.0
 10
31.3263452771
 20
24.1376550018
 30
0.0
 10
31.3560553515
 20
24.141073669
 30
0.0
 10
31.3718162813
 20
24.141073669
 30
0.0
  0
SPLINE
  5
46C
100
AcDbEntity
  8
00_COMPONENTS_2
100
AcDbSpline
 62
7
  6
BYLAYER
 70
0
 71
3
 72
9
 73
5
 74
0
 42
0.0000001
 43
0.0000001
 44
0.0000000001
 40
0.0
 40
0.0
 40
0.0
 40
0.0
 40
0.4924254951
 40
1.0
 40
1.0
 40
1.0
 40
1.0
 10
31.4482139714
 20
24.141073669
 30
0.0
 10
31.4845852922
 20
24.141073669
 30
0.0
 10
31.5583208103
 20
24.1220376955
 30
0.0
 10
31.6220120763
 20
24.0834206541
 30
0.0
 10
31.6516786742
 20
24.0604987901
 30
0.0
  0
SPLINE
  5
46D
100
AcDbEntity
  8
00_COMPONENTS_2
100
AcDbSpline
 62
7
  6
BYLAYER
 70
0
 71
3
 72
11
 73
7
 74
0
 42
0.0000001
 43
0.0000001
 44
0.0000000001
 40
0.0
 40
0.0
 40
0.0
 40
0.0
 40
0.218887623
 40
0.4509124375
 40
0.7087362252
 40
1.0
 40
1.0
 40
1.0
 40
1.0
 10
32.3380203802
 20
24.0604987901
 30
0.0
 10
32.3433416228
 20
24.0717949122
 30
0.0
 10
32.3574722272
 20
24.0937549435
 30
0.0
 10
32.3888664066
 20
24.1202055322
 30
0.0
 10
32.430626382
 20
24.137525799
 30
0.0
 10
32.462164902
 20
24.141073669
 30
0.0
 10
32.4787804011
 20
24.141073669
 30
0.0
  0
SPLINE
  5
46E
100
AcDbEntity
  8
00_COMPONENTS_2
100
AcDbSpline
 62
7
  6
BYLAYER
 70
0
 71
3
 72
9
 73
5
 74
0
 42
0.0000001
 43
0.0000001
 44
0.0000000001
 40
0.0
 40
0.0
 40
0.0
 40
0.0
 40
0.5002097396
 40
1.0
 40
1.0
 40
1.0
 40
1.0
 10
32.5583535693
 20
24.141073669
 30
0.0
 10
32.5953915812
 20
24.141073669
 30
0.0
 10
32.6695079468
 20
24.122825059
 30
0.0
 10
32.7332970441
 20
24.0836363968
 30
0.0
 10
32.7621789696
 20
24.0604987902
 30
0.0
  0
SPLINE
  5
46F
100
AcDbEntity
  8
00_COMPONENTS_2
100
AcDbSpline
 62
7
  6
BYLAYER
 70
0
 71
3
 72
15
 73
11
 74
0
 42
0.0000001
 43
0.0000001
 44
0.0000000001
 40
0.0
 40
0.0
 40
0.0
 40
0.0
 40
0.093404065
 40
0.1794631162
 40
0.2691742326
 40
0.3772686904
 40
0.5104099641
 40
0.6641106114
 40
0.8297167104
 40
1.0
 40
1.0
 40
1.0
 40
1.0
 10
28.2982227195
 20
23.7469342855
 30
0.0
 10
28.2982227195
 20
23.743091168
 30
0.0
 10
28.2974048083
 20
23.7356342268
 30
0.0
 10
28.2921208435
 20
23.7254753945
 30
0.0
 10
28.2819465025
 20
23.7187955175
 30
0.0
 10
28.2681219081
 20
23.7170265883
 30
0.0
 10
28.2519550052
 20
23.71964311
 30
0.0
 10
28.2343818567
 20
23.7260159228
 30
0.0
 10
28.2164684893
 20
23.7353164699
 30
0.0
 10
28.2048735783
 20
23.7428753941
 30
0.0
 10
28.1991627195
 20
23.7469342855
 30
0.0
  0
SPLINE
  5
470
100
AcDbEntity
  8
00_COMPONENTS_2
100
AcDbSpline
 62
7
  6
BYLAYER
 70
0
 71
3
 72
11
 73
7
 74
0
 42
0.0000001
 43
0.0000001
 44
0.0000000001
 40
0.0
 40
0.0
 40
0.0
 40
0.0
 40
0.2187992313
 40
0.4531750571
 40
0.7123453181
 40
1.0
 40
1.0
 40
1.0
 40
1.0
 10
33.4738028193
 20
24.0604987902
 30
0.0
 10
33.4804402221
 20
24.0719017585
 30
0.0
 10
33.4972425258
 20
24.0939010884
 30
0.0
 10
33.5319349453
 20
24.1201268609
 30
0.0
 10
33.5763702363
 20
24.1374047054
 30
0.0
 10
33.6095358654
 20
24.141073669
 30
0.0
 10
33.6268820351
 20
24.141073669
 30
0.0
  0
SPLINE
  5
471
100
AcDbEntity
  8
00_COMPONENTS_2
100
AcDbSpline
 62
7
  6
BYLAYER
 70
0
 71
3
 72
14
 73
10
 74
0
 42
0.0000001
 43
0.0000001
 44
0.0000000001
 40
0.0
 40
0.0
 40
0.0
 40
0.0
 40
0.0915327797
 40
0.1801600605
 40
0.2757663923
 40
0.3893898741
 40
0.5247811891
 40
0.6768157004
 40
1.0
 40
1.0
 40
1.0
 40
1.0
 10
29.1787950085
 20
23.7469342855
 30
0.0
 10
29.1783147369
 20
23.7430177968
 30
0.0
 10
29.176401606
 20
23.7353446166
 30
0.0
 10
29.1693713351
 20
23.7253393734
 30
0.0
 10
29.1578216139
 20
23.7188594653
 30
0.0
 10
29.1428081403
 20
23.7170154515
 30
0.0
 10
29.1255689874
 20
23.7195751646
 30
0.0
 10
29.1006137745
 20
23.7282498483
 30
0.0
 10
29.0828196953
 20
23.7388428097
 30
0.0
 10
29.0714783138
 20
23.7469342855
 30
0.0
  0
SPLINE
  5
472
100
AcDbEntity
  8
00_COMPONENTS_2
100
AcDbSpline
 62
7
  6
BYLAYER
 70
0
 71
3
 72
14
 73
10
 74
0
 42
0.0000001
 43
0.0000001
 44
0.0000000001
 40
0.0
 40
0.0
 40
0.0
 40
0.0
 40
0.0913186174
 40
0.1832881481
 40
0.2843214998
 40
0.4024625009
 40
0.5392440207
 40
0.6891063459
 40
1.0
 40
1.0
 40
1.0
 40
1.0
 10
30.1256196931
 20
23.7469342855
 30
0.0
 10
30.124644956
 20
23.7429447415
 30
0.0
 10
30.1216120602
 20
23.7351186577
 30
0.0
 10
30.1129873764
 20
23.7252772722
 30
0.0
 10
30.1001499583
 20
23.7189157682
 30
0.0
 10
30.0840148873
 20
23.7170074406
 30
0.0
 10
30.065838783
 20
23.7195162985
 30
0.0
 10
30.0402655693
 20
23.7280966435
 30
0.0
 10
30.0222007074
 20
23.7387519377
 30
0.0
 10
30.0108630486
 20
23.7469342855
 30
0.0
  0
SPLINE
  5
473
100
AcDbEntity
  8
00_COMPONENTS_2
100
AcDbSpline
 62
7
  6
BYLAYER
 70
0
 71
3
 72
9
 73
5
 74
0
 42
0.0000001
 43
0.0000001
 44
0.0000000001
 40
0.0
 40
0.0
 40
0.0
 40
0.0
 40
0.5075647723
 40
1.0
 40
1.0
 40
1.0
 40
1.0
 10
33.7090250815
 20
24.141073669
 30
0.0
 10
33.7464608918
 20
24.141073669
 30
0.0
 10
33.8204733578
 20
24.1235712746
 30
0.0
 10
33.8838273187
 20
24.0838329172
 30
0.0
 10
33.9116599449
 20
24.0604987902
 30
0.0
  0
SPLINE
  5
474
100
AcDbEntity
  8
00_COMPONENTS_2
100
AcDbSpline
 62
7
  6
BYLAYER
 70
0
 71
3
 72
14
 73
10
 74
0
 42
0.0000001
 43
0.0000001
 44
0.0000000001
 40
0.0
 40
0.0
 40
0.0
 40
0.0
 40
0.0924492553
 40
0.1882479675
 40
0.2942763847
 40
0.4161613827
 40
0.5537157691
 40
0.7011050866
 40
1.0
 40
1.0
 40
1.0
 40
1.0
 10
31.1314908657
 20
23.7469342855
 30
0.0
 10
31.130014296
 20
23.7428795387
 30
0.0
 10
31.1258791579
 20
23.7349597405
 30
0.0
 10
31.1157920173
 20
23.7252601385
 30
0.0
 10
31.1017461612
 20
23.718965671
 30
0.0
 10
31.0845821177
 20
23.7170019073
 30
0.0
 10
31.0656053303
 20
23.7194634337
 30
0.0
 10
31.0395998215
 20
23.7279547899
 30
0.0
 10
31.021404901
 20
23.7386658614
 30
0.0
 10
31.0101676388
 20
23.7469342855
 30
0.0
  0
SPLINE
  5
475
100
AcDbEntity
  8
00_COMPONENTS_2
100
AcDbSpline
 62
7
  6
BYLAYER
 70
0
 71
3
 72
11
 73
7
 74
0
 42
0.0000001
 43
0.0000001
 44
0.0000000001
 40
0.0
 40
0.0
 40
0.0
 40
0.0
 40
0.2200056739
 40
0.4567807686
 40
0.7166038234
 40
1.0
 40
1.0
 40
1.0
 40
1.0
 10
34.6431500512
 20
24.0604987902
 30
0.0
 10
34.6510522948
 20
24.0719736769
 30
0.0
 10
34.6703345425
 20
24.0939590495
 30
0.0
 10
34.7080471423
 20
24.1200235901
 30
0.0
 10
34.7548644639
 20
24.1372889131
 30
0.0
 10
34.789436367
 20
24.141073669
 30
0.0
 10
34.8073834366
 20
24.141073669
 30
0.0
  0
SPLINE
  5
476
100
AcDbEntity
  8
00_COMPONENTS_2
100
AcDbSpline
 62
7
  6
BYLAYER
 70
0
 71
3
 72
14
 73
10
 74
0
 42
0.0000001
 43
0.0000001
 44
0.0000000001
 40
0.0
 40
0.0
 40
0.0
 40
0.0
 40
0.0946144357
 40
0.1945221327
 40
0.3051523539
 40
0.4301634313
 40
0.5680129428
 40
0.7127234213
 40
1.0
 40
1.0
 40
1.0
 40
1.0
 10
32.1887532394
 20
23.7469342855
 30
0.0
 10
32.1867765423
 20
23.7428266258
 30
0.0
 10
32.1815846027
 20
23.7348584757
 30
0.0
 10
32.1701490093
 20
23.7252694245
 30
0.0
 10
32.1549798012
 20
23.7190110883
 30
0.0
 10
32.1368961397
 20
23.7169979948
 30
0.0
 10
32.1172592977
 20
23.7194152799
 30
0.0
 10
32.0910089661
 20
23.7278224405
 30
0.0
 10
32.0728258645
 20
23.738584919
 30
0.0
 10
32.061786773
 20
23.7469342855
 30
0.0
  0
SPLINE
  5
477
100
AcDbEntity
  8
00_COMPONENTS_2
100
AcDbSpline
 62
7
  6
BYLAYER
 70
0
 71
3
 72
13
 73
9
 74
0
 42
0.0000001
 43
0.0000001
 44
0.0000000001
 40
0.0
 40
0.0
 40
0.0
 40
0.0
 40
0.0976914685
 40
0.2019989213
 40
0.317038877
 40
0.4448450562
 40
0.723571659
 40
1.0
 40
1.0
 40
1.0
 40
1.0
 10
33.2893604091
 20
23.7469342855
 30
0.0
 10
33.2868945263
 20
23.7427873222
 30
0.0
 10
33.2807071618
 20
23.7348017699
 30
0.0
 10
33.2680277201
 20
23.7252945244
 30
0.0
 10
33.2518298323
 20
23.719052377
 30
0.0
 10
33.2259729608
 20
23.7162410455
 30
0.0
 10
33.1922393427
 20
23.7242155597
 30
0.0
 10
33.1684597125
 20
23.7385097791
 30
0.0
 10
33.1577169947
 20
23.7469342855
 30
0.0
  0
SPLINE
  5
478
100
AcDbEntity
  8
00_COMPONENTS_2
100
AcDbSpline
 62
7
  6
BYLAYER
 70
0
 71
3
 72
9
 73
5
 74
0
 42
0.0000001
 43
0.0000001
 44
0.0000000001
 40
0.0
 40
0.0
 40
0.0
 40
0.0
 40
0.5145367667
 40
1.0
 40
1.0
 40
1.0
 40
1.0
 10
34.891471203
 20
24.141073669
 30
0.0
 10
34.92903248
 20
24.141073669
 30
0.0
 10
35.002469951
 20
24.1242855532
 30
0.0
 10
35.0648525338
 20
24.0840054252
 30
0.0
 10
35.0913733559
 20
24.0604987902
 30
0.0
  0
SPLINE
  5
479
100
AcDbEntity
  8
00_COMPONENTS_2
100
AcDbSpline
 62
7
  6
BYLAYER
 70
0
 71
3
 72
11
 73
7
 74
0
 42
0.0000001
 43
0.0000001
 44
0.0000000001
 40
0.0
 40
0.0
 40
0.0
 40
0.0
 40
0.2091007742
 40
0.4571850917
 40
0.7334898872
 40
1.0
 40
1.0
 40
1.0
 40
1.0
 10
34.4249360897
 20
23.7469342855
 30
0.0
 10
34.4188926305
 20
23.738343723
 30
0.0
 10
34.4007495579
 20
23.7225755454
 30
0.0
 10
34.3632193965
 20
23.7148553233
 30
0.0
 10
34.3235801405
 20
23.7239699187
 30
0.0
 10
34.2999659835
 20
23.7384415551
 30
0.0
 10
34.2896176132
 20
23.7469342855
 30
0.0
  0
SPLINE
  5
47A
100
AcDbEntity
  8
00_COMPONENTS_2
100
AcDbSpline
 62
7
  6
BYLAYER
 70
0
 71
3
 72
11
 73
7
 74
0
 42
0.0000001
 43
0.0000001
 44
0.0000000001
 40
0.0
 40
0.0
 40
0.0
 40
0.0
 40
0.2177029302
 40
0.4715230048
 40
0.7440147771
 40
1.0
 40
1.0
 40
1.0
 40
1.0
 10
35.5868378645
 20
23.7469342855
 30
0.0
 10
35.5798678523
 20
23.7382975772
 30
0.0
 10
35.5603034478
 20
23.722793216
 30
0.0
 10
35.5218484861
 20
23.714843947
 30
0.0
 10
35.481930888
 20
23.7237207377
 30
0.0
 10
35.4587311388
 20
23.7383819569
 30
0.0
 10
35.4488741812
 20
23.7469342855
 30
0.0
  0
SPLINE
  5
47B
100
AcDbEntity
  8
00_COMPONENTS_2
100
AcDbSpline
 62
7
  6
BYLAYER
 70
0
 71
3
 72
11
 73
7
 74
0
 42
0.0000001
 43
0.0000001
 44
0.0000000001
 40
0.0
 40
0.0
 40
0.0
 40
0.0
 40
0.2221525819
 40
0.4613283113
 40
0.7212940313
 40
1.0
 40
1.0
 40
1.0
 40
1.0
 10
35.8371626373
 20
24.0604987902
 30
0.0
 10
35.8462608819
 20
24.072015656
 30
0.0
 10
35.8678181316
 20
24.0939538603
 30
0.0
 10
35.908265528
 20
24.1199044888
 30
0.0
 10
35.9571451552
 20
24.1371763733
 30
0.0
 10
35.9928868708
 20
24.1410736691
 30
0.0
 10
36.0113002771
 20
24.1410736691
 30
0.0
  0
SPLINE
  5
47C
100
AcDbEntity
  8
00_COMPONENTS_2
100
AcDbSpline
 62
7
  6
BYLAYER
 70
0
 71
3
 72
11
 73
7
 74
0
 42
0.0000001
 43
0.0000001
 44
0.0000000001
 40
0.0
 40
0.0
 40
0.0
 40
0.0
 40
0.226719593
 40
0.4857833039
 40
0.7541387206
 40
1.0
 40
1.0
 40
1.0
 40
1.0
 10
36.7662229596
 20
23.7469342855
 30
0.0
 10
36.7584011533
 20
23.7382856904
 30
0.0
 10
36.7376267194
 20
23.7230175086
 30
0.0
 10
36.6984490028
 20
23.7148366699
 30
0.0
 10
36.6585234328
 20
23.7234803365
 30
0.0
 10
36.6359342008
 20
23.7383334916
 30
0.0
 10
36.6266640564
 20
23.7469342855
 30
0.0
  0
SPLINE
  5
47D
100
AcDbEntity
  8
00_COMPONENTS_2
100
AcDbSpline
 62
7
  6
BYLAYER
 70
0
 71
3
 72
9
 73
5
 74
0
 42
0.0000001
 43
0.0000001
 44
0.0000000001
 40
0.0
 40
0.0
 40
0.0
 40
0.0
 40
0.5211477129
 40
1.0
 40
1.0
 40
1.0
 40
1.0
 10
36.0966928049
 20
24.1410736691
 30
0.0
 10
36.1341061358
 20
24.1410736691
 30
0.0
 10
36.2065169232
 20
24.1249755532
 30
0.0
 10
36.2673901501
 20
24.0841469383
 30
0.0
 10
36.2923408712
 20
24.0604987902
 30
0.0
  0
SPLINE
  5
47E
100
AcDbEntity
  8
00_COMPONENTS_2
100
AcDbSpline
 62
7
  6
BYLAYER
 70
0
 71
3
 72
9
 73
5
 74
0
 42
0.0000001
 43
0.0000001
 44
0.0000000001
 40
0.0
 40
0.0
 40
0.0
 40
0.0
 40
0.5277513629
 40
1.0
 40
1.0
 40
1.0
 40
1.0
 10
37.8840695444
 20
23.7177099884
 30
0.0
 10
37.8704561326
 20
23.7177099884
 30
0.0
 10
37.8443596754
 20
23.7232559666
 30
0.0
 10
37.8226152641
 20
23.7382985169
 30
0.0
 10
37.8140235466
 20
23.7469342855
 30
0.0
  0
SPLINE
  5
47F
100
AcDbEntity
  8
00_COMPONENTS_2
100
AcDbSpline
 62
7
  6
BYLAYER
 70
0
 71
3
 72
9
 73
5
 74
0
 42
0.0000001
 43
0.0000001
 44
0.0000000001
 40
0.0
 40
0.0
 40
0.0
 40
0.0
 40
0.4722490341
 40
1.0
 40
1.0
 40
1.0
 40
1.0
 10
37.9541155421
 20
23.7469342855
 30
0.0
 10
37.9455238172
 20
23.7382985095
 30
0.0
 10
37.9237794044
 20
23.7232559574
 30
0.0
 10
37.8976829461
 20
23.7177099884
 30
0.0
 10
37.8840695444
 20
23.7177099884
 30
0.0
  0
SPLINE
  5
480
100
AcDbEntity
  8
00_COMPONENTS_2
100
AcDbSpline
 62
7
  6
BYLAYER
 70
0
 71
3
 72
11
 73
7
 74
0
 42
0.0000001
 43
0.0000001
 44
0.0000000001
 40
0.0
 40
0.0
 40
0.0
 40
0.0
 40
0.2458566362
 40
0.5142160971
 40
0.7732760962
 40
1.0
 40
1.0
 40
1.0
 40
1.0
 10
39.1414750323
 20
23.7469342855
 30
0.0
 10
39.1322050629
 20
23.738333654
 30
0.0
 10
39.1096158959
 20
23.7234805119
 30
0.0
 10
39.0696905703
 20
23.7148366731
 30
0.0
 10
39.0305125952
 20
23.7230173328
 30
0.0
 10
39.0097380842
 20
23.7382855258
 30
0.0
 10
39.0019161291
 20
23.7469342855
 30
0.0
  0
SPLINE
  5
481
100
AcDbEntity
  8
00_COMPONENTS_2
100
AcDbSpline
 62
7
  6
BYLAYER
 70
0
 71
3
 72
9
 73
5
 74
0
 42
0.0000001
 43
0.0000001
 44
0.0000000001
 40
0.0
 40
0.0
 40
0.0
 40
0.0
 40
0.4667755204
 40
1.0
 40
1.0
 40
1.0
 40
1.0
 10
37.046753421
 20
24.0604987902
 30
0.0
 10
37.06781971
 20
24.0842939454
 30
0.0
 10
37.1240492716
 20
24.1263053134
 30
0.0
 10
37.1931653728
 20
24.1410736691
 30
0.0
 10
37.2294700226
 20
24.1410736691
 30
0.0
  0
SPLINE
  5
482
100
AcDbEntity
  8
00_COMPONENTS_2
100
AcDbSpline
 62
7
  6
BYLAYER
 70
0
 71
3
 72
11
 73
7
 74
0
 42
0.0000001
 43
0.0000001
 44
0.0000000001
 40
0.0
 40
0.0
 40
0.0
 40
0.0
 40
0.255980412
 40
0.5284763942
 40
0.782292926
 40
1.0
 40
1.0
 40
1.0
 40
1.0
 10
40.3192649075
 20
23.7469342855
 30
0.0
 10
40.3094081349
 20
23.7383821175
 30
0.0
 10
40.2862084453
 20
23.7237209131
 30
0.0
 10
40.2462910825
 20
23.7148439535
 30
0.0
 10
40.2078358575
 20
23.7227930394
 30
0.0
 10
40.1882713693
 20
23.7382974126
 30
0.0
 10
40.1813012242
 20
23.7469342855
 30
0.0
  0
SPLINE
  5
483
100
AcDbEntity
  8
00_COMPONENTS_2
100
AcDbSpline
 62
7
  6
BYLAYER
 70
0
 71
3
 72
9
 73
5
 74
0
 42
0.0000001
 43
0.0000001
 44
0.0000000001
 40
0.0
 40
0.0
 40
0.0
 40
0.0
 40
0.527391241
 40
1.0
 40
1.0
 40
1.0
 40
1.0
 10
37.3155174231
 20
24.1410736691
 30
0.0
 10
37.3525106699
 20
24.1410736691
 30
0.0
 10
37.4234694156
 20
24.125647408
 30
0.0
 10
37.4822932933
 20
24.0842476033
 30
0.0
 10
37.5054224028
 20
24.0604987902
 30
0.0
  0
SPLINE
  5
484
100
AcDbEntity
  8
00_COMPONENTS_2
100
AcDbSpline
 62
7
  6
BYLAYER
 70
0
 71
3
 72
11
 73
7
 74
0
 42
0.0000001
 43
0.0000001
 44
0.0000000001
 40
0.0
 40
0.0
 40
0.0
 40
0.0
 40
0.2665051319
 40
0.5428143035
 40
0.7908952507
 40
1.0
 40
1.0
 40
1.0
 40
1.0
 10
41.4785214755
 20
23.7469342855
 30
0.0
 10
41.4681732982
 20
23.7384417134
 30
0.0
 10
41.4445591956
 20
23.7239700939
 30
0.0
 10
41.4049201648
 20
23.7148553335
 30
0.0
 10
41.3673897365
 20
23.7225753674
 30
0.0
 10
41.3492465734
 20
23.7383435594
 30
0.0
 10
41.343202999
 20
23.7469342855
 30
0.0
  0
SPLINE
  5
485
100
AcDbEntity
  8
00_COMPONENTS_2
100
AcDbSpline
 62
7
  6
BYLAYER
 70
0
 71
3
 72
13
 73
9
 74
0
 42
0.0000001
 43
0.0000001
 44
0.0000000001
 40
0.0
 40
0.0
 40
0.0
 40
0.0
 40
0.2764232685
 40
0.5551544612
 40
0.6829546512
 40
0.7979971946
 40
0.9023059525
 40
1.0
 40
1.0
 40
1.0
 40
1.0
 10
42.610422094
 20
23.7469342855
 30
0.0
 10
42.5996795751
 20
23.7385099351
 30
0.0
 10
42.5759000045
 20
23.7242157831
 30
0.0
 10
42.5421666954
 20
23.7162409917
 30
0.0
 10
42.5163098394
 20
23.7190524331
 30
0.0
 10
42.5001118695
 20
23.725294096
 30
0.0
 10
42.4874321646
 20
23.7348015563
 30
0.0
 10
42.4812446272
 20
23.7427872134
 30
0.0
 10
42.4787786796
 20
23.7469342855
 30
0.0
  0
SPLINE
  5
486
100
AcDbEntity
  8
00_COMPONENTS_2
100
AcDbSpline
 62
7
  6
BYLAYER
 70
0
 71
3
 72
9
 73
5
 74
0
 42
0.0000001
 43
0.0000001
 44
0.0000000001
 40
0.0
 40
0.0
 40
0.0
 40
0.0
 40
0.4726088869
 40
1.0
 40
1.0
 40
1.0
 40
1.0
 10
38.262716686
 20
24.0604987902
 30
0.0
 10
38.2858458017
 20
24.0842476098
 30
0.0
 10
38.3446696814
 20
24.1256474149
 30
0.0
 10
38.4156284277
 20
24.1410736691
 30
0.0
 10
38.4526216657
 20
24.1410736691
 30
0.0
  0
SPLINE
  5
487
100
AcDbEntity
  8
00_COMPONENTS_2
100
AcDbSpline
 62
7
  6
BYLAYER
 70
0
 71
3
 72
14
 73
10
 74
0
 42
0.0000001
 43
0.0000001
 44
0.0000000001
 40
0.0
 40
0.0
 40
0.0
 40
0.0
 40
0.2872713047
 40
0.4319799116
 40
0.569836167
 40
0.6948413962
 40
0.8054741806
 40
0.9053831054
 40
1.0
 40
1.0
 40
1.0
 40
1.0
 10
43.7063523157
 20
23.7469342855
 30
0.0
 10
43.6953134271
 20
23.7385850724
 30
0.0
 10
43.6771306101
 20
23.7278228603
 30
0.0
 10
43.6508804451
 20
23.7194152949
 30
0.0
 10
43.6312436058
 20
23.7169979748
 30
0.0
 10
43.6131598495
 20
23.7190111459
 30
0.0
 10
43.5979905305
 20
23.7252689932
 30
0.0
 10
43.5865546945
 20
23.7348582612
 30
0.0
 10
43.5813625978
 20
23.7428265191
 30
0.0
 10
43.5793858493
 20
23.7469342855
 30
0.0
  0
SPLINE
  5
488
100
AcDbEntity
  8
00_COMPONENTS_2
100
AcDbSpline
 62
7
  6
BYLAYER
 70
0
 71
3
 72
9
 73
5
 74
0
 42
0.0000001
 43
0.0000001
 44
0.0000000001
 40
0.0
 40
0.0
 40
0.0
 40
0.0
 40
0.5332246062
 40
1.0
 40
1.0
 40
1.0
 40
1.0
 10
38.5386690662
 20
24.1410736691
 30
0.0
 10
38.5749737244
 20
24.1410736691
 30
0.0
 10
38.6440898251
 20
24.1263053064
 30
0.0
 10
38.7003193845
 20
24.0842939388
 30
0.0
 10
38.7213856677
 20
24.0604987902
 30
0.0
  0
SPLINE
  5
489
100
AcDbEntity
  8
00_COMPONENTS_2
100
AcDbSpline
 62
7
  6
BYLAYER
 70
0
 71
3
 72
14
 73
10
 74
0
 42
0.0000001
 43
0.0000001
 44
0.0000000001
 40
0.0
 40
0.0
 40
0.0
 40
0.0
 40
0.2988894748
 40
0.4462770775
 40
0.5838382283
 40
0.7057175548
 40
0.8117485047
 40
0.9075483754
 40
1.0
 40
1.0
 40
1.0
 40
1.0
 10
44.75797145
 20
23.7469342855
 30
0.0
 10
44.7467343925
 20
23.738666012
 30
0.0
 10
44.7285397439
 20
23.7279552022
 30
0.0
 10
44.7025344006
 20
23.7194634564
 30
0.0
 10
44.6835575966
 20
23.7170018835
 30
0.0
 10
44.6663934644
 20
23.7189657348
 30
0.0
 10
44.6523474676
 20
23.7252597031
 30
0.0
 10
44.6422601075
 20
23.7349595262
 30
0.0
 10
44.6381248305
 20
23.7428794349
 30
0.0
 10
44.636648223
 20
23.7469342855
 30
0.0
  0
SPLINE
  5
48A
100
AcDbEntity
  8
00_COMPONENTS_2
100
AcDbSpline
 62
7
  6
BYLAYER
 70
0
 71
3
 72
14
 73
10
 74
0
 42
0.0000001
 43
0.0000001
 44
0.0000000001
 40
0.0
 40
0.0
 40
0.0
 40
0.0
 40
0.3108880514
 40
0.4607488407
 40
0.5975371273
 40
0.7156726649
 40
0.8167084781
 40
0.9086790868
 40
1.0
 40
1.0
 40
1.0
 40
1.0
 10
45.7572760401
 20
23.7469342855
 30
0.0
 10
45.7459385861
 20
23.7387520855
 30
0.0
 10
45.7278739803
 20
23.7280970476
 30
0.0
 10
45.7023009321
 20
23.7195163294
 30
0.0
 10
45.6841247902
 20
23.7170074128
 30
0.0
 10
45.6679896417
 20
23.7189158376
 30
0.0
 10
45.6551520475
 20
23.7252768326
 30
0.0
 10
45.6465271714
 20
23.7351184449
 30
0.0
 10
45.6434941572
 20
23.7429446413
 30
0.0
 10
45.6425193956
 20
23.7469342855
 30
0.0
  0
SPLINE
  5
48B
100
AcDbEntity
  8
00_COMPONENTS_2
100
AcDbSpline
 62
7
  6
BYLAYER
 70
0
 71
3
 72
9
 73
5
 74
0
 42
0.0000001
 43
0.0000001
 44
0.0000000001
 40
0.0
 40
0.0
 40
0.0
 40
0.0
 40
0.4788524161
 40
1.0
 40
1.0
 40
1.0
 40
1.0
 10
39.4757982175
 20
24.0604987902
 30
0.0
 10
39.5007489455
 20
24.0841469447
 30
0.0
 10
39.561622174
 20
24.1249755602
 30
0.0
 10
39.6340329621
 20
24.1410736691
 30
0.0
 10
39.6714462838
 20
24.1410736691
 30
0.0
  0
SPLINE
  5
48C
100
AcDbEntity
  8
00_COMPONENTS_2
100
AcDbSpline
 62
7
  6
BYLAYER
 70
0
 71
3
 72
14
 73
10
 74
0
 42
0.0000001
 43
0.0000001
 44
0.0000000001
 40
0.0
 40
0.0
 40
0.0
 40
0.0
 40
0.3231785367
 40
0.4752117209
 40
0.6106097773
 40
0.7242280398
 40
0.8198367079
 40
0.9084649725
 40
1.0
 40
1.0
 40
1.0
 40
1.0
 10
46.6966607749
 20
23.7469342855
 30
0.0
 10
46.6853195963
 20
23.7388429544
 30
0.0
 10
46.6675257545
 20
23.7282502432
 30
0.0
 10
46.642570708
 20
23.7195752042
 30
0.0
 10
46.6253314952
 20
23.71701542
 30
0.0
 10
46.6103179614
 20
23.7188595391
 30
0.0
 10
46.5987680208
 20
23.72533893
 30
0.0
 10
46.5917375904
 20
23.7353444079
 30
0.0
 10
46.5898243636
 20
23.7430177009
 30
0.0
 10
46.5893440802
 20
23.7469342855
 30
0.0
  0
SPLINE
  5
48D
100
AcDbEntity
  8
00_COMPONENTS_2
100
AcDbSpline
 62
7
  6
BYLAYER
 70
0
 71
3
 72
11
 73
7
 74
0
 42
0.0000001
 43
0.0000001
 44
0.0000000001
 40
0.0
 40
0.0
 40
0.0
 40
0.0
 40
0.2787063417
 40
0.5386718132
 40
0.7778474438
 40
1.0
 40
1.0
 40
1.0
 40
1.0
 10
39.7568388116
 20
24.1410736691
 30
0.0
 10
39.7752522425
 20
24.1410736691
 30
0.0
 10
39.8109939663
 20
24.1371763623
 30
0.0
 10
39.8598735902
 20
24.1199044692
 30
0.0
 10
39.900320966
 20
24.0939538548
 30
0.0
 10
39.9218782079
 20
24.0720156546
 30
0.0
 10
39.9309764514
 20
24.0604987902
 30
0.0
  0
SPLINE
  5
48E
100
AcDbEntity
  8
00_COMPONENTS_2
100
AcDbSpline
 62
7
  6
BYLAYER
 70
0
 71
3
 72
15
 73
11
 74
0
 42
0.0000001
 43
0.0000001
 44
0.0000000001
 40
0.0
 40
0.0
 40
0.0
 40
0.0
 40
0.1702789934
 40
0.3358834672
 40
0.4895830332
 40
0.6227309879
 40
0.7308205203
 40
0.8205337703
 40
0.9065936986
 40
1.0
 40
1.0
 40
1.0
 40
1.0
 10
47.5689763692
 20
23.7469342855
 30
0.0
 10
47.5632656551
 20
23.7428754969
 30
0.0
 10
47.5516709721
 20
23.7353166696
 30
0.0
 10
47.5337578477
 20
23.726016291
 30
0.0
 10
47.5161846687
 20
23.7196431555
 30
0.0
 10
47.5000176798
 20
23.7170265546
 30
0.0
 10
47.4861930509
 20
23.718795593
 30
0.0
 10
47.4760184364
 20
23.7254749487
 30
0.0
 10
47.4707343534
 20
23.7356340256
 30
0.0
 10
47.4699163692
 20
23.7430910764
 30
0.0
 10
47.4699163692
 20
23.7469342855
 30
0.0
  0
SPLINE
  5
48F
100
AcDbEntity
  8
00_COMPONENTS_2
100
AcDbSpline
 62
7
  6
BYLAYER
 70
0
 71
3
 72
9
 73
5
 74
0
 42
0.0000001
 43
0.0000001
 44
0.0000000001
 40
0.0
 40
0.0
 40
0.0
 40
0.0
 40
0.4854633634
 40
1.0
 40
1.0
 40
1.0
 40
1.0
 10
40.6767657328
 20
24.0604987902
 30
0.0
 10
40.7032865622
 20
24.0840054316
 30
0.0
 10
40.7656691464
 20
24.1242855603
 30
0.0
 10
40.8391066181
 20
24.1410736691
 30
0.0
 10
40.8766678857
 20
24.1410736691
 30
0.0
  0
SPLINE
  5
490
100
AcDbEntity
  8
00_COMPONENTS_2
100
AcDbSpline
 62
7
  6
BYLAYER
 70
0
 71
3
 72
15
 73
11
 74
0
 42
0.0000001
 43
0.0000001
 44
0.0000000001
 40
0.0
 40
0.0
 40
0.0
 40
0.0
 40
0.1756028664
 40
0.3448230478
 40
0.5006927322
 40
0.6349837817
 40
0.7426134105
 40
0.8290421945
 40
0.9102414304
 40
1.0
 40
1.0
 40
1.0
 40
1.0
 10
48.3675839747
 20
23.7469342855
 30
0.0
 10
48.3622728221
 20
23.7431450591
 30
0.0
 10
48.3515830465
 20
23.7360573294
 30
0.0
 10
48.3352358233
 20
23.7271231387
 30
0.0
 10
48.3193777606
 20
23.7206646057
 30
0.0
 10
48.3048761534
 20
23.7173948103
 30
0.0
 10
48.2924476741
 20
23.7178004065
 30
0.0
 10
48.2829267276
 20
23.7226904347
 30
0.0
 10
48.277876707
 20
23.7312935931
 30
0.0
 10
48.2771574001
 20
23.7377297843
 30
0.0
 10
48.2771575056
 20
23.7410646526
 30
0.0
  0
SPLINE
  5
491
100
AcDbEntity
  8
00_COMPONENTS_2
100
AcDbSpline
 62
7
  6
BYLAYER
 70
0
 71
3
 72
11
 73
7
 74
0
 42
0.0000001
 43
0.0000001
 44
0.0000000001
 40
0.0
 40
0.0
 40
0.0
 40
0.0
 40
0.2833965508
 40
0.5432193544
 40
0.7799943513
 40
1.0
 40
1.0
 40
1.0
 40
1.0
 10
40.9607556521
 20
24.1410736691
 30
0.0
 10
40.9787027453
 20
24.1410736691
 30
0.0
 10
41.0132746564
 20
24.1372889023
 30
0.0
 10
41.060091974
 20
24.1200235702
 30
0.0
 10
41.0978045544
 20
24.0939590439
 30
0.0
 10
41.1170867949
 20
24.0719736756
 30
0.0
 10
41.1249890375
 20
24.0604987902
 30
0.0
  0
SPLINE
  5
492
100
AcDbEntity
  8
00_COMPONENTS_2
100
AcDbSpline
 62
7
  6
BYLAYER
 70
0
 71
3
 72
14
 73
10
 74
0
 42
0.0000001
 43
0.0000001
 44
0.0000000001
 40
0.0
 40
0.0
 40
0.0
 40
0.0
 40
0.1818722216
 40
0.3556881168
 40
0.5147283459
 40
0.65116119
 40
0.8390174084
 40
0.9148175006
 40
1.0
 40
1.0
 40
1.0
 40
1.0
 10
49.0864057052
 20
23.7469342855
 30
0.0
 10
49.0815127552
 20
23.743403061
 30
0.0
 10
49.0717308451
 20
23.7367710017
 30
0.0
 10
49.0569657312
 20
23.7282214025
 30
0.0
 10
49.0426290237
 20
23.7217728211
 30
0.0
 10
49.0276228641
 20
23.717225324
 30
0.0
 10
49.0122033679
 20
23.717436592
 30
0.0
 10
49.0051445267
 20
23.7275002738
 30
0.0
 10
49.0045473146
 20
23.7329473667
 30
0.0
 10
49.0045471845
 20
23.7357735308
 30
0.0
  0
SPLINE
  5
493
100
AcDbEntity
  8
00_COMPONENTS_2
100
AcDbSpline
 62
7
  6
BYLAYER
 70
0
 71
3
 72
9
 73
5
 74
0
 42
0.0000001
 43
0.0000001
 44
0.0000000001
 40
0.0
 40
0.0
 40
0.0
 40
0.0
 40
0.492435359
 40
1.0
 40
1.0
 40
1.0
 40
1.0
 10
41.8564791438
 20
24.0604987902
 30
0.0
 10
41.8843117775
 20
24.0838329235
 30
0.0
 10
41.9476657397
 20
24.1235712818
 30
0.0
 10
42.0216782065
 20
24.1410736691
 30
0.0
 10
42.0591140072
 20
24.1410736691
 30
0.0
  0
SPLINE
  5
494
100
AcDbEntity
  8
00_COMPONENTS_2
100
AcDbSpline
 62
7
  6
BYLAYER
 70
0
 71
3
 72
14
 73
10
 74
0
 42
0.0000001
 43
0.0000001
 44
0.0000000001
 40
0.0
 40
0.0
 40
0.0
 40
0.0
 40
0.3640578005
 40
0.525387129
 40
0.6633732093
 40
0.7719295178
 40
0.8526856341
 40
0.921637643
 40
1.0
 40
1.0
 40
1.0
 40
1.0
 10
49.7199708934
 20
23.7469342855
 30
0.0
 10
49.7112777692
 20
23.7405378487
 30
0.0
 10
49.6982971206
 20
23.7318210866
 30
0.0
 10
49.6807299999
 20
23.7229300193
 30
0.0
 10
49.6693093317
 20
23.7187917896
 30
0.0
 10
49.6596788361
 20
23.7172264567
 30
0.0
 10
49.6517801599
 20
23.7187690247
 30
0.0
 10
49.6470767257
 20
23.7242651358
 30
0.0
 10
49.6465493714
 20
23.728778779
 30
0.0
 10
49.6465495137
 20
23.7311018998
 30
0.0
  0
SPLINE
  5
495
100
AcDbEntity
  8
00_COMPONENTS_2
100
AcDbSpline
 62
7
  6
BYLAYER
 70
0
 71
3
 72
11
 73
7
 74
0
 42
0.0000001
 43
0.0000001
 44
0.0000000001
 40
0.0
 40
0.0
 40
0.0
 40
0.0
 40
0.2876550564
 40
0.5468250641
 40
0.7812007933
 40
1.0
 40
1.0
 40
1.0
 40
1.0
 10
42.1412570536
 20
24.1410736691
 30
0.0
 10
42.1586032458
 20
24.1410736691
 30
0.0
 10
42.1917688825
 20
24.1374046947
 30
0.0
 10
42.2362041688
 20
24.1201268408
 30
0.0
 10
42.2708965705
 20
24.0939010828
 30
0.0
 10
42.2876988674
 20
24.0719017572
 30
0.0
 10
42.2943362694
 20
24.0604987902
 30
0.0
  0
SPLINE
  5
496
100
AcDbEntity
  8
00_COMPONENTS_2
100
AcDbSpline
 62
7
  6
BYLAYER
 70
0
 71
3
 72
15
 73
11
 74
0
 42
0.0000001
 43
0.0000001
 44
0.0000000001
 40
0.0
 40
0.0
 40
0.0
 40
0.0
 40
0.3738980967
 40
0.5382545639
 40
0.6786041062
 40
0.7885337811
 40
0.8674476356
 40
0.8993267228
 40
0.9301103952
 40
1.0
 40
1.0
 40
1.0
 40
1.0
 10
50.2634577256
 20
23.7469342855
 30
0.0
 10
50.2556346818
 20
23.741017362
 30
0.0
 10
50.2440528764
 20
23.7328741161
 30
0.0
 10
50.2285258088
 20
23.7241439821
 30
0.0
 10
50.218526506
 20
23.7197616803
 30
0.0
 10
50.2101699606
 20
23.7175285539
 30
0.0
 10
50.2041355499
 20
23.7177506791
 30
0.0
 10
50.2008577309
 20
23.7196680636
 30
0.0
 10
50.198684442
 20
23.7224796318
 30
0.0
 10
50.1982777291
 20
23.7252520231
 30
0.0
 10
50.1982778173
 20
23.7270854746
 30
0.0
  0
SPLINE
  5
497
100
AcDbEntity
  8
00_COMPONENTS_2
100
AcDbSpline
 62
7
  6
BYLAYER
 70
0
 71
3
 72
9
 73
5
 74
0
 42
0.0000001
 43
0.0000001
 44
0.0000000001
 40
0.0
 40
0.0
 40
0.0
 40
0.0
 40
0.4997903927
 40
1.0
 40
1.0
 40
1.0
 40
1.0
 10
43.0059601191
 20
24.0604987902
 30
0.0
 10
43.0348420524
 20
24.083636403
 30
0.0
 10
43.0986311507
 20
24.1228250661
 30
0.0
 10
43.1727475173
 20
24.1410736691
 30
0.0
 10
43.2097855195
 20
24.1410736691
 30
0.0
  0
SPLINE
  5
498
100
AcDbEntity
  8
00_COMPONENTS_2
100
AcDbSpline
 62
7
  6
BYLAYER
 70
0
 71
3
 72
16
 73
12
 74
0
 42
0.0000001
 43
0.0000001
 44
0.0000000001
 40
0.0
 40
0.0
 40
0.0
 40
0.0
 40
0.198306946
 40
0.3841854026
 40
0.5519628248
 40
0.6951897717
 40
0.8073683889
 40
0.8508260323
 40
0.886257669
 40
0.940739379
 40
1.0
 40
1.0
 40
1.0
 40
1.0
 10
50.7127299389
 20
23.7469342855
 30
0.0
 10
50.7091351365
 20
23.744115219
 30
0.0
 10
50.7020869877
 20
23.7387585117
 30
0.0
 10
50.6916663443
 20
23.7314671269
 30
0.0
 10
50.6819499344
 20
23.7253955193
 30
0.0
 10
50.6733024509
 20
23.7208856124
 30
0.0
 10
50.6668253698
 20
23.7184170398
 30
0.0
 10
50.6624609755
 20
23.7177004144
 30
0.0
 10
50.6593826104
 20
23.717724497
 30
0.0
 10
50.6559811299
 20
23.7195032721
 30
0.0
 10
50.6555360779
 20
23.7223918613
 30
0.0
 10
50.6555351407
 20
23.7237570312
 30
0.0
  0
SPLINE
  5
499
100
AcDbEntity
  8
00_COMPONENTS_2
100
AcDbSpline
 62
7
  6
BYLAYER
 70
0
 71
3
 72
11
 73
7
 74
0
 42
0.0000001
 43
0.0000001
 44
0.0000000001
 40
0.0
 40
0.0
 40
0.0
 40
0.0
 40
0.2912641486
 40
0.5490876818
 40
0.7811124008
 40
1.0
 40
1.0
 40
1.0
 40
1.0
 10
43.2893586876
 20
24.1410736691
 30
0.0
 10
43.3059742079
 20
24.1410736691
 30
0.0
 10
43.3375127352
 20
24.1375257885
 30
0.0
 10
43.3792727051
 20
24.1202055119
 30
0.0
 10
43.4106668683
 20
24.0937549379
 30
0.0
 10
43.4247974666
 20
24.0717949109
 30
0.0
 10
43.4301187085
 20
24.0604987902
 30
0.0
  0
SPLINE
  5
49A
100
AcDbEntity
  8
00_COMPONENTS_2
100
AcDbSpline
 62
7
  6
BYLAYER
 70
0
 71
3
 72
13
 73
9
 74
0
 42
0.0000001
 43
0.0000001
 44
0.0000000001
 40
0.0
 40
0.0
 40
0.0
 40
0.0
 40
0.4033551196
 40
0.5783742937
 40
0.7294239476
 40
0.8514054973
 40
0.9390591002
 40
1.0
 40
1.0
 40
1.0
 40
1.0
 10
51.464802167
 20
23.7469342855
 30
0.0
 10
51.4602749498
 20
23.7427339559
 30
0.0
 10
51.4537761722
 20
23.7367698487
 30
0.0
 10
51.4453283255
 20
23.7293374728
 30
0.0
 10
51.4402738179
 20
23.7249874359
 30
0.0
 10
51.4355213264
 20
23.7212514607
 30
0.0
 10
51.4332545516
 20
23.7194343519
 30
0.0
 10
51.4294176553
 20
23.7171885961
 30
0.0
 10
51.4294184041
 20
23.7181216415
 30
0.0
  0
SPLINE
  5
49B
100
AcDbEntity
  8
00_COMPONENTS_2
100
AcDbSpline
 62
7
  6
BYLAYER
 70
0
 71
3
 72
13
 73
9
 74
0
 42
0.0000001
 43
0.0000001
 44
0.0000000001
 40
0.0
 40
0.0
 40
0.0
 40
0.0
 40
0.341411691
 40
0.6383167828
 40
0.7625571992
 40
0.8659968688
 40
0.9455762534
 40
1.0
 40
1.0
 40
1.0
 40
1.0
 10
51.4423259686
 20
24.0604987902
 30
0.0
 10
51.4550845023
 20
24.0711952024
 30
0.0
 10
51.4792402091
 20
24.0908321307
 30
0.0
 10
51.5090946499
 20
24.1130575303
 30
0.0
 10
51.5305007797
 20
24.1270639026
 30
0.0
 10
51.5435213802
 20
24.1345449381
 30
0.0
 10
51.5540348864
 20
24.139336169
 30
0.0
 10
51.5604811242
 20
24.1410736691
 30
0.0
 10
51.5631351277
 20
24.1410736691
 30
0.0
  0
SPLINE
  5
49C
100
AcDbEntity
  8
00_COMPONENTS_2
100
AcDbSpline
 62
7
  6
BYLAYER
 70
0
 71
3
 72
9
 73
5
 74
0
 42
0.0000001
 43
0.0000001
 44
0.0000000001
 40
0.0
 40
0.0
 40
0.0
 40
0.0
 40
0.5075746382
 40
1.0
 40
1.0
 40
1.0
 40
1.0
 10
44.1164604145
 20
24.0604987902
 30
0.0
 10
44.1461270203
 20
24.0834206602
 30
0.0
 10
44.2098182872
 20
24.1220377027
 30
0.0
 10
44.2835538062
 20
24.1410736691
 30
0.0
 10
44.3199251174
 20
24.1410736691
 30
0.0
  0
SPLINE
  5
49D
100
AcDbEntity
  8
00_COMPONENTS_2
100
AcDbSpline
 62
7
  6
BYLAYER
 70
0
 71
3
 72
9
 73
5
 74
0
 42
0.0000001
 43
0.0000001
 44
0.0000000001
 40
0.0
 40
0.0
 40
0.0
 40
0.0
 40
0.3901173518
 40
1.0
 40
1.0
 40
1.0
 40
1.0
 10
51.0182872554
 20
23.7177406575
 30
0.0
 10
51.0205501372
 20
23.717765529
 30
0.0
 10
51.0261505167
 20
23.7199371877
 30
0.0
 10
51.0311518069
 20
23.7227527187
 30
0.0
 10
51.0341601271
 20
23.7246145388
 30
0.0
  0
LINE
  5
49E
100
AcDbEntity
  8
00_COMPONENTS_2
100
AcDbLine
 62
7
  6
BYLAYER
 10
51.0341601271
 20
23.7246145388
 11
51.0401614207
 21
23.7285289724
  0
SPLINE
  5
49F
100
AcDbEntity
  8
00_COMPONENTS_2
100
AcDbSpline
 62
7
  6
BYLAYER
 70
0
 71
3
 72
9
 73
5
 74
0
 42
0.0000001
 43
0.0000001
 44
0.0000000001
 40
0.0
 40
0.0
 40
0.0
 40
0.0
 40
0.2290081102
 40
1.0
 40
1.0
 40
1.0
 40
1.0
 10
51.0401614207
 20
23.7285289724
 30
0.0
 10
51.042079715
 20
23.7298369529
 30
0.0
 10
51.0503578328
 20
23.7356927427
 30
0.0
 10
51.0583259674
 20
23.7419754463
 30
0.0
 10
51.0643683004
 20
23.7469342855
 30
0.0
  0
SPLINE
  5
4A0
100
AcDbEntity
  8
00_COMPONENTS_2
100
AcDbSpline
 62
7
  6
BYLAYER
 70
0
 71
3
 72
11
 73
7
 74
0
 42
0.0000001
 43
0.0000001
 44
0.0000000001
 40
0.0
 40
0.0
 40
0.0
 40
0.0
 40
0.2938822474
 40
0.5494131926
 40
0.7792362652
 40
1.0
 40
1.0
 40
1.0
 40
1.0
 10
44.3963228074
 20
24.1410736691
 30
0.0
 10
44.412083757
 20
24.1410736691
 30
0.0
 10
44.4417938382
 20
24.1376549915
 30
0.0
 10
44.4806145762
 20
24.1202439861
 30
0.0
 10
44.5084271385
 20
24.0934887197
 30
0.0
 10
44.5197168919
 20
24.0716509904
 30
0.0
 10
44.5236923647
 20
24.0604987902
 30
0.0
  0
SPLINE
  5
4A1
100
AcDbEntity
  8
00_COMPONENTS_2
100
AcDbSpline
 62
7
  6
BYLAYER
 70
0
 71
3
 72
10
 73
6
 74
0
 42
0.0000001
 43
0.0000001
 44
0.0000000001
 40
0.0
 40
0.0
 40
0.0
 40
0.0
 40
0.5146623063
 40
0.7670876408
 40
1.0
 40
1.0
 40
1.0
 40
1.0
 10
45.1795284521
 20
24.0604987902
 30
0.0
 10
45.2097148444
 20
24.0831888392
 30
0.0
 10
45.2586001861
 20
24.112626437
 30
0.0
 10
45.328340073
 20
24.1361978845
 30
0.0
 10
45.3639941063
 20
24.1410736691
 30
0.0
 10
45.3810839683
 20
24.1410736691
 30
0.0
  0
SPLINE
  5
4A2
100
AcDbEntity
  8
00_COMPONENTS_2
100
AcDbSpline
 62
7
  6
BYLAYER
 70
0
 71
3
 72
11
 73
7
 74
0
 42
0.0000001
 43
0.0000001
 44
0.0000000001
 40
0.0
 40
0.0
 40
0.0
 40
0.0
 40
0.2949941598
 40
0.5469537072
 40
0.7749204173
 40
1.0
 40
1.0
 40
1.0
 40
1.0
 10
45.4537247477
 20
24.1410736691
 30
0.0
 10
45.4685141734
 20
24.1410736691
 30
0.0
 10
45.496219466
 20
24.1377964548
 30
0.0
 10
45.5318657461
 20
24.1202147067
 30
0.0
 10
45.5557883135
 20
24.0930675524
 30
0.0
 10
45.5641096749
 20
24.0714735541
 30
0.0
 10
45.5667344821
 20
24.0604987902
 30
0.0
  0
SPLINE
  5
4A3
100
AcDbEntity
  8
00_COMPONENTS_2
100
AcDbSpline
 62
7
  6
BYLAYER
 70
0
 71
3
 72
10
 73
6
 74
0
 42
0.0000001
 43
0.0000001
 44
0.0000000001
 40
0.0
 40
0.0
 40
0.0
 40
0.0
 40
0.5235188636
 40
0.7742084075
 40
1.0
 40
1.0
 40
1.0
 40
1.0
 10
46.1870736423
 20
24.0604987902
 30
0.0
 10
46.2175164728
 20
24.082942858
 30
0.0
 10
46.2659929707
 20
24.1122132536
 30
0.0
 10
46.3344301424
 20
24.1360370013
 30
0.0
 10
46.3688735442
 20
24.1410736691
 30
0.0
 10
46.3851860126
 20
24.1410736691
 30
0.0
  0
SPLINE
  5
4A4
100
AcDbEntity
  8
00_COMPONENTS_2
100
AcDbSpline
 62
7
  6
BYLAYER
 70
0
 71
3
 72
11
 73
7
 74
0
 42
0.0000001
 43
0.0000001
 44
0.0000000001
 40
0.0
 40
0.0
 40
0.0
 40
0.0
 40
0.2938548269
 40
0.5405569069
 40
0.767365814
 40
1.0
 40
1.0
 40
1.0
 40
1.0
 10
46.4535170412
 20
24.1410736691
 30
0.0
 10
46.4672260195
 20
24.1410736691
 30
0.0
 10
46.4927842947
 20
24.1379559674
 30
0.0
 10
46.5250384974
 20
24.1200706145
 30
0.0
 10
46.5447153689
 20
24.0924653331
 30
0.0
 10
46.5500133785
 20
24.0712743314
 30
0.0
 10
46.5513068804
 20
24.0604987902
 30
0.0
  0
SPLINE
  5
4A5
100
AcDbEntity
  8
00_COMPONENTS_2
100
AcDbSpline
 62
7
  6
BYLAYER
 70
0
 71
3
 72
11
 73
7
 74
0
 42
0.0000001
 43
0.0000001
 44
0.0000000001
 40
0.0
 40
0.0
 40
0.0
 40
0.0
 40
0.2563911271
 40
0.5094625446
 40
0.7577691381
 40
1.0
 40
1.0
 40
1.0
 40
1.0
 10
38.8187730071
 20
8.4554897486
 30
0.0
 10
39.0871485002
 20
8.4585256574
 30
0.0
 10
39.6204017253
 20
8.4665911934
 30
0.0
 10
40.4134839487
 20
8.4825766854
 30
0.0
 10
41.1916253119
 20
8.5036177542
 30
0.0
 10
41.7047980272
 20
8.522123567
 30
0.0
 10
41.9581686872
 20
8.5321650978
 30
0.0
  0
SPLINE
  5
4A6
100
AcDbEntity
  8
00_COMPONENTS_2
100
AcDbSpline
 62
7
  6
BYLAYER
 70
0
 71
3
 72
20
 73
16
 74
0
 42
0.0000001
 43
0.0000001
 44
0.0000000001
 40
0.0
 40
0.0
 40
0.0
 40
0.0
 40
0.2179279793
 40
0.4138171201
 40
0.5846072873
 40
0.7279930515
 40
0.7887965282
 40
0.8420484776
 40
0.8875810948
 40
0.9252900315
 40
0.955106052
 40
0.9770662176
 40
0.9851983406
 40
0.9915544064
 40
1.0
 40
1.0
 40
1.0
 40
1.0
 10
36.949367924
 20
8.4554905849
 30
0.0
 10
36.951763869
 20
8.3837562539
 30
0.0
 10
36.9568191078
 20
8.2475578407
 30
0.0
 10
36.9660608639
 20
8.0552341777
 30
0.0
 10
36.9765873158
 20
7.8875695099
 30
0.0
 10
36.9864754842
 20
7.7644548129
 30
0.0
 10
36.9950838308
 20
7.680101494
 30
0.0
 10
37.0013841933
 20
7.62791634
 30
0.0
 10
37.0078797843
 20
7.5834280098
 30
0.0
 10
37.0144895019
 20
7.5467744807
 30
0.0
 10
37.0212385693
 20
7.518062593
 30
0.0
 10
37.0272131085
 20
7.4992371058
 30
0.0
 10
37.0324964337
 20
7.4883517792
 30
0.0
 10
37.0365135907
 20
7.4821275822
 30
0.0
 10
37.0409621005
 20
7.4786736765
 30
0.0
 10
37.0437436472
 20
7.4786736691
 30
0.0
  0
SPLINE
  5
4A7
100
AcDbEntity
  8
00_COMPONENTS_2
100
AcDbSpline
 62
7
  6
BYLAYER
 70
0
 71
3
 72
13
 73
9
 74
0
 42
0.0000001
 43
0.0000001
 44
0.0000000001
 40
0.0
 40
0.0
 40
0.0
 40
0.0
 40
0.2422138981
 40
0.3656973179
 40
0.4905136158
 40
0.6165325087
 40
0.7436111832
 40
1.0
 40
1.0
 40
1.0
 40
1.0
 10
33.8098817629
 20
8.5321692036
 30
0.0
 10
34.0632546242
 20
8.5224444508
 30
0.0
 10
34.4458292141
 20
8.5084422893
 30
0.0
 10
34.9590952577
 20
8.4932153341
 30
0.0
 10
35.3508263383
 20
8.4834418474
 30
0.0
 10
35.746347042
 20
8.4747478026
 30
0.0
 10
36.2795827111
 20
8.4637247278
 30
0.0
 10
36.6809754902
 20
8.4574476448
 30
0.0
 10
36.9493666498
 20
8.4554897168
 30
0.0
  0
SPLINE
  5
4A8
100
AcDbEntity
  8
00_COMPONENTS_2
100
AcDbSpline
 62
7
  6
BYLAYER
 70
0
 71
3
 72
20
 73
16
 74
0
 42
0.0000001
 43
0.0000001
 44
0.0000000001
 40
0.0
 40
0.0
 40
0.0
 40
0.0
 40
0.0084467085
 40
0.0148033968
 40
0.0229360464
 40
0.044896888
 40
0.0747131101
 40
0.1124219742
 40
0.1579544098
 40
0.2112061541
 40
0.2720094259
 40
0.4153947704
 40
0.5861844004
 40
0.7820727831
 40
1.0
 40
1.0
 40
1.0
 40
1.0
 10
38.7243954415
 20
7.4786736691
 30
0.0
 10
38.7271773646
 20
7.4786736832
 30
0.0
 10
38.7316265367
 20
7.4821274769
 30
0.0
 10
38.7356451655
 20
7.4883516665
 30
0.0
 10
38.7409302844
 20
7.4992368371
 30
0.0
 10
38.7469069813
 20
7.518062258
 30
0.0
 10
38.753657197
 20
7.5467742727
 30
0.0
 10
38.7602671738
 20
7.5834278724
 30
0.0
 10
38.766762563
 20
7.6279162298
 30
0.0
 10
38.7730627668
 20
7.6801013795
 30
0.0
 10
38.7816712327
 20
7.7644546905
 30
0.0
 10
38.7915605704
 20
7.8875693056
 30
0.0
 10
38.8020892107
 20
8.0552338471
 30
0.0
 10
38.8113250593
 20
8.2475577823
 30
0.0
 10
38.8163761247
 20
8.3837562768
 30
0.0
 10
38.8187723199
 20
8.4554905849
 30
0.0
  0
SPLINE
  5
4A9
100
AcDbEntity
  8
0
100
AcDbSpline
 62
7
  6
BYLAYER
 70
0
 71
3
 72
11
 73
7
 74
0
 42
0.0000001
 43
0.0000001
 44
0.0000000001
 40
0.0
 40
0.0
 40
0.0
 40
0.0
 40
0.2321786272
 40
0.4789529933
 40
0.7365927127
 40
1.0
 40
1.0
 40
1.0
 40
1.0
 10
16.2562080753
 20
88.8365644879
 30
0.0
 10
16.3789721955
 20
88.9345548982
 30
0.0
 10
16.6543414589
 20
89.1098810891
 30
0.0
 10
17.1178826733
 20
89.2988142233
 30
0.0
 10
17.6261817455
 20
89.4154728129
 30
0.0
 10
17.979265382
 20
89.4416487045
 30
0.0
 10
18.1574695444
 20
89.4416487045
 30
0.0
  0
SPLINE
  5
4AA
100
AcDbEntity
  8
0
100
AcDbSpline
 62
7
  6
BYLAYER
 70
0
 71
3
 72
9
 73
5
 74
0
 42
0.0000001
 43
0.0000001
 44
0.0000000001
 40
0.0
 40
0.0
 40
0.0
 40
0.0
 40
0.2573487613
 40
1.0
 40
1.0
 40
1.0
 40
1.0
 10
18.1574695444
 20
89.4416487045
 30
0.0
 10
18.2815253105
 20
89.4416487045
 30
0.0
 10
18.7629621249
 20
89.4167943968
 30
0.0
 10
19.2415883766
 20
89.2929359604
 30
0.0
 10
19.5654773012
 20
89.1404300593
 30
0.0
  0
SPLINE
  5
4AB
100
AcDbEntity
  8
0
100
AcDbSpline
 62
7
  6
BYLAYER
 70
0
 71
3
 72
9
 73
5
 74
0
 42
0.0000001
 43
0.0000001
 44
0.0000000001
 40
0.0
 40
0.0
 40
0.0
 40
0.0
 40
0.2477717144
 40
1.0
 40
1.0
 40
1.0
 40
1.0
 10
15.6700340409
 20
88.0089924088
 30
0.0
 10
15.6751281893
 20
88.0264252295
 30
0.0
 10
15.697100537
 20
88.0963648403
 30
0.0
 10
15.7246653154
 20
88.1645338594
 30
0.0
 10
15.7482080753
 20
88.2143940932
 30
0.0
  0
SPLINE
  5
4AC
100
AcDbEntity
  8
0
100
AcDbSpline
 62
7
  6
BYLAYER
 70
0
 71
3
 72
14
 73
10
 74
0
 42
0.0000001
 43
0.0000001
 44
0.0000000001
 40
0.0
 40
0.0
 40
0.0
 40
0.0
 40
0.132142359
 40
0.2663158809
 40
0.4002889432
 40
0.5319213427
 40
0.6591968977
 40
0.7804309731
 40
1.0
 40
1.0
 40
1.0
 40
1.0
 10
17.5082726399
 20
87.9882125308
 30
0.0
 10
17.6831739623
 20
88.0332261532
 30
0.0
 10
18.0304201182
 20
88.1456045854
 30
0.0
 10
18.5292065092
 20
88.3730309375
 30
0.0
 10
18.9985607258
 20
88.6551327249
 30
0.0
 10
19.4248305927
 20
88.9835499422
 30
0.0
 10
19.7960212312
 20
89.3495020043
 30
0.0
 10
20.1892353535
 20
89.8548106688
 30
0.0
 10
20.3963711388
 20
90.2850361095
 30
0.0
 10
20.4688695444
 20
90.5762352722
 30
0.0
  0
SPLINE
  5
4AD
100
AcDbEntity
  8
0
100
AcDbSpline
 62
7
  6
BYLAYER
 70
0
 71
3
 72
13
 73
9
 74
0
 42
0.0000001
 43
0.0000001
 44
0.0000000001
 40
0.0
 40
0.0
 40
0.0
 40
0.0
 40
0.1056420789
 40
0.2162752006
 40
0.3325821657
 40
0.4549973815
 40
0.7173494177
 40
1.0
 40
1.0
 40
1.0
 40
1.0
 10
15.0013169401
 20
88.348796505
 30
0.0
 10
15.0712770073
 20
88.2883708964
 30
0.0
 10
15.2255195634
 20
88.176977471
 30
0.0
 10
15.4860166428
 20
88.0449685422
 30
0.0
 10
15.7764283479
 20
87.9464616064
 30
0.0
 10
16.2072220048
 20
87.8595777019
 30
0.0
 10
16.795831572
 20
87.8458909708
 30
0.0
 10
17.2687431588
 20
87.9265658293
 30
0.0
 10
17.5082726399
 20
87.9882125308
 30
0.0
  0
SPLINE
  5
4AE
100
AcDbEntity
  8
0
100
AcDbSpline
 62
7
  6
BYLAYER
 70
0
 71
3
 72
15
 73
11
 74
0
 42
0.0000001
 43
0.0000001
 44
0.0000000001
 40
0.0
 40
0.0
 40
0.0
 40
0.0
 40
0.104125605
 40
0.2112476426
 40
0.3239422654
 40
0.4438838908
 40
0.5718527346
 40
0.707766468
 40
0.8509438515
 40
1.0
 40
1.0
 40
1.0
 40
1.0
 10
20.3651019697
 20
91.730717844
 30
0.0
 10
20.3144245846
 20
91.8292014243
 30
0.0
 10
20.1874239903
 20
92.017492107
 30
0.0
 10
19.9328436446
 20
92.2536225333
 30
0.0
 10
19.6205053246
 20
92.4401405537
 30
0.0
 10
19.2586720191
 20
92.5731325026
 30
0.0
 10
18.8561521261
 20
92.6502863798
 30
0.0
 10
18.4223065814
 20
92.6703766674
 30
0.0
 10
17.9673329027
 20
92.6331004595
 30
0.0
 10
17.6618186025
 20
92.5717396108
 30
0.0
 10
17.5082726399
 20
92.5322221281
 30
0.0
  0
SPLINE
  5
4AF
100
AcDbEntity
  8
0
100
AcDbSpline
 62
7
  6
BYLAYER
 70
0
 71
3
 72
11
 73
7
 74
0
 42
0.0000001
 43
0.0000001
 44
0.0000000001
 40
0.0
 40
0.0
 40
0.0
 40
0.0
 40
0.2538815877
 40
0.510686144
 40
0.7619495882
 40
1.0
 40
1.0
 40
1.0
 40
1.0
 10
17.5082726399
 20
92.5322221281
 30
0.0
 10
17.2578729399
 20
92.4677778038
 30
0.0
 10
16.7646818962
 20
92.2939415279
 30
0.0
 10
16.0809472413
 20
91.9201956345
 30
0.0
 10
15.479255544
 20
91.4506695742
 30
0.0
 10
15.1436778248
 20
91.0774657147
 30
0.0
 10
15.0013169401
 20
90.8812287312
 30
0.0
  0
SPLINE
  5
4B0
100
AcDbEntity
  8
0
100
AcDbSpline
 62
7
  6
BYLAYER
 70
0
 71
3
 72
14
 73
10
 74
0
 42
0.0000001
 43
0.0000001
 44
0.0000000001
 40
0.0
 40
0.0
 40
0.0
 40
0.0
 40
0.2805815934
 40
0.4161582185
 40
0.5462378553
 40
0.6696948191
 40
0.78608161
 40
0.8957563072
 40
1.0
 40
1.0
 40
1.0
 40
1.0
 10
57.6106695444
 20
80.5871161692
 30
0.0
 10
57.8969251136
 20
80.5871161692
 30
0.0
 10
58.3242407749
 20
80.5365216937
 30
0.0
 10
58.8561389479
 20
80.3663315627
 30
0.0
 10
59.2155540669
 20
80.1944177665
 30
0.0
 10
59.5290682385
 20
79.9815297865
 30
0.0
 10
59.7877065111
 20
79.7332369429
 30
0.0
 10
59.9835218816
 20
79.456325518
 30
0.0
 10
60.0694942283
 20
79.2533489095
 30
0.0
 10
60.0990634723
 20
79.1511904536
 30
0.0
  0
SPLINE
  5
4B1
100
AcDbEntity
  8
0
100
AcDbSpline
 62
7
  6
BYLAYER
 70
0
 71
3
 72
9
 73
5
 74
0
 42
0.0000001
 43
0.0000001
 44
0.0000000001
 40
0.0
 40
0.0
 40
0.0
 40
0.0
 40
0.24161918
 40
1.0
 40
1.0
 40
1.0
 40
1.0
 10
56.2026837801
 20
80.2859165158
 30
0.0
 10
56.3080769602
 20
80.3355456134
 30
0.0
 10
56.7568505582
 20
80.5137147474
 30
0.0
 10
57.2450257767
 20
80.5871161692
 30
0.0
 10
57.6106695444
 20
80.5871161692
 30
0.0
  0
SPLINE
  5
4B2
100
AcDbEntity
  8
0
100
AcDbSpline
 62
7
  6
BYLAYER
 70
0
 71
3
 72
14
 73
10
 74
0
 42
0.0000001
 43
0.0000001
 44
0.0000000001
 40
0.0
 40
0.0
 40
0.0
 40
0.0
 40
0.2195690269
 40
0.3408031023
 40
0.4680786573
 40
0.5997110568
 40
0.7336841191
 40
0.867857641
 40
1.0
 40
1.0
 40
1.0
 40
1.0
 10
55.2992695444
 20
81.7217027368
 30
0.0
 10
55.37176795
 20
81.4305035741
 30
0.0
 10
55.5789037353
 20
81.0002781334
 30
0.0
 10
55.9721178575
 20
80.4949694689
 30
0.0
 10
56.343308496
 20
80.1290174069
 30
0.0
 10
56.7695783629
 20
79.8006001895
 30
0.0
 10
57.2389325795
 20
79.5184984021
 30
0.0
 10
57.7377189705
 20
79.2910720501
 30
0.0
 10
58.0849651264
 20
79.1786936179
 30
0.0
 10
58.2598664488
 20
79.1336799955
 30
0.0
  0
SPLINE
  5
4B3
100
AcDbEntity
  8
0
100
AcDbSpline
 62
7
  6
BYLAYER
 70
0
 71
3
 72
13
 73
9
 74
0
 42
0.0000001
 43
0.0000001
 44
0.0000000001
 40
0.0
 40
0.0
 40
0.0
 40
0.0
 40
0.2826505823
 40
0.5450026185
 40
0.6674178343
 40
0.7837247994
 40
0.8943579211
 40
1.0
 40
1.0
 40
1.0
 40
1.0
 10
58.2598664488
 20
79.1336799955
 30
0.0
 10
58.49939593
 20
79.0720332939
 30
0.0
 10
58.9723075167
 20
78.9913584354
 30
0.0
 10
59.560917084
 20
79.0050451665
 30
0.0
 10
59.9917107408
 20
79.091929071
 30
0.0
 10
60.2821224459
 20
79.1904360069
 30
0.0
 10
60.5426195253
 20
79.3224449356
 30
0.0
 10
60.6968620814
 20
79.433838361
 30
0.0
 10
60.7668221486
 20
79.4942639696
 30
0.0
  0
SPLINE
  5
4B4
100
AcDbEntity
  8
0
100
AcDbSpline
 62
7
  6
BYLAYER
 70
0
 71
3
 72
15
 73
11
 74
0
 42
0.0000001
 43
0.0000001
 44
0.0000000001
 40
0.0
 40
0.0
 40
0.0
 40
0.0
 40
0.1490561485
 40
0.292233532
 40
0.4281472654
 40
0.5561161092
 40
0.6760577346
 40
0.7887523574
 40
0.895874395
 40
1.0
 40
1.0
 40
1.0
 40
1.0
 10
58.2598664488
 20
83.6776895927
 30
0.0
 10
58.1063204862
 20
83.7172070754
 30
0.0
 10
57.800806186
 20
83.7785679242
 30
0.0
 10
57.3458325074
 20
83.815844132
 30
0.0
 10
56.9119869626
 20
83.7957538445
 30
0.0
 10
56.5094670697
 20
83.7185999673
 30
0.0
 10
56.1476337641
 20
83.5856080183
 30
0.0
 10
55.8352954441
 20
83.3990899979
 30
0.0
 10
55.5807150984
 20
83.1629595716
 30
0.0
 10
55.4537145041
 20
82.9746688889
 30
0.0
 10
55.403037119
 20
82.8761853086
 30
0.0
  0
SPLINE
  5
4B5
100
AcDbEntity
  8
0
100
AcDbSpline
 62
7
  6
BYLAYER
 70
0
 71
3
 72
11
 73
7
 74
0
 42
0.0000001
 43
0.0000001
 44
0.0000000001
 40
0.0
 40
0.0
 40
0.0
 40
0.0
 40
0.2380504118
 40
0.489313856
 40
0.7461184123
 40
1.0
 40
1.0
 40
1.0
 40
1.0
 10
60.7668221486
 20
82.0266961958
 30
0.0
 10
60.6244612639
 20
82.2229331793
 30
0.0
 10
60.2888835447
 20
82.5961370388
 30
0.0
 10
59.6871918474
 20
83.0656630991
 30
0.0
 10
59.0034571926
 20
83.4394089925
 30
0.0
 10
58.5102661488
 20
83.6132452684
 30
0.0
 10
58.2598664488
 20
83.6776895927
 30
0.0
  0
SPLINE
  5
4B6
100
AcDbEntity
  8
00_COMPONENTS_4
100
AcDbSpline
 62
7
  6
BYLAYER
 70
0
 71
3
 72
15
 73
11
 74
0
 42
0.0000001
 43
0.0000001
 44
0.0000000001
 40
0.0
 40
0.0
 40
0.0
 40
0.0
 40
0.1262633288
 40
0.251511948
 40
0.3759715474
 40
0.5
 40
0.6240284526
 40
0.748488052
 40
0.8737366712
 40
1.0
 40
1.0
 40
1.0
 40
1.0
 10
20.4215695444
 20
43.8501248748
 30
0.0
 10
20.8394151838
 20
43.7195649457
 30
0.0
 10
21.6798078294
 20
43.4842462137
 30
0.0
 10
22.9574220365
 20
43.2199409299
 30
0.0
 10
24.2442859338
 20
43.0563959017
 30
0.0
 10
25.5362173779
 20
43.0010255074
 30
0.0
 10
26.828148822
 20
43.0563959017
 30
0.0
 10
28.1150127193
 20
43.2199409299
 30
0.0
 10
29.3926269264
 20
43.4842462137
 30
0.0
 10
30.233019572
 20
43.7195649457
 30
0.0
 10
30.6508652114
 20
43.8501248748
 30
0.0
  0
SPLINE
  5
4B7
100
AcDbEntity
  8
00_COMPONENTS_4
100
AcDbSpline
 62
7
  6
BYLAYER
 70
0
 71
3
 72
13
 73
9
 74
0
 42
0.0000001
 43
0.0000001
 44
0.0000000001
 40
0.0
 40
0.0
 40
0.0
 40
0.0
 40
0.2499631522
 40
0.3749814625
 40
0.5
 40
0.6250185375
 40
0.7500368478
 40
1.0
 40
1.0
 40
1.0
 40
1.0
 10
30.6508652114
 20
43.8501248748
 30
0.0
 10
31.8376158431
 20
43.5879213626
 30
0.0
 10
33.6376909081
 20
43.2735100767
 30
0.0
 10
36.0601672279
 20
43.056259221
 30
0.0
 10
37.8840695444
 20
43.0010617884
 30
0.0
 10
39.7079718608
 20
43.056259221
 30
0.0
 10
42.1304481807
 20
43.2735100767
 30
0.0
 10
43.9305232456
 20
43.5879213626
 30
0.0
 10
45.1172738773
 20
43.8501248748
 30
0.0
  0
SPLINE
  5
4B8
100
AcDbEntity
  8
00_COMPONENTS_4
100
AcDbSpline
 62
7
  6
BYLAYER
 70
0
 71
3
 72
15
 73
11
 74
0
 42
0.0000001
 43
0.0000001
 44
0.0000000001
 40
0.0
 40
0.0
 40
0.0
 40
0.0
 40
0.1262633288
 40
0.251511948
 40
0.3759715474
 40
0.5
 40
0.6240284526
 40
0.748488052
 40
0.8737366712
 40
1.0
 40
1.0
 40
1.0
 40
1.0
 10
45.1172738773
 20
43.8501248748
 30
0.0
 10
45.5351195168
 20
43.7195649457
 30
0.0
 10
46.3755121623
 20
43.4842462137
 30
0.0
 10
47.6531263694
 20
43.2199409299
 30
0.0
 10
48.9399902667
 20
43.0563959017
 30
0.0
 10
50.2319217108
 20
43.0010255074
 30
0.0
 10
51.5238531549
 20
43.0563959017
 30
0.0
 10
52.8107170523
 20
43.2199409299
 30
0.0
 10
54.0883312594
 20
43.4842462137
 30
0.0
 10
54.9287239049
 20
43.7195649457
 30
0.0
 10
55.3465695444
 20
43.8501248748
 30
0.0
  0
ELLIPSE
  5
4B9
100
AcDbEntity
  8
0
100
AcDbEllipse
 62
7
  6
BYLAYER
 10
17.5783117419
 20
90.1241481697
 30
0.0
 11
3.4193096007
 21
0.0
 31
0.0
 40
0.6644630244
 41
0.5315947947
 42
0.5911452022
  0
ELLIPSE
  5
4BA
100
AcDbEntity
  8
0
100
AcDbEllipse
 62
7
  6
BYLAYER
 10
17.1160695444
 20
91.0221737818
 30
0.0
 11
3.4193096007
 21
-0.0
 31
0.0
 40
0.6644630244
 41
-0.1975579181
 42
0.1975579181
  0
ELLIPSE
  5
4BB
100
AcDbEntity
  8
0
100
AcDbEllipse
 62
7
  6
BYLAYER
 10
18.5767548885
 20
88.1844128476
 30
0.0
 11
3.4193096007
 21
-0.0
 31
0.0
 40
0.6644630244
 41
7.3215210918
 42
8.8336327586
  0
ELLIPSE
  5
4BC
100
AcDbEntity
  8
0
100
AcDbEllipse
 62
7
  6
BYLAYER
 10
58.6520695444
 20
82.1676412465
 30
0.0
 11
3.4193096007
 21
-0.0
 31
0.0
 40
0.6644630244
 41
2.9440347355
 42
3.3391505717
  0
ELLIPSE
  5
4BD
100
AcDbEntity
  8
0
100
AcDbEllipse
 62
7
  6
BYLAYER
 10
58.1898273468
 20
81.2696156344
 30
0.0
 11
3.4193096007
 21
0.0
 31
0.0
 40
0.6644630244
 41
2.5504474514
 42
2.6099721559
  0
ELLIPSE
  5
4BE
100
AcDbEntity
  8
0
100
AcDbEllipse
 62
7
  6
BYLAYER
 10
57.1913842002
 20
79.3298803122
 30
0.0
 11
3.4193096007
 21
0.0
 31
0.0
 40
0.6644630244
 41
0.5911452022
 42
2.1032571002
  0
ENDSEC
  0
SECTION
  2
OBJECTS
  0
DICTIONARY
  5
C
100
AcDbDictionary
280
0
281
1
  3
ACAD_GROUP
350
D
  3
ACAD_MLINESTYLE
350
17
  3
ACAD_LAYOUT
350
1A
  3
ACAD_PLOTSETTINGS
350
19
  3
ACAD_PLOTSTYLENAME
350
E
  0
DICTIONARY
  5
D
102
{ACAD_REACTORS
330
C
102
}
100
AcDbDictionary
280
0
281
1
  0
ACDBDICTIONARYWDFLT
  5
E
102
{ACAD_REACTORS
330
C
102
}
100
AcDbDictionary
281
1
  3
Normal
350
F
100
AcDbDictionaryWithDefault
340
F
  0
DICTIONARY
  5
17
102
{ACAD_REACTORS
330
C
102
}
100
AcDbDictionary
280
0
281
1
  3
Standard
350
18
  0
DICTIONARY
  5
19
102
{ACAD_REACTORS
330
C
102
}
100
AcDbDictionary
281
1
  0
DICTIONARY
  5
1A
102
{ACAD_REACTORS
330
C
102
}
100
AcDbDictionary
281
1
  3
Model
350
4BF
  3
Layout1
350
4C0
  0
ACDBPLACEHOLDER
  5
F
102
{ACAD_REACTORS
330
E
102
}
  0
MLINESTYLE
  5
18
102
{ACAD_REACTORS
330
17
102
}
100
AcDbMlineStyle
  2
STANDARD
 70
0
  3

 62
256
 51
90.0
 52
90.0
 71
2
 49
0.5
 62
256
  6
BYLAYER
 49
-0.5
 62
256
  6
BYLAYER
  0
LAYOUT
  5
4BF
102
{ACAD_REACTORS
330
1A
102
}
100
AcDbPlotSettings
  1

  2
none_device
  4

  6

 40
0.0
 41
0.0
 42
0.0
 43
0.0
 44
210.0
 45
297.0
 46
0.0
 47
0.0
 48
0.0
 49
0.0
140
0.0
141
0.0
142
1.0
143
1.0
 70
1024
 72
1
 73
0
 74
0
  7

 75
0
147
1.0
148
0.0
149
0.0
100
AcDbLayout
  1
Model
 70
0
 71
0
 10
0.0
 20
0.0
 11
210.0
 21
297.0
 12
0.0
 22
0.0
 32
0.0
 14
0.0
 24
0.0
 34
0.0
 15
0.0
 25
0.0
 35
0.0
146
0.0
 13
0.0
 23
0.0
 33
0.0
 16
1.0
 26
0.0
 36
0.0
 17
0.0
 27
1.0
 37
0.0
 76
0
330
224
345
0
346
0
  0
LAYOUT
  5
4C0
102
{ACAD_REACTORS
330
1A
102
}
100
AcDbPlotSettings
  1

  2
none_device
  4

  6

 40
0.0
 41
0.0
 42
0.0
 43
0.0
 44
210.0
 45
297.0
 46
0.0
 47
0.0
 48
0.0
 49
0.0
140
0.0
141
0.0
142
1.0
143
1.0
 70
0
 72
1
 73
0
 74
0
  7

 75
0
147
1.0
148
0.0
149
0.0
100
AcDbLayout
  1
Layout1
 70
0
 71
1
 10
0.0
 20
0.0
 11
210.0
 21
297.0
 12
0.0
 22
0.0
 32
0.0
 14
0.0
 24
0.0
 34
0.0
 15
0.0
 25
0.0
 35
0.0
146
0.0
 13
0.0
 23
0.0
 33
0.0
 16
1.0
 26
0.0
 36
0.0
 17
0.0
 27
1.0
 37
0.0
 76
0
330
225
345
0
346
0
  0
ENDSEC
  0
EOF
