999
DXF file: C:\Users\sesa63760\Dev\_Creo\CAD\MCADPP0003363_3D-CAD\drw0001_1.dxf
999
Pro/ENGINEER 2019471 by Parametric Technology Corporation
  0
SECTION
  2
HEADER
  9
$ACADVER
  1
AC1024
  9
$DWGCODEPAGE
  3
ANSI_1252
  9
$EXTMAX
 10
74.4550700474
 20
105.3007419242
 30
0.0
  9
$EXTMIN
 10
-0.0
 20
0.0
 30
0.0
  9
$LIMMIN
 10
-0.0
 20
0.0
  9
$LIMMAX
 10
74.4550700474
 20
105.3007419242
  9
$VIEWCTR
 10
37.2275350237
 20
52.6503709621
  9
$VIEWSIZE
 40
105.3007419242
  9
$CLAYER
  8
0
  9
$LTSCALE
 40
6.8640483625
  9
$CELTYPE
  6
BYLAYER
  9
$DIMSCALE
 40
1.0
  9
$DIMASZ
 40
0.8863698815
  9
$DIMEXO
 40
1.0
  9
$DIMDLI
 40
4.7424334141
  9
$DIMEXE
 40
1.0
  9
$DIMCEN
 40
1.1232079139
  9
$DIMLFAC
 40
1.0
  9
$DIMBLK
  1
_FILLED
  9
$DIMALT
 70
0
  9
$DIMALTF
 40
0.0393700787
  9
$DIMTXT
 40
1.2409178341
  9
$DIMTOL
 70
1
  9
$DIMLIM
 70
0
  9
$DIMTFAC
 40
1.0
  9
$DIMTP
 40
0.01
  9
$DIMTM
 40
0.01
  9
$DIMGAP
 40
0.625
  9
$DIMDSEP
 70
46
  9
$AUNITS
 70
0
  9
$PDMODE
 70
3
  9
$PDSIZE
 40
0.3125
  9
$HANDSEED
  5
393
  9
$TILEMODE
 70
1
  9
$MEASUREMENT
 70
1
  9
$INSUNITS
 70
4
  0
ENDSEC
  0
SECTION
  2
CLASSES
  0
CLASS
  1
ACDBDICTIONARYWDFLT
  2
AcDbDictionaryWithDefault
  3
AutoCAD 2000
 90
0
 91
1
280
0
281
0
  0
CLASS
  1
ACDBPLACEHOLDER
  2
AcDbPlaceHolder
  3
AutoCAD 2000
 90
0
 91
1
280
0
281
0
  0
CLASS
  1
LAYOUT
  2
AcDbLayout
  3
AutoCAD 2000
 90
0
 91
0
280
0
281
0
  0
ENDSEC
  0
SECTION
  2
TABLES
  0
TABLE
  2
VPORT
  5
8
100
AcDbSymbolTable
 70
2
  0
VPORT
  5
1F4
100
AcDbSymbolTableRecord
100
AcDbViewportTableRecord
  2
*ACTIVE
 70
0
 10
0.0
 20
0.0
 11
1.0
 21
1.0
 12
37.2275350237
 22
52.6503709621
 13
0.0
 23
0.0
 14
1.0
 24
1.0
 15
0.0
 25
0.0
 16
0.0
 26
0.0
 36
1.0
 17
0.0
 27
0.0
 37
0.0
 40
105.3007419242
 41
0.7070707071
 42
50.0
 43
0.0
 44
0.0
 50
0.0
 51
0.0
 71
0
 72
100
 73
1
 74
1
 75
0
 76
0
 77
0
 78
0
  0
ENDTAB
  0
TABLE
  2
LTYPE
  5
5
100
AcDbSymbolTable
 70
6
  0
LTYPE
  5
14
100
AcDbSymbolTableRecord
100
AcDbLinetypeTableRecord
  2
BYBLOCK
 70
0
  3

 72
65
 73
0
 40
0.0
  0
LTYPE
  5
15
100
AcDbSymbolTableRecord
100
AcDbLinetypeTableRecord
  2
BYLAYER
 70
0
  3

 72
65
 73
0
 40
0.0
  0
LTYPE
  5
16
100
AcDbSymbolTableRecord
100
AcDbLinetypeTableRecord
  2
CONTINUOUS
 70
64
  3
Solid line
 72
65
 73
0
 40
0.0
  0
LTYPE
  5
1F5
100
AcDbSymbolTableRecord
100
AcDbLinetypeTableRecord
  2
CENTER
 70
64
  3
____ _ ____ _ ____ _ ____ _ ____ _ ____ _ ____
 72
65
 73
4
 40
0.6
 49
0.375
 74
0
 49
-0.075
 74
0
 49
0.075
 74
0
 49
-0.075
 74
0
  0
LTYPE
  5
1F6
100
AcDbSymbolTableRecord
100
AcDbLinetypeTableRecord
  2
HIDDEN
 70
64
  3
- - - - - - - - - - - - - - - - - - - -
 72
65
 73
2
 40
0.2
 49
0.1
 74
0
 49
-0.1
 74
0
  0
LTYPE
  5
1F7
100
AcDbSymbolTableRecord
100
AcDbLinetypeTableRecord
  2
PHANTOM
 70
64
  3
_____ _ _ _____ _ _ _____ _ _ _____
 72
65
 73
6
 40
0.8
 49
0.45
 74
0
 49
-0.05
 74
0
 49
0.1
 74
0
 49
-0.05
 74
0
 49
0.1
 74
0
 49
-0.05
 74
0
  0
LTYPE
  5
1F8
100
AcDbSymbolTableRecord
100
AcDbLinetypeTableRecord
  2
DOT
 70
64
  3
. . . . . . . . . . . . . . . . . . . .
 72
65
 73
2
 40
0.2
 49
0.1
 74
0
 49
-0.1
 74
0
  0
LTYPE
  5
1F9
100
AcDbSymbolTableRecord
100
AcDbLinetypeTableRecord
  2
DASHED
 70
64
  3
- - - - - - - - - - - - - - - - - - - -
 72
65
 73
2
 40
0.2
 49
0.1
 74
0
 49
-0.1
 74
0
  0
ENDTAB
  0
TABLE
  2
LAYER
  5
2
100
AcDbSymbolTable
 70
36
  0
LAYER
  5
10
100
AcDbSymbolTableRecord
100
AcDbLayerTableRecord
  2
0
 70
0
 62
7
  6
CONTINUOUS
370
-3
390
F
  0
LAYER
  5
1FA
100
AcDbSymbolTableRecord
100
AcDbLayerTableRecord
  2
DEFAULT_1
 70
0
 62
7
  6
CENTER
370
-3
390
F
  0
LAYER
  5
1FB
100
AcDbSymbolTableRecord
100
AcDbLayerTableRecord
  2
DEFAULT_2
 70
0
 62
8
  6
HIDDEN
370
-3
390
F
  0
LAYER
  5
1FC
100
AcDbSymbolTableRecord
100
AcDbLayerTableRecord
  2
DEFAULT_3
 70
0
 62
7
  6
PHANTOM
370
-3
390
F
  0
LAYER
  5
1FD
100
AcDbSymbolTableRecord
100
AcDbLayerTableRecord
  2
00_COMPONENTS
 70
0
 62
7
  6
CONTINUOUS
370
-3
390
F
  0
LAYER
  5
1FE
100
AcDbSymbolTableRecord
100
AcDbLayerTableRecord
  2
01_1_DEFAULT_DATUMS
 70
0
 62
7
  6
CONTINUOUS
370
-3
390
F
  0
LAYER
  5
1FF
100
AcDbSymbolTableRecord
100
AcDbLayerTableRecord
  2
01_PLANES
 70
0
 62
7
  6
CONTINUOUS
370
-3
390
F
  0
LAYER
  5
200
100
AcDbSymbolTableRecord
100
AcDbLayerTableRecord
  2
02_COORD_SYS
 70
0
 62
7
  6
CONTINUOUS
370
-3
390
F
  0
LAYER
  5
201
100
AcDbSymbolTableRecord
100
AcDbLayerTableRecord
  2
03_AXES
 70
0
 62
7
  6
CONTINUOUS
370
-3
390
F
  0
LAYER
  5
202
100
AcDbSymbolTableRecord
100
AcDbLayerTableRecord
  2
04_POINTS
 70
0
 62
7
  6
CONTINUOUS
370
-3
390
F
  0
LAYER
  5
203
100
AcDbSymbolTableRecord
100
AcDbLayerTableRecord
  2
05_CURVES
 70
0
 62
7
  6
CONTINUOUS
370
-3
390
F
  0
LAYER
  5
204
100
AcDbSymbolTableRecord
100
AcDbLayerTableRecord
  2
06_SURFS
 70
0
 62
7
  6
CONTINUOUS
370
-3
390
F
  0
LAYER
  5
205
100
AcDbSymbolTableRecord
100
AcDbLayerTableRecord
  2
07_COSMETICS
 70
0
 62
7
  6
CONTINUOUS
370
-3
390
F
  0
LAYER
  5
206
100
AcDbSymbolTableRecord
100
AcDbLayerTableRecord
  2
10_NOTES
 70
0
 62
7
  6
CONTINUOUS
370
-3
390
F
  0
LAYER
  5
207
100
AcDbSymbolTableRecord
100
AcDbLayerTableRecord
  2
11_NOTES_PUB
 70
0
 62
7
  6
CONTINUOUS
370
-3
390
F
  0
LAYER
  5
208
100
AcDbSymbolTableRecord
100
AcDbLayerTableRecord
  2
13_REF_GTOL
 70
0
 62
7
  6
CONTINUOUS
370
-3
390
F
  0
LAYER
  5
209
100
AcDbSymbolTableRecord
100
AcDbLayerTableRecord
  2
16_MISC
 70
0
 62
7
  6
CONTINUOUS
370
-3
390
F
  0
LAYER
  5
20A
100
AcDbSymbolTableRecord
100
AcDbLayerTableRecord
  2
17_NO_PRINT
 70
0
 62
7
  6
CONTINUOUS
370
-3
390
F
  0
LAYER
  5
20B
100
AcDbSymbolTableRecord
100
AcDbLayerTableRecord
  2
18_DATUM_CAMS_JOINTS
 70
0
 62
7
  6
CONTINUOUS
370
-3
390
F
  0
LAYER
  5
20C
100
AcDbSymbolTableRecord
100
AcDbLayerTableRecord
  2
19_DATUM_FUNCTIONAL
 70
0
 62
7
  6
CONTINUOUS
370
-3
390
F
  0
LAYER
  5
20D
100
AcDbSymbolTableRecord
100
AcDbLayerTableRecord
  2
20_DATUM_KINEMATIC_SCHEME
 70
0
 62
7
  6
CONTINUOUS
370
-3
390
F
  0
ENDTAB
  0
TABLE
  2
STYLE
  5
3
100
AcDbSymbolTable
 70
1
  0
STYLE
  5
11
100
AcDbSymbolTableRecord
100
AcDbTextStyleTableRecord
  2
STANDARD
 70
0
 40
0.0
 41
0.8
 50
0.0
 71
0
 42
0.2
  3
txt
  4

  0
STYLE
  5
20E
100
AcDbSymbolTableRecord
100
AcDbTextStyleTableRecord
  2
TEXTSTYLE_1
 70
0
 40
0.0
 41
0.8
 50
0.0
 71
0
 42
0.2
  3
gdt
  4

  0
ENDTAB
  0
TABLE
  2
VIEW
  5
6
100
AcDbSymbolTable
 70
0
  0
ENDTAB
  0
TABLE
  2
UCS
  5
7
100
AcDbSymbolTable
 70
0
  0
ENDTAB
  0
TABLE
  2
APPID
  5
9
100
AcDbSymbolTable
 70
1
  0
APPID
  5
20F
100
AcDbSymbolTableRecord
100
AcDbRegAppTableRecord
  2
ACAD
 70
0
  0
ENDTAB
  0
TABLE
  2
BLOCK_RECORD
  5
1
100
AcDbSymbolTable
 70
0
  0
BLOCK_RECORD
  5
210
100
AcDbSymbolTableRecord
100
AcDbBlockTableRecord
  2
*Model_Space
  0
BLOCK_RECORD
  5
211
100
AcDbSymbolTableRecord
100
AcDbBlockTableRecord
  2
*Paper_Space
  0
BLOCK_RECORD
  5
212
100
AcDbSymbolTableRecord
100
AcDbBlockTableRecord
  2
_FILLED
  0
ENDTAB
  0
TABLE
  2
DIMSTYLE
  5
A
100
AcDbSymbolTable
 70
1
100
AcDbDimStyleTable
 71
0
  0
DIMSTYLE
105
213
100
AcDbSymbolTableRecord
100
AcDbDimStyleTableRecord
  2
STANDARD
 70
0
  3

  4

 40
1.0
 41
0.8863698815
 42
1.0
 43
0.38
 44
1.0
 45
0.0
 46
0.0
 47
0.01
 48
0.01
140
1.2409178341
141
0.09
142
0.0
143
25.4
144
1.0
145
0.0
146
1.0
147
0.625
 71
1
 72
0
 73
0
 74
0
 75
0
 76
0
 77
1
 78
8
 79
2
170
0
171
1
172
0
173
0
174
0
175
0
176
0
177
0
178
0
270
2
179
2
271
2
272
2
273
2
274
2
275
0
280
0
281
0
282
0
283
1
284
8
285
0
286
0
287
3
288
0
340
11
278
46
341
212
342
212
343
212
344
212
  0
ENDTAB
  0
ENDSEC
  0
SECTION
  2
BLOCKS
  0
BLOCK
  5
20
100
AcDbEntity
  8
0
100
AcDbBlockBegin
  2
*Model_Space
 70
0
 10
0.0
 20
0.0
 30
0.0
  3
*Model_Space
  1

  0
ENDBLK
  5
21
100
AcDbEntity
  8
0
100
AcDbBlockEnd
  0
BLOCK
  5
1C
100
AcDbEntity
  8
0
100
AcDbBlockBegin
  2
*Paper_Space
 70
0
 10
0.0
 20
0.0
 30
0.0
  3
*Paper_Space
  1

  0
ENDBLK
  5
1D
100
AcDbEntity
  8
0
100
AcDbBlockEnd
  0
BLOCK
  5
214
100
AcDbEntity
  8
0
100
AcDbBlockBegin
  2
_FILLED
 70
64
 10
0.0
 20
0.0
  3
_FILLED
  1

  0
SOLID
  5
215
100
AcDbEntity
  8
0
  6
BYBLOCK
 62
0
100
AcDbTrace
 10
0.0
 20
0.0
 11
-1.0
 21
0.25
 12
-1.0
 22
-0.25
 13
-1.0
 23
-0.25
  0
ENDBLK
  5
216
100
AcDbEntity
  8
0
  6
BYBLOCK
 62
0
100
AcDbBlockEnd
  0
ENDSEC
  0
SECTION
  2
ENTITIES
  0
LINE
  5
217
100
AcDbEntity
  8
0
100
AcDbLine
 62
7
  6
CONTINUOUS
 10
27.7917442805
 20
15.6940751332
 11
27.9417384816
 21
15.7089278625
  0
LINE
  5
218
100
AcDbEntity
  8
0
100
AcDbLine
 62
7
  6
CONTINUOUS
 10
31.3065511499
 20
17.6994223969
 11
31.4065472839
 21
17.7093242165
  0
LINE
  5
219
100
AcDbEntity
  8
0
100
AcDbLine
 62
7
  6
CONTINUOUS
 10
27.7917410266
 20
15.6940694971
 11
25.3652926779
 21
17.0949484123
  0
LINE
  5
21A
100
AcDbEntity
  8
0
100
AcDbLine
 62
7
  6
CONTINUOUS
 10
23.3525976144
 20
18.256952161
 11
19.8564642488
 21
20.2754000374
  0
LINE
  5
21B
100
AcDbEntity
  8
0
100
AcDbLine
 62
7
  6
CONTINUOUS
 10
16.6350552255
 20
22.135239329
 11
8.6997784476
 21
26.7165698692
  0
LINE
  5
21C
100
AcDbEntity
  8
0
100
AcDbLine
 62
7
  6
CONTINUOUS
 10
27.7296073304
 20
15.8314053415
 11
25.0591685577
 21
17.3731490068
  0
LINE
  5
21D
100
AcDbEntity
  8
0
100
AcDbLine
 62
7
  6
CONTINUOUS
 10
23.3525981317
 20
18.358415612
 11
19.732196339
 21
20.4486082751
  0
LINE
  5
21E
100
AcDbEntity
  8
0
100
AcDbLine
 62
7
  6
CONTINUOUS
 10
16.6350557428
 20
22.2367027799
 11
8.6376447514
 21
26.8539057135
  0
LINE
  5
21F
100
AcDbEntity
  8
0
100
AcDbLine
 62
7
  6
CONTINUOUS
 10
19.732196339
 20
21.4089574674
 11
16.6350557428
 21
23.1970519722
  0
LINE
  5
220
100
AcDbEntity
  8
0
100
AcDbLine
 62
7
  6
CONTINUOUS
 10
8.6997817015
 20
26.7165755052
 11
8.6376447514
 21
26.8539057135
  0
LINE
  5
221
100
AcDbEntity
  8
0
100
AcDbLine
 62
7
  6
CONTINUOUS
 10
31.3065489806
 20
17.6994186396
 11
31.2272561306
 21
17.7451973522
  0
LINE
  5
222
100
AcDbEntity
  8
0
100
AcDbLine
 62
7
  6
CONTINUOUS
 10
31.2651265165
 20
17.7909758691
 11
31.2444146846
 21
17.8029335803
  0
LINE
  5
223
100
AcDbEntity
  8
0
100
AcDbLine
 62
7
  6
CONTINUOUS
 10
8.6376447514
 20
26.8539057135
 11
8.6376447514
 21
36.2299576848
  0
LINE
  5
224
100
AcDbEntity
  8
0
100
AcDbLine
 62
7
  6
CONTINUOUS
 10
8.6376447514
 20
41.4067662086
 11
8.6376447514
 21
49.2939963589
  0
LINE
  5
225
100
AcDbEntity
  8
0
100
AcDbLine
 62
7
  6
CONTINUOUS
 10
8.6376447514
 20
54.4708048827
 11
8.6376447514
 21
63.1066130341
  0
LINE
  5
226
100
AcDbEntity
  8
0
100
AcDbLine
 62
7
  6
CONTINUOUS
 10
9.32384102
 20
38.8304465174
 11
9.32384102
 21
40.8717025602
  0
LINE
  5
227
100
AcDbEntity
  8
0
100
AcDbLine
 62
7
  6
CONTINUOUS
 10
9.32384102
 20
51.8944851915
 11
9.32384102
 21
53.9357412343
  0
LINE
  5
228
100
AcDbEntity
  8
0
100
AcDbLine
 62
7
  6
CONTINUOUS
 10
8.8288642124
 20
36.2584565856
 11
10.7380604703
 21
35.1562065484
  0
LINE
  5
229
100
AcDbEntity
  8
0
100
AcDbLine
 62
7
  6
CONTINUOUS
 10
25.6291916115
 20
26.5590024703
 11
27.5383878694
 21
25.456752433
  0
LINE
  5
22A
100
AcDbEntity
  8
0
100
AcDbLine
 62
7
  6
CONTINUOUS
 10
10.7380604703
 20
35.1562065484
 11
10.7380604703
 21
38.0139650084
  0
LINE
  5
22B
100
AcDbEntity
  8
0
100
AcDbLine
 62
7
  6
CONTINUOUS
 10
10.7380604703
 20
48.2202452225
 11
10.7380604703
 21
51.0780036824
  0
LINE
  5
22C
100
AcDbEntity
  8
0
100
AcDbLine
 62
7
  6
CONTINUOUS
 10
12.3146153222
 20
44.8986634931
 11
12.3146153222
 21
40.8161514075
  0
LINE
  5
22D
100
AcDbEntity
  8
0
100
AcDbLine
 62
7
  6
CONTINUOUS
 10
12.880298392
 20
41.1427467306
 11
12.880298392
 21
44.572073609
  0
LINE
  5
22E
100
AcDbEntity
  8
0
100
AcDbLine
 62
7
  6
CONTINUOUS
 10
45.9020169726
 20
88.9485427539
 11
47.5103096765
 21
89.8770854368
  0
LINE
  5
22F
100
AcDbEntity
  8
0
100
AcDbLine
 62
7
  6
CONTINUOUS
 10
29.659699381
 20
26.6814848947
 11
27.7505031231
 21
27.7837349319
  0
LINE
  5
230
100
AcDbEntity
  8
0
100
AcDbLine
 62
7
  6
CONTINUOUS
 10
27.0434110618
 20
28.6002794212
 11
25.6291916115
 21
29.4167609302
  0
LINE
  5
231
100
AcDbEntity
  8
0
100
AcDbLine
 62
7
  6
CONTINUOUS
 10
10.7380604703
 20
38.0139650084
 11
9.32384102
 21
38.8304465174
  0
LINE
  5
232
100
AcDbEntity
  8
0
100
AcDbLine
 62
7
  6
CONTINUOUS
 10
31.4065472839
 20
26.4867252006
 11
31.2651581592
 21
26.5683544031
  0
LINE
  5
233
100
AcDbEntity
  8
0
100
AcDbLine
 62
7
  6
CONTINUOUS
 10
13.3823215675
 20
64.5313923549
 11
13.3823215675
 21
64.4497421132
  0
LINE
  5
234
100
AcDbEntity
  8
0
100
AcDbLine
 62
7
  6
CONTINUOUS
 10
8.8497759026
 20
63.4740370054
 11
11.9610327863
 21
65.2703112824
  0
LINE
  5
235
100
AcDbEntity
  8
0
100
AcDbLine
 62
7
  6
CONTINUOUS
 10
12.3145847049
 20
65.4744333594
 11
45.6191754377
 21
84.7027330066
  0
LINE
  5
236
100
AcDbEntity
  8
0
100
AcDbLine
 62
7
  6
CONTINUOUS
 10
22.5746714513
 20
70.0018668387
 11
13.5237423349
 21
64.7763416691
  0
LINE
  5
237
100
AcDbEntity
  8
0
100
AcDbLine
 62
7
  6
CONTINUOUS
 10
13.1701904163
 20
64.5722195922
 11
10.5539062186
 21
63.0617162229
  0
LINE
  5
238
100
AcDbEntity
  8
0
100
AcDbLine
 62
7
  6
CONTINUOUS
 10
64.8939834175
 20
33.0085076202
 11
64.9939795516
 21
33.0184094397
  0
LINE
  5
239
100
AcDbEntity
  8
0
100
AcDbLine
 62
7
  6
CONTINUOUS
 10
27.5383878694
 20
30.3557669358
 11
27.0434110618
 21
30.641535464
  0
LINE
  5
23A
100
AcDbEntity
  8
0
100
AcDbLine
 62
7
  6
CONTINUOUS
 10
9.32384102
 20
40.8717025602
 11
8.8288642124
 21
41.1574710884
  0
LINE
  5
23B
100
AcDbEntity
  8
0
100
AcDbLine
 62
7
  6
CONTINUOUS
 10
18.5371809035
 20
36.4071303506
 11
27.7296073304
 21
31.1000005418
  0
LINE
  5
23C
100
AcDbEntity
  8
0
100
AcDbLine
 62
7
  6
CONTINUOUS
 10
19.1028639733
 20
36.7337256737
 11
28.2952904002
 21
31.4265958649
  0
LINE
  5
23D
100
AcDbEntity
  8
0
100
AcDbLine
 62
7
  6
CONTINUOUS
 10
12.3146153222
 20
40.8161514075
 11
17.2643833982
 21
37.9584661258
  0
LINE
  5
23E
100
AcDbEntity
  8
0
100
AcDbLine
 62
7
  6
CONTINUOUS
 10
12.880298392
 20
41.1427467306
 11
17.2643833982
 21
38.6116513331
  0
LINE
  5
23F
100
AcDbEntity
  8
0
100
AcDbLine
 62
7
  6
CONTINUOUS
 10
27.7296073304
 20
15.8314053415
 11
27.7917442805
 21
15.6940751332
  0
LINE
  5
240
100
AcDbEntity
  8
0
100
AcDbLine
 62
7
  6
CONTINUOUS
 10
16.6350539765
 20
58.9793062981
 11
16.6350557428
 21
57.5290609082
  0
LINE
  5
241
100
AcDbEntity
  8
0
100
AcDbLine
 62
7
  6
CONTINUOUS
 10
16.6350557428
 20
23.1970519722
 11
16.6350517147
 21
22.1352276629
  0
LINE
  5
242
100
AcDbEntity
  8
0
100
AcDbLine
 62
7
  6
CONTINUOUS
 10
17.2643833982
 20
37.9584661258
 11
17.2643833982
 21
42.0409782115
  0
LINE
  5
243
100
AcDbEntity
  8
0
100
AcDbLine
 62
7
  6
CONTINUOUS
 10
18.0492634173
 20
59.5508491334
 11
18.0492634173
 21
59.3058984082
  0
LINE
  5
244
100
AcDbEntity
  8
0
100
AcDbLine
 62
7
  6
CONTINUOUS
 10
18.5371809035
 20
42.1226472705
 11
18.5371809035
 21
36.4071303506
  0
LINE
  5
245
100
AcDbEntity
  8
0
100
AcDbLine
 62
7
  6
CONTINUOUS
 10
19.1028639733
 20
36.7337256737
 11
19.1028639733
 21
41.7960573863
  0
LINE
  5
246
100
AcDbEntity
  8
0
100
AcDbLine
 62
7
  6
CONTINUOUS
 10
8.6788766213
 20
49.3373322778
 11
8.6376447514
 21
49.2939963589
  0
LINE
  5
247
100
AcDbEntity
  8
0
100
AcDbLine
 62
7
  6
CONTINUOUS
 10
12.1095744963
 20
62.1635710428
 11
22.5746714513
 21
68.205561521
  0
LINE
  5
248
100
AcDbEntity
  8
0
100
AcDbLine
 62
7
  6
CONTINUOUS
 10
13.7217577873
 20
61.2327976426
 11
16.338041985
 21
62.7433010119
  0
LINE
  5
249
100
AcDbEntity
  8
0
100
AcDbLine
 62
7
  6
CONTINUOUS
 10
16.6915939036
 20
62.9474230889
 11
25.7425230199
 21
68.1729482584
  0
LINE
  5
24A
100
AcDbEntity
  8
0
100
AcDbLine
 62
7
  6
CONTINUOUS
 10
31.2651465796
 20
33.5901020665
 11
37.4876402839
 21
29.9976249239
  0
LINE
  5
24B
100
AcDbEntity
  8
0
100
AcDbLine
 62
7
  6
CONTINUOUS
 10
37.6290610514
 20
30.2425742381
 11
31.265146041
 21
33.9166991627
  0
LINE
  5
24C
100
AcDbEntity
  8
0
100
AcDbLine
 62
7
  6
CONTINUOUS
 10
17.2643833982
 20
42.0409782115
 11
12.3146153222
 21
44.8986634931
  0
LINE
  5
24D
100
AcDbEntity
  8
0
100
AcDbLine
 62
7
  6
CONTINUOUS
 10
27.7296073304
 20
36.8155174617
 11
18.5371809035
 21
42.1226472705
  0
LINE
  5
24E
100
AcDbEntity
  8
0
100
AcDbLine
 62
7
  6
CONTINUOUS
 10
31.2651265165
 20
17.7909758691
 11
31.3065511499
 21
17.6994223969
  0
LINE
  5
24F
100
AcDbEntity
  8
0
100
AcDbLine
 62
7
  6
CONTINUOUS
 10
19.732196339
 20
20.4486082751
 11
19.732196339
 21
21.4089574674
  0
LINE
  5
250
100
AcDbEntity
  8
0
100
AcDbLine
 62
7
  6
CONTINUOUS
 10
19.732196339
 20
55.7409664034
 11
19.732196339
 21
56.7013155957
  0
LINE
  5
251
100
AcDbEntity
  8
0
100
AcDbLine
 62
7
  6
CONTINUOUS
 10
20.1705749289
 20
60.6122811115
 11
20.1705749289
 21
60.5306308698
  0
LINE
  5
252
100
AcDbEntity
  8
0
100
AcDbLine
 62
7
  6
CONTINUOUS
 10
21.1464040134
 20
57.6192670557
 11
21.1464040134
 21
57.7627546286
  0
LINE
  5
253
100
AcDbEntity
  8
0
100
AcDbLine
 62
7
  6
CONTINUOUS
 10
17.8371304997
 20
59.6733213597
 11
16.6350539765
 21
58.9793062981
  0
LINE
  5
254
100
AcDbEntity
  8
0
100
AcDbLine
 62
7
  6
CONTINUOUS
 10
29.3629248127
 20
66.0827555953
 11
20.3119956963
 21
60.8572304257
  0
LINE
  5
255
100
AcDbEntity
  8
0
100
AcDbLine
 62
7
  6
CONTINUOUS
 10
19.9584437777
 20
60.6531083488
 11
18.0492634173
 21
59.5508491334
  0
LINE
  5
256
100
AcDbEntity
  8
0
100
AcDbLine
 62
7
  6
CONTINUOUS
 10
16.6350557428
 20
58.4894101005
 11
18.0492634173
 21
59.3058984082
  0
LINE
  5
257
100
AcDbEntity
  8
0
100
AcDbLine
 62
7
  6
CONTINUOUS
 10
64.7111380167
 20
36.9376238639
 11
64.8111341507
 21
36.9475256835
  0
LINE
  5
258
100
AcDbEntity
  8
0
100
AcDbLine
 62
7
  6
CONTINUOUS
 10
8.8288642124
 20
49.3224952597
 11
10.7380604703
 21
48.2202452225
  0
LINE
  5
259
100
AcDbEntity
  8
0
100
AcDbLine
 62
7
  6
CONTINUOUS
 10
25.6291916115
 20
39.6230411443
 11
27.5383878694
 21
38.5207911071
  0
LINE
  5
25A
100
AcDbEntity
  8
0
100
AcDbLine
 62
7
  6
CONTINUOUS
 10
31.265140857
 20
37.0602364615
 11
37.6290610514
 21
33.3861085441
  0
LINE
  5
25B
100
AcDbEntity
  8
0
100
AcDbLine
 62
7
  6
CONTINUOUS
 10
37.7704818188
 20
33.6310578583
 11
31.2651403184
 21
37.3868335577
  0
LINE
  5
25C
100
AcDbEntity
  8
0
100
AcDbLine
 62
7
  6
CONTINUOUS
 10
29.659699381
 20
39.7455235687
 11
27.7505031231
 21
40.8477736059
  0
LINE
  5
25D
100
AcDbEntity
  8
0
100
AcDbLine
 62
7
  6
CONTINUOUS
 10
39.0432687258
 20
34.3658973352
 11
31.2650617492
 21
38.856545635
  0
LINE
  5
25E
100
AcDbEntity
  8
0
100
AcDbLine
 62
7
  6
CONTINUOUS
 10
13.3823215675
 20
64.4497421132
 11
13.3201846174
 21
64.5870723215
  0
LINE
  5
25F
100
AcDbEntity
  8
0
100
AcDbLine
 62
7
  6
CONTINUOUS
 10
22.5746714513
 20
68.205561521
 11
22.5746714513
 21
70.0018668387
  0
LINE
  5
260
100
AcDbEntity
  8
0
100
AcDbLine
 62
7
  6
CONTINUOUS
 10
23.3525963654
 20
55.1010191302
 11
23.3525981317
 21
53.8746502639
  0
LINE
  5
261
100
AcDbEntity
  8
0
100
AcDbLine
 62
7
  6
CONTINUOUS
 10
23.3525981317
 20
19.0948882806
 11
23.3525941036
 21
18.256940495
  0
LINE
  5
262
100
AcDbEntity
  8
0
100
AcDbLine
 62
7
  6
CONTINUOUS
 10
24.7668058062
 20
55.6725619654
 11
24.7668058062
 21
55.4276112403
  0
LINE
  5
263
100
AcDbEntity
  8
0
100
AcDbLine
 62
7
  6
CONTINUOUS
 10
25.6291916115
 20
42.4807996043
 11
25.6291916115
 21
39.6230411443
  0
LINE
  5
264
100
AcDbEntity
  8
0
100
AcDbLine
 62
7
  6
CONTINUOUS
 10
25.6291916115
 20
29.4167609302
 11
25.6291916115
 21
26.5590024703
  0
LINE
  5
265
100
AcDbEntity
  8
0
100
AcDbLine
 62
7
  6
CONTINUOUS
 10
16.6350557428
 20
57.5290609082
 11
17.3421595801
 21
57.9373050621
  0
LINE
  5
266
100
AcDbEntity
  8
0
100
AcDbLine
 62
7
  6
CONTINUOUS
 10
18.419690143
 20
57.3152065752
 11
29.3629248127
 21
63.6332483439
  0
LINE
  5
267
100
AcDbEntity
  8
0
100
AcDbLine
 62
7
  6
CONTINUOUS
 10
21.1464040134
 20
57.7627546286
 11
23.0555843739
 21
58.865013844
  0
LINE
  5
268
100
AcDbEntity
  8
0
100
AcDbLine
 62
7
  6
CONTINUOUS
 10
23.4091362925
 20
59.0691359209
 11
32.4600654088
 21
64.2946610905
  0
LINE
  5
269
100
AcDbEntity
  8
0
100
AcDbLine
 62
7
  6
CONTINUOUS
 10
19.8564629998
 20
56.8745237097
 11
21.2085376025
 21
57.6551396859
  0
LINE
  5
26A
100
AcDbEntity
  8
0
100
AcDbLine
 62
7
  6
CONTINUOUS
 10
20.1564604077
 20
56.9462673406
 11
21.358536931
 21
57.6402824022
  0
LINE
  5
26B
100
AcDbEntity
  8
0
100
AcDbLine
 62
7
  6
CONTINUOUS
 10
27.0434110618
 20
41.6643180952
 11
25.6291916115
 21
42.4807996043
  0
LINE
  5
26C
100
AcDbEntity
  8
0
100
AcDbLine
 62
7
  6
CONTINUOUS
 10
10.7380604703
 20
51.0780036824
 11
9.32384102
 21
51.8944851915
  0
LINE
  5
26D
100
AcDbEntity
  8
0
100
AcDbLine
 62
7
  6
CONTINUOUS
 10
27.5383878694
 20
43.4198056099
 11
27.0434110618
 21
43.7055741381
  0
LINE
  5
26E
100
AcDbEntity
  8
0
100
AcDbLine
 62
7
  6
CONTINUOUS
 10
9.32384102
 20
53.9357412343
 11
8.8288642124
 21
54.2215097625
  0
LINE
  5
26F
100
AcDbEntity
  8
0
100
AcDbLine
 62
7
  6
CONTINUOUS
 10
20.1705749289
 20
60.5306308698
 11
20.1084379788
 21
60.6679610781
  0
LINE
  5
270
100
AcDbEntity
  8
0
100
AcDbLine
 62
7
  6
CONTINUOUS
 10
26.8881173178
 20
56.7339939436
 11
26.8881173178
 21
56.6523437019
  0
LINE
  5
271
100
AcDbEntity
  8
0
100
AcDbLine
 62
7
  6
CONTINUOUS
 10
27.0434110618
 20
43.7055741381
 11
27.0434110618
 21
41.6643180952
  0
LINE
  5
272
100
AcDbEntity
  8
0
100
AcDbLine
 62
7
  6
CONTINUOUS
 10
27.0434110618
 20
30.641535464
 11
27.0434110618
 21
28.6002794212
  0
LINE
  5
273
100
AcDbEntity
  8
0
100
AcDbLine
 62
7
  6
CONTINUOUS
 10
27.7296073304
 20
52.084112662
 11
27.7296073304
 21
43.4483045107
  0
LINE
  5
274
100
AcDbEntity
  8
0
100
AcDbLine
 62
7
  6
CONTINUOUS
 10
27.7296073304
 20
38.2714959869
 11
27.7296073304
 21
36.8155174617
  0
LINE
  5
275
100
AcDbEntity
  8
0
100
AcDbLine
 62
7
  6
CONTINUOUS
 10
27.7296073304
 20
31.1000005418
 11
27.7296073304
 21
30.3842658366
  0
LINE
  5
276
100
AcDbEntity
  8
0
100
AcDbLine
 62
7
  6
CONTINUOUS
 10
27.7296073304
 20
25.2074573128
 11
27.7296073304
 21
15.8314053415
  0
LINE
  5
277
100
AcDbEntity
  8
0
100
AcDbLine
 62
7
  6
CONTINUOUS
 10
27.7505031231
 20
27.7837349319
 11
27.7505031231
 21
29.0085167763
  0
LINE
  5
278
100
AcDbEntity
  8
0
100
AcDbLine
 62
7
  6
CONTINUOUS
 10
27.7505031231
 20
40.8477736059
 11
27.7505031231
 21
42.0725554504
  0
LINE
  5
279
100
AcDbEntity
  8
0
100
AcDbLine
 62
7
  6
CONTINUOUS
 10
28.2952904002
 20
31.4265958649
 11
28.2952904002
 21
37.1421127848
  0
LINE
  5
27A
100
AcDbEntity
  8
0
100
AcDbLine
 62
7
  6
CONTINUOUS
 10
8.6788766213
 20
36.2732936037
 11
8.6376447514
 21
36.2299576848
  0
LINE
  5
27B
100
AcDbEntity
  8
0
100
AcDbLine
 62
7
  6
CONTINUOUS
 10
10.7380604703
 20
50.5262225729
 11
8.678864884
 21
49.3373525434
  0
LINE
  5
27C
100
AcDbEntity
  8
0
100
AcDbLine
 62
7
  6
CONTINUOUS
 10
8.8288642124
 20
49.3224952597
 11
10.7380604703
 21
50.4247636535
  0
LINE
  5
27D
100
AcDbEntity
  8
0
100
AcDbLine
 62
7
  6
CONTINUOUS
 10
24.5546728886
 20
55.7950341918
 11
23.3525963654
 21
55.1010191302
  0
LINE
  5
27E
100
AcDbEntity
  8
0
100
AcDbLine
 62
7
  6
CONTINUOUS
 10
39.7503361167
 20
64.3232555859
 11
27.0295380852
 21
56.9789432578
  0
LINE
  5
27F
100
AcDbEntity
  8
0
100
AcDbLine
 62
7
  6
CONTINUOUS
 10
26.6759861666
 20
56.7748211809
 11
24.7668058062
 21
55.6725619654
  0
LINE
  5
280
100
AcDbEntity
  8
0
100
AcDbLine
 62
7
  6
CONTINUOUS
 10
29.1647225734
 20
29.8250118828
 11
29.1647225734
 21
31.1932671907
  0
LINE
  5
281
100
AcDbEntity
  8
0
100
AcDbLine
 62
7
  6
CONTINUOUS
 10
29.1647225734
 20
42.8890505569
 11
29.1647225734
 21
44.2573058648
  0
LINE
  5
282
100
AcDbEntity
  8
0
100
AcDbLine
 62
7
  6
CONTINUOUS
 10
29.3629248127
 20
63.6332483439
 11
29.3629248127
 21
66.0827555953
  0
LINE
  5
283
100
AcDbEntity
  8
0
100
AcDbLine
 62
7
  6
CONTINUOUS
 10
29.850918842
 20
26.4321897744
 11
29.850918842
 21
31.6089982982
  0
LINE
  5
284
100
AcDbEntity
  8
0
100
AcDbLine
 62
7
  6
CONTINUOUS
 10
29.850918842
 20
39.4962284485
 11
29.850918842
 21
44.6730369723
  0
LINE
  5
285
100
AcDbEntity
  8
0
100
AcDbLine
 62
7
  6
CONTINUOUS
 10
31.2651265165
 20
45.7561836558
 11
31.2651586981
 21
26.2416012689
  0
LINE
  5
286
100
AcDbEntity
  8
0
100
AcDbLine
 62
7
  6
CONTINUOUS
 10
31.2651265165
 20
54.2069836731
 11
31.2651265165
 21
54.1253334314
  0
LINE
  5
287
100
AcDbEntity
  8
0
100
AcDbLine
 62
7
  6
CONTINUOUS
 10
31.2651265165
 20
17.8726261109
 11
31.2651265165
 21
17.7909758691
  0
LINE
  5
288
100
AcDbEntity
  8
0
100
AcDbLine
 62
7
  6
CONTINUOUS
 10
23.3525981317
 20
54.6111229325
 11
24.7668058062
 21
55.4276112403
  0
LINE
  5
289
100
AcDbEntity
  8
0
100
AcDbLine
 62
7
  6
CONTINUOUS
 10
66.6022722554
 20
78.8545850647
 11
64.9939795516
 21
77.9260423819
  0
LINE
  5
28A
100
AcDbEntity
  8
0
100
AcDbLine
 62
7
  6
CONTINUOUS
 10
24.0597019689
 20
54.2828944177
 11
23.3525981317
 21
53.8746502639
  0
LINE
  5
28B
100
AcDbEntity
  8
0
100
AcDbLine
 62
7
  6
CONTINUOUS
 10
24.2727625633
 20
53.5910223511
 11
39.7503361167
 21
62.5269502683
  0
LINE
  5
28C
100
AcDbEntity
  8
0
100
AcDbLine
 62
7
  6
CONTINUOUS
 10
25.0177404557
 20
53.6050059542
 11
25.724844293
 21
54.0132501081
  0
LINE
  5
28D
100
AcDbEntity
  8
0
100
AcDbLine
 62
7
  6
CONTINUOUS
 10
24.7668117756
 20
53.0720834462
 11
24.7561493315
 21
53.065927518
  0
LINE
  5
28E
100
AcDbEntity
  8
0
100
AcDbLine
 62
7
  6
CONTINUOUS
 10
25.8274804034
 20
53.6721764894
 11
26.3224530894
 21
53.9579473971
  0
LINE
  5
28F
100
AcDbEntity
  8
0
100
AcDbLine
 62
7
  6
CONTINUOUS
 10
27.1568425651
 20
53.4762233067
 11
29.7731267628
 21
54.9867266761
  0
LINE
  5
290
100
AcDbEntity
  8
0
100
AcDbLine
 62
7
  6
CONTINUOUS
 10
30.1266786814
 20
55.190848753
 11
42.8474767129
 21
62.5351610811
  0
LINE
  5
291
100
AcDbEntity
  8
0
100
AcDbLine
 62
7
  6
CONTINUOUS
 10
25.0591685577
 20
53.6258563274
 11
25.0178523781
 21
53.6048122907
  0
LINE
  5
292
100
AcDbEntity
  8
0
100
AcDbLine
 62
7
  6
CONTINUOUS
 10
31.3061495479
 20
45.6651359314
 11
31.4065472839
 21
45.6757406183
  0
LINE
  5
293
100
AcDbEntity
  8
0
100
AcDbLine
 62
7
  6
CONTINUOUS
 10
37.6704856848
 20
45.8686922957
 11
37.7704818188
 21
45.8785941152
  0
LINE
  5
294
100
AcDbEntity
  8
0
100
AcDbLine
 62
7
  6
CONTINUOUS
 10
16.6350557428
 20
57.5290609082
 11
19.732196339
 21
55.7409664034
  0
LINE
  5
295
100
AcDbEntity
  8
0
100
AcDbLine
 62
7
  6
CONTINUOUS
 10
37.6704835155
 20
45.8686885383
 11
34.7061574541
 21
47.5801042705
  0
LINE
  5
296
100
AcDbEntity
  8
0
100
AcDbLine
 62
7
  6
CONTINUOUS
 10
37.6290610514
 20
45.9602457679
 11
34.7647484997
 21
47.6139199795
  0
LINE
  5
297
100
AcDbEntity
  8
0
100
AcDbLine
 62
7
  6
CONTINUOUS
 10
31.2651265171
 20
45.7558000661
 11
31.3061495479
 21
45.6651359314
  0
LINE
  5
298
100
AcDbEntity
  8
0
100
AcDbLine
 62
7
  6
CONTINUOUS
 10
26.8881173178
 20
56.6523437019
 11
26.8259803677
 21
56.7896739102
  0
LINE
  5
299
100
AcDbEntity
  8
0
100
AcDbLine
 62
7
  6
CONTINUOUS
 10
64.7111380167
 20
73.6802326346
 11
31.4065472839
 21
54.4519329873
  0
LINE
  5
29A
100
AcDbEntity
  8
0
100
AcDbLine
 62
7
  6
CONTINUOUS
 10
31.0529953653
 20
54.2478109104
 11
27.9417384816
 21
52.4515366333
  0
LINE
  5
29B
100
AcDbEntity
  8
0
100
AcDbLine
 62
7
  6
CONTINUOUS
 10
37.4876402839
 20
49.1854317265
 11
37.587636418
 21
49.195333546
  0
LINE
  5
29C
100
AcDbEntity
  8
0
100
AcDbLine
 62
7
  6
CONTINUOUS
 10
17.3421595801
 20
57.9373050621
 11
19.732196339
 21
56.5574479125
  0
LINE
  5
29D
100
AcDbEntity
  8
0
100
AcDbLine
 62
7
  6
CONTINUOUS
 10
8.6376447514
 20
63.1066130341
 11
16.6350557428
 21
58.4894101005
  0
LINE
  5
29E
100
AcDbEntity
  8
0
100
AcDbLine
 62
7
  6
CONTINUOUS
 10
19.732196339
 20
56.7013155957
 11
23.3525981317
 21
54.6111229325
  0
LINE
  5
29F
100
AcDbEntity
  8
0
100
AcDbLine
 62
7
  6
CONTINUOUS
 10
25.0591685577
 20
53.6258563274
 11
27.7296073304
 21
52.084112662
  0
LINE
  5
2A0
100
AcDbEntity
  8
0
100
AcDbLine
 62
7
  6
CONTINUOUS
 10
27.9417384816
 20
52.4515366333
 11
25.8274804034
 21
53.6721764894
  0
LINE
  5
2A1
100
AcDbEntity
  8
0
100
AcDbLine
 62
7
  6
CONTINUOUS
 10
23.3525963654
 20
55.1010191302
 11
20.1564604077
 21
56.9462673406
  0
LINE
  5
2A2
100
AcDbEntity
  8
0
100
AcDbLine
 62
7
  6
CONTINUOUS
 10
16.6350539765
 20
58.9793062981
 11
8.8497759026
 21
63.4740370054
  0
LINE
  5
2A3
100
AcDbEntity
  8
0
100
AcDbLine
 62
7
  6
CONTINUOUS
 10
10.5539062186
 20
63.0617162229
 11
13.7217577873
 21
61.2327976426
  0
LINE
  5
2A4
100
AcDbEntity
  8
0
100
AcDbLine
 62
7
  6
CONTINUOUS
 10
26.3224530894
 20
53.9579473971
 11
27.1568425651
 21
53.4762233067
  0
LINE
  5
2A5
100
AcDbEntity
  8
0
100
AcDbLine
 62
7
  6
CONTINUOUS
 10
47.7420046037
 20
41.8391609954
 11
47.0419659758
 21
42.2433193424
  0
LINE
  5
2A6
100
AcDbEntity
  8
0
100
AcDbLine
 62
7
  6
CONTINUOUS
 10
24.7668058062
 20
55.6725619654
 11
24.5546728886
 21
55.7950341918
  0
LINE
  5
2A7
100
AcDbEntity
  8
0
100
AcDbLine
 62
7
  6
CONTINUOUS
 10
21.358536931
 20
57.6402824022
 11
21.1464040134
 21
57.7627546286
  0
LINE
  5
2A8
100
AcDbEntity
  8
0
100
AcDbLine
 62
7
  6
CONTINUOUS
 10
18.0492634173
 20
59.5508491334
 11
17.8371304997
 21
59.6733213597
  0
LINE
  5
2A9
100
AcDbEntity
  8
0
100
AcDbLine
 62
7
  6
CONTINUOUS
 10
64.8939812483
 20
33.0085038628
 11
61.3997924904
 21
35.0258290448
  0
LINE
  5
2AA
100
AcDbEntity
  8
0
100
AcDbLine
 62
7
  6
CONTINUOUS
 10
64.8525587841
 20
33.1000610924
 11
61.458373451
 21
35.0596505763
  0
LINE
  5
2AB
100
AcDbEntity
  8
0
100
AcDbLine
 62
7
  6
CONTINUOUS
 10
37.4876384733
 20
49.1854285902
 11
37.6290610514
 21
49.1037800738
  0
LINE
  5
2AC
100
AcDbEntity
  8
0
100
AcDbLine
 62
7
  6
CONTINUOUS
 10
31.2651265165
 20
54.1253334314
 11
31.2029895664
 21
54.2626636397
  0
LINE
  5
2AD
100
AcDbEntity
  8
0
100
AcDbLine
 62
7
  6
CONTINUOUS
 10
37.6290610514
 20
45.9602457679
 11
37.6704856848
 21
45.8686922957
  0
LINE
  5
2AE
100
AcDbEntity
  8
0
100
AcDbLine
 62
7
  6
CONTINUOUS
 10
37.6290610514
 20
30.2425742381
 11
37.6290610514
 21
33.3861085441
  0
LINE
  5
2AF
100
AcDbEntity
  8
0
100
AcDbLine
 62
7
  6
CONTINUOUS
 10
37.6290610514
 20
45.9602457679
 11
37.6290610514
 21
49.1037800738
  0
LINE
  5
2B0
100
AcDbEntity
  8
0
100
AcDbLine
 62
7
  6
CONTINUOUS
 10
27.6883754605
 20
43.4049685918
 11
27.7296073304
 21
43.4483045107
  0
LINE
  5
2B1
100
AcDbEntity
  8
0
100
AcDbLine
 62
7
  6
CONTINUOUS
 10
29.850918842
 20
44.6730369723
 11
29.8096872107
 21
44.6297006427
  0
LINE
  5
2B2
100
AcDbEntity
  8
0
100
AcDbLine
 62
7
  6
CONTINUOUS
 10
12.3146153222
 20
40.8161514075
 11
12.880298392
 21
41.1427467306
  0
LINE
  5
2B3
100
AcDbEntity
  8
0
100
AcDbLine
 62
7
  6
CONTINUOUS
 10
64.1454549469
 20
69.2711252259
 11
64.8525587841
 21
69.6793693798
  0
LINE
  5
2B4
100
AcDbEntity
  8
0
100
AcDbLine
 62
7
  6
CONTINUOUS
 10
57.0744165748
 20
64.3721812701
 11
64.1454549469
 21
68.4546228088
  0
LINE
  5
2B5
100
AcDbEntity
  8
0
100
AcDbLine
 62
7
  6
CONTINUOUS
 10
57.0779581718
 20
64.3660470074
 11
63.445416319
 21
68.0422787386
  0
LINE
  5
2B6
100
AcDbEntity
  8
0
100
AcDbLine
 62
7
  6
CONTINUOUS
 10
10.7380604703
 20
37.4621838988
 11
8.678864884
 21
36.2733138693
  0
LINE
  5
2B7
100
AcDbEntity
  8
0
100
AcDbLine
 62
7
  6
CONTINUOUS
 10
8.8288642124
 20
36.2584565856
 11
10.7380604703
 21
37.3607249794
  0
LINE
  5
2B8
100
AcDbEntity
  8
0
100
AcDbLine
 62
7
  6
CONTINUOUS
 10
64.1454549469
 20
67.6381203917
 11
57.0744165748
 21
63.5556788529
  0
LINE
  5
2B9
100
AcDbEntity
  8
0
100
AcDbLine
 62
7
  6
CONTINUOUS
 10
66.9738702958
 20
42.3265172419
 11
64.8525587841
 21
43.107163531
  0
LINE
  5
2BA
100
AcDbEntity
  8
0
100
AcDbLine
 62
7
  6
CONTINUOUS
 10
64.1525201562
 20
43.511321878
 11
66.2738316679
 21
42.7306755888
  0
LINE
  5
2BB
100
AcDbEntity
  8
0
100
AcDbLine
 62
7
  6
CONTINUOUS
 10
11.9610327863
 20
65.2703112824
 11
13.1701904163
 21
64.5722195922
  0
LINE
  5
2BC
100
AcDbEntity
  8
0
100
AcDbLine
 62
7
  6
CONTINUOUS
 10
16.338041985
 20
62.7433010119
 11
19.9584437777
 21
60.6531083488
  0
LINE
  5
2BD
100
AcDbEntity
  8
0
100
AcDbLine
 62
7
  6
CONTINUOUS
 10
23.0555843739
 20
58.865013844
 11
26.6759861666
 21
56.7748211809
  0
LINE
  5
2BE
100
AcDbEntity
  8
0
100
AcDbLine
 62
7
  6
CONTINUOUS
 10
29.7731267628
 20
54.9867266761
 11
31.0529953653
 21
54.2478109104
  0
LINE
  5
2BF
100
AcDbEntity
  8
0
100
AcDbLine
 62
7
  6
CONTINUOUS
 10
31.2029928202
 20
54.2626692757
 11
29.9231242177
 21
55.0015850414
  0
LINE
  5
2C0
100
AcDbEntity
  8
0
100
AcDbLine
 62
7
  6
CONTINUOUS
 10
26.8259836216
 20
56.7896795462
 11
23.2055818288
 21
58.8798722094
  0
LINE
  5
2C1
100
AcDbEntity
  8
0
100
AcDbLine
 62
7
  6
CONTINUOUS
 10
20.1084412327
 20
60.6679667142
 11
16.4880394399
 21
62.7581593773
  0
LINE
  5
2C2
100
AcDbEntity
  8
0
100
AcDbLine
 62
7
  6
CONTINUOUS
 10
13.3201878713
 20
64.5870779576
 11
12.1110302413
 21
65.2851696478
  0
LINE
  5
2C3
100
AcDbEntity
  8
0
100
AcDbLine
 62
7
  6
CONTINUOUS
 10
31.4065472839
 20
54.4519329873
 11
30.1266786814
 21
55.190848753
  0
LINE
  5
2C4
100
AcDbEntity
  8
0
100
AcDbLine
 62
7
  6
CONTINUOUS
 10
27.0295380852
 20
56.9789432578
 11
23.4091362925
 21
59.0691359209
  0
LINE
  5
2C5
100
AcDbEntity
  8
0
100
AcDbLine
 62
7
  6
CONTINUOUS
 10
20.3119956963
 20
60.8572304257
 11
16.6915939036
 21
62.9474230889
  0
LINE
  5
2C6
100
AcDbEntity
  8
0
100
AcDbLine
 62
7
  6
CONTINUOUS
 10
13.5237423349
 20
64.7763416691
 11
12.3145847049
 21
65.4744333594
  0
LINE
  5
2C7
100
AcDbEntity
  8
0
100
AcDbLine
 62
7
  6
CONTINUOUS
 10
50.0483525417
 20
44.6192221687
 11
54.4929401134
 21
42.0531963891
  0
LINE
  5
2C8
100
AcDbEntity
  8
0
100
AcDbLine
 62
7
  6
CONTINUOUS
 10
64.711136206
 20
36.9376207277
 11
64.8525587841
 21
36.8559722113
  0
LINE
  5
2C9
100
AcDbEntity
  8
0
100
AcDbLine
 62
7
  6
CONTINUOUS
 10
37.587636418
 20
49.195333546
 11
37.6290610514
 21
49.1037800738
  0
LINE
  5
2CA
100
AcDbEntity
  8
0
100
AcDbLine
 62
7
  6
CONTINUOUS
 10
39.7503361167
 20
62.5269502683
 11
39.7503361167
 21
64.3232555859
  0
LINE
  5
2CB
100
AcDbEntity
  8
0
100
AcDbLine
 62
7
  6
CONTINUOUS
 10
39.0432687258
 20
34.3658973352
 11
39.0439497055
 21
46.6146130901
  0
LINE
  5
2CC
100
AcDbEntity
  8
0
100
AcDbLine
 62
7
  6
CONTINUOUS
 10
29.850918842
 20
44.6730369723
 11
27.7296073304
 21
43.4483045107
  0
LINE
  5
2CD
100
AcDbEntity
  8
0
100
AcDbLine
 62
7
  6
CONTINUOUS
 10
27.6883871979
 20
43.4049483262
 11
29.8096987095
 21
44.6296807878
  0
LINE
  5
2CE
100
AcDbEntity
  8
0
100
AcDbLine
 62
7
  6
CONTINUOUS
 10
37.4876402839
 20
49.1854317265
 11
31.4065472839
 21
45.6757406183
  0
LINE
  5
2CF
100
AcDbEntity
  8
0
100
AcDbLine
 62
7
  6
CONTINUOUS
 10
31.2029895664
 20
54.2626636397
 11
31.0529953653
 21
54.2478109104
  0
LINE
  5
2D0
100
AcDbEntity
  8
0
100
AcDbLine
 62
7
  6
CONTINUOUS
 10
29.7731267628
 20
54.9867266761
 11
29.9231209638
 21
55.0015794054
  0
LINE
  5
2D1
100
AcDbEntity
  8
0
100
AcDbLine
 62
7
  6
CONTINUOUS
 10
21.2085408564
 20
57.6551340499
 11
21.358536931
 21
57.6402824022
  0
LINE
  5
2D2
100
AcDbEntity
  8
0
100
AcDbLine
 62
7
  6
CONTINUOUS
 10
64.8525587841
 20
41.1017847803
 11
64.1525201562
 21
41.5059431272
  0
LINE
  5
2D3
100
AcDbEntity
  8
0
100
AcDbLine
 62
7
  6
CONTINUOUS
 10
64.1454549469
 20
41.5100430435
 11
63.445416319
 21
41.9142013905
  0
LINE
  5
2D4
100
AcDbEntity
  8
0
100
AcDbLine
 62
7
  6
CONTINUOUS
 10
39.0439497055
 20
46.6146130901
 11
37.7704818188
 21
45.8785941152
  0
LINE
  5
2D5
100
AcDbEntity
  8
0
100
AcDbLine
 62
7
  6
CONTINUOUS
 10
63.9403923903
 20
63.2004275676
 11
64.0040330019
 21
63.2371702725
  0
LINE
  5
2D6
100
AcDbEntity
  8
0
100
AcDbLine
 62
7
  6
CONTINUOUS
 10
47.7420046037
 20
53.6784460438
 11
63.7919030283
 21
62.9432350205
  0
LINE
  5
2D7
100
AcDbEntity
  8
0
100
AcDbLine
 62
7
  6
CONTINUOUS
 10
27.0434110618
 20
41.6643180952
 11
29.1647225734
 21
42.8890505569
  0
LINE
  5
2D8
100
AcDbEntity
  8
0
100
AcDbLine
 62
7
  6
CONTINUOUS
 10
18.5371809035
 20
36.4071303506
 11
19.1028639733
 21
36.7337256737
  0
LINE
  5
2D9
100
AcDbEntity
  8
0
100
AcDbLine
 62
7
  6
CONTINUOUS
 10
25.6291916115
 20
39.6230411443
 11
27.7505031231
 21
40.8477736059
  0
LINE
  5
2DA
100
AcDbEntity
  8
0
100
AcDbLine
 62
7
  6
CONTINUOUS
 10
26.8259803677
 20
56.7896739102
 11
26.6759861666
 21
56.7748211809
  0
LINE
  5
2DB
100
AcDbEntity
  8
0
100
AcDbLine
 62
7
  6
CONTINUOUS
 10
64.8525587841
 20
43.107163531
 11
64.1525201562
 21
43.511321878
  0
LINE
  5
2DC
100
AcDbEntity
  8
0
100
AcDbLine
 62
7
  6
CONTINUOUS
 10
29.3629248127
 20
63.6332483439
 11
30.3386995757
 21
63.0698972665
  0
LINE
  5
2DD
100
AcDbEntity
  8
0
100
AcDbLine
 62
7
  6
CONTINUOUS
 10
66.9738702958
 20
42.3265172419
 11
66.2738316679
 21
42.7306755888
  0
LINE
  5
2DE
100
AcDbEntity
  8
0
100
AcDbLine
 62
7
  6
CONTINUOUS
 10
22.5746714513
 20
68.205561521
 11
24.1868547423
 21
67.2747881209
  0
LINE
  5
2DF
100
AcDbEntity
  8
0
100
AcDbLine
 62
7
  6
CONTINUOUS
 10
61.677656726
 20
46.2008567172
 11
62.2362734088
 21
45.8783465211
  0
LINE
  5
2E0
100
AcDbEntity
  8
0
100
AcDbLine
 62
7
  6
CONTINUOUS
 10
45.7605962052
 20
88.7035934397
 11
45.7605962052
 21
84.9476823209
  0
LINE
  5
2E1
100
AcDbEntity
  8
0
100
AcDbLine
 62
7
  6
CONTINUOUS
 10
44.9135892549
 20
47.5547061341
 11
44.9108718945
 21
40.2014777476
  0
LINE
  5
2E2
100
AcDbEntity
  8
0
100
AcDbLine
 62
7
  6
CONTINUOUS
 10
27.6883754605
 20
30.3409299177
 11
27.7296073304
 21
30.3842658366
  0
LINE
  5
2E3
100
AcDbEntity
  8
0
100
AcDbLine
 62
7
  6
CONTINUOUS
 10
29.850918842
 20
31.6089982982
 11
29.8096872107
 21
31.5656619686
  0
LINE
  5
2E4
100
AcDbEntity
  8
0
100
AcDbLine
 62
7
  6
CONTINUOUS
 10
29.659699381
 20
39.7455235687
 11
27.5383878694
 21
38.5207911071
  0
LINE
  5
2E5
100
AcDbEntity
  8
0
100
AcDbLine
 62
7
  6
CONTINUOUS
 10
27.7296073304
 20
38.2714959869
 11
29.850918842
 21
39.4962284485
  0
LINE
  5
2E6
100
AcDbEntity
  8
0
100
AcDbLine
 62
7
  6
CONTINUOUS
 10
47.7420046037
 20
49.1876827496
 11
44.9135892549
 21
47.5547061341
  0
LINE
  5
2E7
100
AcDbEntity
  8
0
100
AcDbLine
 62
7
  6
CONTINUOUS
 10
28.2952904002
 20
37.1421127848
 11
27.7296073304
 21
36.8155174617
  0
LINE
  5
2E8
100
AcDbEntity
  8
0
100
AcDbLine
 62
7
  6
CONTINUOUS
 10
23.0555843739
 20
58.865013844
 11
23.205578575
 21
58.8798665733
  0
LINE
  5
2E9
100
AcDbEntity
  8
0
100
AcDbLine
 62
7
  6
CONTINUOUS
 10
20.1084379788
 20
60.6679610781
 11
19.9584437777
 21
60.6531083488
  0
LINE
  5
2EA
100
AcDbEntity
  8
0
100
AcDbLine
 62
7
  6
CONTINUOUS
 10
32.4600654088
 20
64.2946610905
 11
29.3629248127
 21
66.0827555953
  0
LINE
  5
2EB
100
AcDbEntity
  8
0
100
AcDbLine
 62
7
  6
CONTINUOUS
 10
25.7425230199
 20
68.1729482584
 11
22.5746714513
 21
70.0018668387
  0
LINE
  5
2EC
100
AcDbEntity
  8
0
100
AcDbLine
 62
7
  6
CONTINUOUS
 10
64.1454549469
 20
46.4090575463
 11
63.6504810833
 21
46.6948348288
  0
LINE
  5
2ED
100
AcDbEntity
  8
0
100
AcDbLine
 62
7
  6
CONTINUOUS
 10
39.7503361167
 20
62.5269502683
 11
41.2918084352
 21
61.6370009436
  0
LINE
  5
2EE
100
AcDbEntity
  8
0
100
AcDbLine
 62
7
  6
CONTINUOUS
 10
47.7420046037
 20
53.6784460438
 11
47.7420046037
 21
49.1876827496
  0
LINE
  5
2EF
100
AcDbEntity
  8
0
100
AcDbLine
 62
7
  6
CONTINUOUS
 10
47.7420046037
 20
41.8391609954
 11
47.7420046037
 21
37.3483977012
  0
LINE
  5
2F0
100
AcDbEntity
  8
0
100
AcDbLine
 62
7
  6
CONTINUOUS
 10
48.0234816294
 20
38.3192309924
 11
48.0234816294
 21
53.8409559103
  0
LINE
  5
2F1
100
AcDbEntity
  8
0
100
AcDbLine
 62
7
  6
CONTINUOUS
 10
50.7104820398
 20
33.75340412
 11
50.7104820398
 21
34.5699065371
  0
LINE
  5
2F2
100
AcDbEntity
  8
0
100
AcDbLine
 62
7
  6
CONTINUOUS
 10
16.338041985
 20
62.7433010119
 11
16.4880361861
 21
62.7581537413
  0
LINE
  5
2F3
100
AcDbEntity
  8
0
100
AcDbLine
 62
7
  6
CONTINUOUS
 10
42.8474767129
 20
62.5351610811
 11
39.7503361167
 21
64.3232555859
  0
LINE
  5
2F4
100
AcDbEntity
  8
0
100
AcDbLine
 62
7
  6
CONTINUOUS
 10
64.8525587841
 20
67.673990629
 11
66.9738702958
 21
70.9041018414
  0
LINE
  5
2F5
100
AcDbEntity
  8
0
100
AcDbLine
 62
7
  6
CONTINUOUS
 10
47.0419659758
 20
42.2433193424
 11
44.9111709583
 21
41.0107500271
  0
LINE
  5
2F6
100
AcDbEntity
  8
0
100
AcDbLine
 62
7
  6
CONTINUOUS
 10
44.9108718945
 20
40.2014777476
 11
47.7420046037
 21
41.8391609954
  0
LINE
  5
2F7
100
AcDbEntity
  8
0
100
AcDbLine
 62
7
  6
CONTINUOUS
 10
59.0816860839
 20
49.8345885895
 11
48.0234816294
 21
43.4501693807
  0
LINE
  5
2F8
100
AcDbEntity
  8
0
100
AcDbLine
 62
7
  6
CONTINUOUS
 10
27.7296073304
 20
31.1000005418
 11
28.2952904002
 21
31.4265958649
  0
LINE
  5
2F9
100
AcDbEntity
  8
0
100
AcDbLine
 62
7
  6
CONTINUOUS
 10
29.850918842
 20
31.6089982982
 11
27.7296073304
 21
30.3842658366
  0
LINE
  5
2FA
100
AcDbEntity
  8
0
100
AcDbLine
 62
7
  6
CONTINUOUS
 10
27.6883871979
 20
30.3409096521
 11
29.8096987095
 21
31.5656421137
  0
LINE
  5
2FB
100
AcDbEntity
  8
0
100
AcDbLine
 62
7
  6
CONTINUOUS
 10
27.0434110618
 20
28.6002794212
 11
29.1647225734
 21
29.8250118828
  0
LINE
  5
2FC
100
AcDbEntity
  8
0
100
AcDbLine
 62
7
  6
CONTINUOUS
 10
17.4667544297
 20
22.7168813744
 11
16.6350557428
 21
22.2367027799
  0
LINE
  5
2FD
100
AcDbEntity
  8
0
100
AcDbLine
 62
7
  6
CONTINUOUS
 10
17.5546253533
 20
22.6661502207
 11
16.6350552255
 21
22.135239329
  0
LINE
  5
2FE
100
AcDbEntity
  8
0
100
AcDbLine
 62
7
  6
CONTINUOUS
 10
13.3201846174
 20
64.5870723215
 11
13.1701904163
 21
64.5722195922
  0
LINE
  5
2FF
100
AcDbEntity
  8
0
100
AcDbLine
 62
7
  6
CONTINUOUS
 10
11.9610327863
 20
65.2703112824
 11
12.1110269874
 21
65.2851640118
  0
LINE
  5
300
100
AcDbEntity
  8
0
100
AcDbLine
 62
7
  6
CONTINUOUS
 10
57.0744165748
 20
63.5556788529
 11
57.0744165748
 21
64.3721812701
  0
LINE
  5
301
100
AcDbEntity
  8
0
100
AcDbLine
 62
7
  6
CONTINUOUS
 10
63.7919030283
 20
62.9432350205
 11
64.1454549469
 21
63.555608306
  0
LINE
  5
302
100
AcDbEntity
  8
0
100
AcDbLine
 62
7
  6
CONTINUOUS
 10
37.7704818188
 20
33.6310578583
 11
39.0432687258
 21
34.3658973352
  0
LINE
  5
303
100
AcDbEntity
  8
0
100
AcDbLine
 62
7
  6
CONTINUOUS
 10
25.6291916115
 20
26.5590024703
 11
27.7505031231
 21
27.7837349319
  0
LINE
  5
304
100
AcDbEntity
  8
0
100
AcDbLine
 62
7
  6
CONTINUOUS
 10
47.7420046037
 20
38.1567211259
 11
61.677656726
 21
46.2008567172
  0
LINE
  5
305
100
AcDbEntity
  8
0
100
AcDbLine
 62
7
  6
CONTINUOUS
 10
62.2362734088
 20
45.8783465211
 11
63.6504810833
 21
46.6948348288
  0
LINE
  5
306
100
AcDbEntity
  8
0
100
AcDbLine
 62
7
  6
CONTINUOUS
 10
63.6575521216
 20
46.6907522462
 11
64.0040330019
 21
46.8907918816
  0
LINE
  5
307
100
AcDbEntity
  8
0
100
AcDbLine
 62
7
  6
CONTINUOUS
 10
63.7919030283
 20
46.6131866779
 11
47.7420046037
 21
37.3483977012
  0
LINE
  5
308
100
AcDbEntity
  8
0
100
AcDbLine
 62
7
  6
CONTINUOUS
 10
29.659699381
 20
26.6814848947
 11
27.5383878694
 21
25.456752433
  0
LINE
  5
309
100
AcDbEntity
  8
0
100
AcDbLine
 62
7
  6
CONTINUOUS
 10
27.7296073304
 20
25.2074573128
 11
29.850918842
 21
26.4321897744
  0
LINE
  5
30A
100
AcDbEntity
  8
0
100
AcDbLine
 62
7
  6
CONTINUOUS
 10
64.8525587841
 20
33.1000610924
 11
64.8939834175
 21
33.0085076202
  0
LINE
  5
30B
100
AcDbEntity
  8
0
100
AcDbLine
 62
7
  6
CONTINUOUS
 10
64.8111341507
 20
36.9475256835
 11
64.8525587841
 21
36.8559722113
  0
LINE
  5
30C
100
AcDbEntity
  8
0
100
AcDbLine
 62
7
  6
CONTINUOUS
 10
31.4065472839
 20
26.4867252006
 11
37.4876402839
 21
29.9976249239
  0
LINE
  5
30D
100
AcDbEntity
  8
0
100
AcDbLine
 62
7
  6
CONTINUOUS
 10
23.3525981317
 20
19.0948882806
 11
24.0597019689
 21
19.5031324345
  0
LINE
  5
30E
100
AcDbEntity
  8
0
100
AcDbLine
 62
7
  6
CONTINUOUS
 10
50.7104820398
 20
34.5699065371
 11
64.1454549469
 21
42.3265454606
  0
LINE
  5
30F
100
AcDbEntity
  8
0
100
AcDbLine
 62
7
  6
CONTINUOUS
 10
50.7140236369
 20
34.5637722744
 11
63.445416319
 21
41.9142013905
  0
LINE
  5
310
100
AcDbEntity
  8
0
100
AcDbLine
 62
7
  6
CONTINUOUS
 10
63.9722122887
 20
63.2555415542
 11
64.0040330019
 21
63.2371702725
  0
LINE
  5
311
100
AcDbEntity
  8
0
100
AcDbLine
 62
7
  6
CONTINUOUS
 10
62.2362734088
 20
45.8783465211
 11
62.2362734088
 21
62.0451823333
  0
LINE
  5
312
100
AcDbEntity
  8
0
100
AcDbLine
 62
7
  6
CONTINUOUS
 10
24.5007719108
 20
19.0213100954
 11
23.3525981317
 21
18.358415612
  0
LINE
  5
313
100
AcDbEntity
  8
0
100
AcDbLine
 62
7
  6
CONTINUOUS
 10
24.5519490445
 20
18.9493938988
 11
23.3525976144
 21
18.256952161
  0
LINE
  5
314
100
AcDbEntity
  8
0
100
AcDbLine
 62
7
  6
CONTINUOUS
 10
64.1454549469
 20
41.5100430435
 11
50.7104820398
 21
33.75340412
  0
LINE
  5
315
100
AcDbEntity
  8
0
100
AcDbLine
 62
7
  6
CONTINUOUS
 10
64.8525587841
 20
41.1017847803
 11
64.1454549469
 21
40.6935406264
  0
LINE
  5
316
100
AcDbEntity
  8
0
100
AcDbLine
 62
7
  6
CONTINUOUS
 10
64.0040330019
 20
46.8907918816
 11
64.0040330019
 21
63.2371702725
  0
LINE
  5
317
100
AcDbEntity
  8
0
100
AcDbLine
 62
7
  6
CONTINUOUS
 10
64.1454549469
 20
40.6935406264
 11
64.1454549469
 21
41.5100430435
  0
LINE
  5
318
100
AcDbEntity
  8
0
100
AcDbLine
 62
7
  6
CONTINUOUS
 10
64.1454549469
 20
42.3265454606
 11
64.1454549469
 21
46.4090575463
  0
LINE
  5
319
100
AcDbEntity
  8
0
100
AcDbLine
 62
7
  6
CONTINUOUS
 10
64.1454549469
 20
63.555608306
 11
64.1454549469
 21
67.6381203917
  0
LINE
  5
31A
100
AcDbEntity
  8
0
100
AcDbLine
 62
7
  6
CONTINUOUS
 10
64.1454549469
 20
68.4546228088
 11
64.1454549469
 21
69.2711252259
  0
LINE
  5
31B
100
AcDbEntity
  8
0
100
AcDbLine
 62
7
  6
CONTINUOUS
 10
64.1525201562
 20
41.5059431272
 11
64.1525201562
 21
43.511321878
  0
LINE
  5
31C
100
AcDbEntity
  8
0
100
AcDbLine
 62
7
  6
CONTINUOUS
 10
64.1525201562
 20
68.078148976
 11
64.1525201562
 21
69.2711252259
  0
LINE
  5
31D
100
AcDbEntity
  8
0
100
AcDbLine
 62
7
  6
CONTINUOUS
 10
64.8525587841
 20
77.6810930677
 11
64.8525587842
 21
73.9251819488
  0
LINE
  5
31E
100
AcDbEntity
  8
0
100
AcDbLine
 62
7
  6
CONTINUOUS
 10
64.8525587841
 20
69.6793693798
 11
64.8525587841
 21
67.673990629
  0
LINE
  5
31F
100
AcDbEntity
  8
0
100
AcDbLine
 62
7
  6
CONTINUOUS
 10
64.8525587841
 20
43.107163531
 11
64.8525587841
 21
41.1017847803
  0
LINE
  5
320
100
AcDbEntity
  8
0
100
AcDbLine
 62
7
  6
CONTINUOUS
 10
64.8525587841
 20
36.8559722113
 11
64.8525587841
 21
33.1000610924
  0
LINE
  5
321
100
AcDbEntity
  8
0
100
AcDbLine
 62
7
  6
CONTINUOUS
 10
27.9417384816
 20
15.7089278625
 11
31.0529953653
 21
17.5052021396
  0
LINE
  5
322
100
AcDbEntity
  8
0
100
AcDbLine
 62
7
  6
CONTINUOUS
 10
31.4065472839
 20
17.7093242165
 11
64.7111380167
 21
36.9376238639
  0
LINE
  5
323
100
AcDbEntity
  8
0
100
AcDbLine
 62
7
  6
CONTINUOUS
 10
64.1454549469
 20
67.6381203917
 11
63.445416319
 21
68.0422787386
  0
LINE
  5
324
100
AcDbEntity
  8
0
100
AcDbLine
 62
7
  6
CONTINUOUS
 10
64.8525587841
 20
67.673990629
 11
64.1525201562
 21
68.078148976
  0
LINE
  5
325
100
AcDbEntity
  8
0
100
AcDbLine
 62
7
  6
CONTINUOUS
 10
66.9738702958
 20
74.9866139271
 11
66.6022722554
 21
78.8545850647
  0
LINE
  5
326
100
AcDbEntity
  8
0
100
AcDbLine
 62
7
  6
CONTINUOUS
 10
66.9738702958
 20
38.2440051562
 11
66.9738702958
 21
42.3265172419
  0
LINE
  5
327
100
AcDbEntity
  8
0
100
AcDbLine
 62
7
  6
CONTINUOUS
 10
66.9738702958
 20
70.9041018414
 11
66.9738702958
 21
74.9866139271
  0
LINE
  5
328
100
AcDbEntity
  8
0
100
AcDbLine
 62
7
  6
CONTINUOUS
 10
66.6022722554
 20
33.9469521226
 11
66.9738702958
 21
38.2440051562
  0
LINE
  5
329
100
AcDbEntity
  8
0
100
AcDbLine
 62
7
  6
CONTINUOUS
 10
64.9939795516
 20
33.0184094397
 11
66.6022722554
 21
33.9469521226
  0
LINE
  5
32A
100
AcDbEntity
  8
0
100
AcDbLine
 62
7
  6
CONTINUOUS
 10
45.6191754377
 20
84.7027330066
 11
64.7111380167
 21
73.6802326346
  0
LINE
  5
32B
100
AcDbEntity
  8
0
100
AcDbLine
 62
7
  6
CONTINUOUS
 10
64.8525587842
 20
73.9251819488
 11
45.7605962052
 21
84.9476823209
  0
LINE
  5
32C
100
AcDbEntity
  8
0
100
AcDbLine
 62
7
  6
CONTINUOUS
 10
45.7605962052
 20
88.7035934397
 11
64.8525587841
 21
77.6810930677
  0
LINE
  5
32D
100
AcDbEntity
  8
0
100
AcDbLine
 62
7
  6
CONTINUOUS
 10
64.9939795516
 20
77.9260423819
 11
45.9020169726
 21
88.9485427539
  0
LINE
  5
32E
100
AcDbEntity
  8
0
100
AcDbLine
 62
7
  6
CONTINUOUS
 10
66.6022722554
 20
78.8545850647
 11
47.5103096765
 21
89.8770854368
  0
ARC
  5
32F
100
AcDbEntity
  8
0
100
AcDbCircle
 62
7
  6
CONTINUOUS
 10
21.3369389629
 20
66.4866095028
 40
1.4279683651
100
AcDbArc
 50
240.0057110442
 51
241.3285590853
  0
ARC
  5
330
100
AcDbEntity
  8
0
100
AcDbCircle
 62
7
  6
CONTINUOUS
 10
22.0588293486
 20
65.2869758992
 40
1.3713048096
100
AcDbArc
 50
58.6454632518
 51
60.0044477745
  0
ARC
  5
331
100
AcDbEntity
  8
0
100
AcDbCircle
 62
7
  6
CONTINUOUS
 10
23.4974797107
 20
58.8216886454
 40
0.2298502023
100
AcDbArc
 50
171.5174831883
 51
175.6838093701
  0
ARC
  5
332
100
AcDbEntity
  8
0
100
AcDbCircle
 62
7
  6
CONTINUOUS
 10
12.4029281232
 20
65.2269860838
 40
0.2298502023
100
AcDbArc
 50
171.5174831883
 51
175.68380937
  0
ARC
  5
333
100
AcDbEntity
  8
0
100
AcDbCircle
 62
7
  6
CONTINUOUS
 10
16.7799373218
 20
62.6999758133
 40
0.2298502023
100
AcDbArc
 50
171.5174831883
 51
175.6838093699
  0
ARC
  5
334
100
AcDbEntity
  8
0
100
AcDbCircle
 62
7
  6
CONTINUOUS
 10
30.2150220996
 20
54.9434014775
 40
0.2298502023
100
AcDbArc
 50
171.5174831883
 51
175.68380937
  0
SPLINE
  5
335
100
AcDbEntity
  8
0
100
AcDbSpline
 62
7
  6
CONTINUOUS
 70
0
 71
3
 72
19
 73
15
 74
0
 42
0.0000001
 43
0.0000001
 44
0.0000000001
 40
0.0
 40
0.0
 40
0.0
 40
0.0
 40
0.0428394104
 40
0.0874448899
 40
0.1352571039
 40
0.1871950253
 40
0.2436735499
 40
0.3046656819
 40
0.4382689093
 40
0.5825434307
 40
0.7296392143
 40
0.871166535
 40
0.9376088396
 40
1.0
 40
1.0
 40
1.0
 40
1.0
 10
23.5476214559
 20
50.1826773531
 30
0.0
 10
23.5969258452
 20
50.2111480533
 30
0.0
 10
23.7056256804
 20
50.2562835521
 30
0.0
 10
23.8850283801
 20
50.2826194899
 30
0.0
 10
24.0776888174
 20
50.2684098978
 30
0.0
 10
24.27931757
 20
50.2148538889
 30
0.0
 10
24.4859781467
 20
50.1235433307
 30
0.0
 10
24.7712444907
 20
49.9489193111
 30
0.0
 10
25.11108732
 20
49.6479643055
 30
0.0
 10
25.4603799621
 20
49.2007726262
 30
0.0
 10
25.7354214206
 20
48.6925244957
 30
0.0
 10
25.8876126528
 20
48.2427167286
 30
0.0
 10
25.9505350186
 20
47.888406737
 30
0.0
 10
25.9618330175
 20
47.7170671194
 30
0.0
 10
25.9618330175
 20
47.6341483536
 30
0.0
  0
SPLINE
  5
336
100
AcDbEntity
  8
0
100
AcDbSpline
 62
7
  6
CONTINUOUS
 70
0
 71
3
 72
11
 73
7
 74
0
 42
0.0000001
 43
0.0000001
 44
0.0000000001
 40
0.0
 40
0.0
 40
0.0
 40
0.0
 40
0.2892362406
 40
0.5490282353
 40
0.7821835256
 40
1.0
 40
1.0
 40
1.0
 40
1.0
 10
27.5383878694
 20
30.3557669358
 30
0.0
 10
27.5515300129
 20
30.3481794874
 30
0.0
 10
27.5777301615
 20
30.3357671325
 30
0.0
 10
27.6179586497
 20
30.3259831029
 30
0.0
 10
27.655752112
 20
30.3269284188
 30
0.0
 10
27.678493423
 20
30.3351901106
 30
0.0
 10
27.6883798877
 20
30.3409222604
 30
0.0
  0
SPLINE
  5
337
100
AcDbEntity
  8
0
100
AcDbSpline
 62
7
  6
CONTINUOUS
 70
0
 71
3
 72
11
 73
7
 74
0
 42
0.0000001
 43
0.0000001
 44
0.0000000001
 40
0.0
 40
0.0
 40
0.0
 40
0.0
 40
0.2283107713
 40
0.4754121475
 40
0.7351334603
 40
1.0
 40
1.0
 40
1.0
 40
1.0
 10
24.7668183571
 20
18.2773717519
 30
0.0
 10
24.7673545763
 20
18.2042293525
 30
0.0
 10
24.7829003598
 20
18.0518921955
 30
0.0
 10
24.8410821361
 20
17.8229742667
 30
0.0
 10
24.9329877669
 20
17.592775983
 30
0.0
 10
25.0139588575
 20
17.4449584147
 30
0.0
 10
25.0591685577
 20
17.3731490068
 30
0.0
  0
SPLINE
  5
338
100
AcDbEntity
  8
0
100
AcDbSpline
 62
7
  6
CONTINUOUS
 70
0
 71
3
 72
10
 73
6
 74
0
 42
0.0000001
 43
0.0000001
 44
0.0000000001
 40
0.0
 40
0.0
 40
0.0
 40
0.0
 40
0.5197437211
 40
0.7712047223
 40
1.0
 40
1.0
 40
1.0
 40
1.0
 10
8.6376447514
 20
41.4067662086
 30
0.0
 10
8.6552484313
 20
41.3542824292
 30
0.0
 10
8.6950613458
 20
41.2801679012
 30
0.0
 10
8.7666582039
 20
41.2009263198
 30
0.0
 10
8.8077601425
 20
41.1696552532
 30
0.0
 10
8.8288642124
 20
41.1574710884
 30
0.0
  0
SPLINE
  5
339
100
AcDbEntity
  8
0
100
AcDbSpline
 62
7
  6
CONTINUOUS
 70
0
 71
3
 72
10
 73
6
 74
0
 42
0.0000001
 43
0.0000001
 44
0.0000000001
 40
0.0
 40
0.0
 40
0.0
 40
0.0
 40
0.5197437211
 40
0.7712047223
 40
1.0
 40
1.0
 40
1.0
 40
1.0
 10
8.6376447514
 20
54.4708048827
 30
0.0
 10
8.6552484313
 20
54.4183211033
 30
0.0
 10
8.6950613458
 20
54.3442065753
 30
0.0
 10
8.7666582039
 20
54.2649649939
 30
0.0
 10
8.8077601425
 20
54.2336939273
 30
0.0
 10
8.8288642124
 20
54.2215097625
 30
0.0
  0
SPLINE
  5
33A
100
AcDbEntity
  8
0
100
AcDbSpline
 62
7
  6
CONTINUOUS
 70
0
 71
3
 72
11
 73
7
 74
0
 42
0.0000001
 43
0.0000001
 44
0.0000000001
 40
0.0
 40
0.0
 40
0.0
 40
0.0
 40
0.2894941829
 40
0.5490816457
 40
0.7822396176
 40
1.0
 40
1.0
 40
1.0
 40
1.0
 10
24.7668183571
 20
53.0592028795
 30
0.0
 10
24.766765274
 20
53.0086195643
 30
0.0
 10
24.7589927713
 20
52.9123696144
 30
0.0
 10
24.7200549219
 20
52.7800872028
 30
0.0
 10
24.6543454205
 20
52.6727382652
 30
0.0
 10
24.5926362181
 20
52.6209728313
 30
0.0
 10
24.5596850822
 20
52.6019472929
 30
0.0
  0
SPLINE
  5
33B
100
AcDbEntity
  8
0
100
AcDbSpline
 62
7
  6
CONTINUOUS
 70
0
 71
3
 72
11
 73
7
 74
0
 42
0.0000001
 43
0.0000001
 44
0.0000000001
 40
0.0
 40
0.0
 40
0.0
 40
0.0
 40
0.2892362406
 40
0.5490282353
 40
0.7821835256
 40
1.0
 40
1.0
 40
1.0
 40
1.0
 10
27.5383878694
 20
43.4198056099
 30
0.0
 10
27.5515300129
 20
43.4122181615
 30
0.0
 10
27.5777301615
 20
43.3998058066
 30
0.0
 10
27.6179586497
 20
43.390021777
 30
0.0
 10
27.655752112
 20
43.3909670929
 30
0.0
 10
27.678493423
 20
43.3992287846
 30
0.0
 10
27.6883798877
 20
43.4049609344
 30
0.0
  0
SPLINE
  5
33C
100
AcDbEntity
  8
0
100
AcDbSpline
 62
7
  6
CONTINUOUS
 70
0
 71
3
 72
11
 73
7
 74
0
 42
0.0000001
 43
0.0000001
 44
0.0000000001
 40
0.0
 40
0.0
 40
0.0
 40
0.0
 40
0.2895453772
 40
0.5491366158
 40
0.7822776227
 40
1.0
 40
1.0
 40
1.0
 40
1.0
 10
26.3514504761
 20
17.48439411
 30
0.0
 10
26.3514504761
 20
17.4412996179
 30
0.0
 10
26.3448702055
 20
17.359297238
 30
0.0
 10
26.3117201985
 20
17.2466101135
 30
0.0
 10
26.2557966233
 20
17.1551507417
 30
0.0
 10
26.2032437668
 20
17.1110513895
 30
0.0
 10
26.1751807161
 20
17.0948485901
 30
0.0
  0
SPLINE
  5
33D
100
AcDbEntity
  8
0
100
AcDbSpline
 62
7
  6
CONTINUOUS
 70
0
 71
3
 72
11
 73
7
 74
0
 42
0.0000001
 43
0.0000001
 44
0.0000000001
 40
0.0
 40
0.0
 40
0.0
 40
0.0
 40
0.2895403107
 40
0.5491269238
 40
0.7822649846
 40
1.0
 40
1.0
 40
1.0
 40
1.0
 10
26.3514504761
 20
52.0224463546
 30
0.0
 10
26.3514504761
 20
51.9793526516
 30
0.0
 10
26.3448696447
 20
51.8973518371
 30
0.0
 10
26.3117223492
 20
51.7846664709
 30
0.0
 10
26.2558010369
 20
51.6932041443
 30
0.0
 10
26.2032440765
 20
51.649107036
 30
0.0
 10
26.1751790734
 20
51.6329039091
 30
0.0
  0
SPLINE
  5
33E
100
AcDbEntity
  8
0
100
AcDbSpline
 62
7
  6
CONTINUOUS
 70
0
 71
3
 72
11
 73
7
 74
0
 42
0.0000001
 43
0.0000001
 44
0.0000000001
 40
0.0
 40
0.0
 40
0.0
 40
0.0
 40
0.2897016594
 40
0.5490895814
 40
0.7822189142
 40
1.0
 40
1.0
 40
1.0
 40
1.0
 10
13.2338579649
 20
29.6709070039
 30
0.0
 10
13.2338579649
 20
29.569571072
 30
0.0
 10
13.2184940551
 20
29.3768506175
 30
0.0
 10
13.140448666
 20
29.11206086
 30
0.0
 10
13.0090365766
 20
28.8971991324
 30
0.0
 10
12.8856003964
 20
28.7934351067
 30
0.0
 10
12.8196306259
 20
28.7553410225
 30
0.0
  0
SPLINE
  5
33F
100
AcDbEntity
  8
0
100
AcDbSpline
 62
7
  6
CONTINUOUS
 70
0
 71
3
 72
11
 73
7
 74
0
 42
0.0000001
 43
0.0000001
 44
0.0000000001
 40
0.0
 40
0.0
 40
0.0
 40
0.0
 40
0.2897016594
 40
0.5490895814
 40
0.7822189142
 40
1.0
 40
1.0
 40
1.0
 40
1.0
 10
19.5978454912
 20
25.9967402132
 30
0.0
 10
19.5978454912
 20
25.8954042814
 30
0.0
 10
19.5824815814
 20
25.7026838268
 30
0.0
 10
19.5044361923
 20
25.4378940694
 30
0.0
 10
19.3730241029
 20
25.2230323417
 30
0.0
 10
19.2495879227
 20
25.119268316
 30
0.0
 10
19.1836181522
 20
25.0811742318
 30
0.0
  0
SPLINE
  5
340
100
AcDbEntity
  8
0
100
AcDbSpline
 62
7
  6
CONTINUOUS
 70
0
 71
3
 72
11
 73
7
 74
0
 42
0.0000001
 43
0.0000001
 44
0.0000000001
 40
0.0
 40
0.0
 40
0.0
 40
0.0
 40
0.2897016594
 40
0.5490895814
 40
0.7822189142
 40
1.0
 40
1.0
 40
1.0
 40
1.0
 10
25.9618330175
 20
22.3225734226
 30
0.0
 10
25.9618330175
 20
22.2212374907
 30
0.0
 10
25.9464691077
 20
22.0285170361
 30
0.0
 10
25.8684237186
 20
21.7637272787
 30
0.0
 10
25.7370116292
 20
21.5488655511
 30
0.0
 10
25.613575449
 20
21.4451015253
 30
0.0
 10
25.5476056786
 20
21.4070074411
 30
0.0
  0
SPLINE
  5
341
100
AcDbEntity
  8
0
100
AcDbSpline
 62
7
  6
CONTINUOUS
 70
0
 71
3
 72
11
 73
7
 74
0
 42
0.0000001
 43
0.0000001
 44
0.0000000001
 40
0.0
 40
0.0
 40
0.0
 40
0.0
 40
0.2897016594
 40
0.5490895814
 40
0.7822189142
 40
1.0
 40
1.0
 40
1.0
 40
1.0
 10
13.2338579649
 20
54.9824819349
 30
0.0
 10
13.2338579649
 20
54.8811460031
 30
0.0
 10
13.2184940551
 20
54.6884255485
 30
0.0
 10
13.140448666
 20
54.4236357911
 30
0.0
 10
13.0090365766
 20
54.2087740634
 30
0.0
 10
12.8856003964
 20
54.1050100377
 30
0.0
 10
12.8196306259
 20
54.0669159535
 30
0.0
  0
SPLINE
  5
342
100
AcDbEntity
  8
0
100
AcDbSpline
 62
7
  6
CONTINUOUS
 70
0
 71
3
 72
11
 73
7
 74
0
 42
0.0000001
 43
0.0000001
 44
0.0000000001
 40
0.0
 40
0.0
 40
0.0
 40
0.0
 40
0.2897016594
 40
0.5490895814
 40
0.7822189142
 40
1.0
 40
1.0
 40
1.0
 40
1.0
 10
19.5978454912
 20
51.3083151443
 30
0.0
 10
19.5978454912
 20
51.2069792124
 30
0.0
 10
19.5824815814
 20
51.0142587578
 30
0.0
 10
19.5044361923
 20
50.7494690004
 30
0.0
 10
19.3730241029
 20
50.5346072728
 30
0.0
 10
19.2495879227
 20
50.430843247
 30
0.0
 10
19.1836181522
 20
50.3927491628
 30
0.0
  0
SPLINE
  5
343
100
AcDbEntity
  8
0
100
AcDbSpline
 62
7
  6
CONTINUOUS
 70
0
 71
3
 72
11
 73
7
 74
0
 42
0.0000001
 43
0.0000001
 44
0.0000000001
 40
0.0
 40
0.0
 40
0.0
 40
0.0
 40
0.2897016594
 40
0.5490895814
 40
0.7822189142
 40
1.0
 40
1.0
 40
1.0
 40
1.0
 10
25.9618330175
 20
47.6341483536
 30
0.0
 10
25.9618330175
 20
47.5328124217
 30
0.0
 10
25.9464691077
 20
47.3400919671
 30
0.0
 10
25.8684237186
 20
47.0753022097
 30
0.0
 10
25.7370116292
 20
46.8604404821
 30
0.0
 10
25.613575449
 20
46.7566764563
 30
0.0
 10
25.5476056786
 20
46.7185823721
 30
0.0
  0
SPLINE
  5
344
100
AcDbEntity
  8
0
100
AcDbSpline
 62
7
  6
CONTINUOUS
 70
0
 71
3
 72
19
 73
15
 74
0
 42
0.0000001
 43
0.0000001
 44
0.0000000001
 40
0.0
 40
0.0
 40
0.0
 40
0.0
 40
0.0428394104
 40
0.0874448899
 40
0.1352571039
 40
0.1871950253
 40
0.2436735499
 40
0.3046656819
 40
0.4382689093
 40
0.5825434307
 40
0.7296392143
 40
0.871166535
 40
0.9376088396
 40
1.0
 40
1.0
 40
1.0
 40
1.0
 10
17.1836339296
 20
53.8568441438
 30
0.0
 10
17.2329383189
 20
53.885314844
 30
0.0
 10
17.3416381541
 20
53.9304503427
 30
0.0
 10
17.5210408537
 20
53.9567862805
 30
0.0
 10
17.7137012911
 20
53.9425766885
 30
0.0
 10
17.9153300437
 20
53.8890206796
 30
0.0
 10
18.1219906203
 20
53.7977101213
 30
0.0
 10
18.4072569644
 20
53.6230861018
 30
0.0
 10
18.7470997937
 20
53.3221310962
 30
0.0
 10
19.0963924357
 20
52.8749394169
 30
0.0
 10
19.3714338943
 20
52.3666912864
 30
0.0
 10
19.5236251264
 20
51.9168835193
 30
0.0
 10
19.5865474923
 20
51.5625735277
 30
0.0
 10
19.5978454912
 20
51.3912339101
 30
0.0
 10
19.5978454912
 20
51.3083151443
 30
0.0
  0
SPLINE
  5
345
100
AcDbEntity
  8
0
100
AcDbSpline
 62
7
  6
CONTINUOUS
 70
0
 71
3
 72
9
 73
5
 74
0
 42
0.0000001
 43
0.0000001
 44
0.0000000001
 40
0.0
 40
0.0
 40
0.0
 40
0.0
 40
0.4744861943
 40
1.0
 40
1.0
 40
1.0
 40
1.0
 10
31.0529953653
 20
17.5052021396
 30
0.0
 10
31.0831123275
 20
17.522590072
 30
0.0
 10
31.1400887607
 20
17.5705358416
 30
0.0
 10
31.1837336
 20
17.6301942639
 30
0.0
 10
31.2029914869
 20
17.6635500875
 30
0.0
  0
SPLINE
  5
346
100
AcDbEntity
  8
0
100
AcDbSpline
 62
7
  6
CONTINUOUS
 70
0
 71
3
 72
9
 73
5
 74
0
 42
0.0000001
 43
0.0000001
 44
0.0000000001
 40
0.0
 40
0.0
 40
0.0
 40
0.0
 40
0.2523836267
 40
1.0
 40
1.0
 40
1.0
 40
1.0
 10
31.2029914869
 20
17.6635500875
 30
0.0
 10
31.2067647283
 20
17.6700855696
 30
0.0
 10
31.2211433595
 20
17.6963051685
 30
0.0
 10
31.2332664051
 20
17.7237725196
 30
0.0
 10
31.2408409517
 20
17.7448045848
 30
0.0
  0
SPLINE
  5
347
100
AcDbEntity
  8
0
100
AcDbSpline
 62
7
  6
CONTINUOUS
 70
0
 71
3
 72
9
 73
5
 74
0
 42
0.0000001
 43
0.0000001
 44
0.0000000001
 40
0.0
 40
0.0
 40
0.0
 40
0.0
 40
0.2659418707
 40
1.0
 40
1.0
 40
1.0
 40
1.0
 10
31.2408409517
 20
17.7448045848
 30
0.0
 10
31.2447592267
 20
17.7556843667
 30
0.0
 10
31.2579512857
 20
17.7970956492
 30
0.0
 10
31.2651265165
 20
17.8407073495
 30
0.0
 10
31.2651265165
 20
17.8726261109
 30
0.0
  0
SPLINE
  5
348
100
AcDbEntity
  8
0
100
AcDbSpline
 62
7
  6
CONTINUOUS
 70
0
 71
3
 72
19
 73
15
 74
0
 42
0.0000001
 43
0.0000001
 44
0.0000000001
 40
0.0
 40
0.0
 40
0.0
 40
0.0
 40
0.0428394104
 40
0.0874448899
 40
0.1352571039
 40
0.1871950253
 40
0.2436735499
 40
0.3046656819
 40
0.4382689093
 40
0.5825434307
 40
0.7296392143
 40
0.871166535
 40
0.9376088396
 40
1.0
 40
1.0
 40
1.0
 40
1.0
 10
10.8196464033
 20
57.5310109345
 30
0.0
 10
10.8689507925
 20
57.5594816347
 30
0.0
 10
10.9776506278
 20
57.6046171334
 30
0.0
 10
11.1570533274
 20
57.6309530712
 30
0.0
 10
11.3497137647
 20
57.6167434792
 30
0.0
 10
11.5513425174
 20
57.5631874703
 30
0.0
 10
11.758003094
 20
57.471876912
 30
0.0
 10
12.0432694381
 20
57.2972528925
 30
0.0
 10
12.3831122674
 20
56.9962978869
 30
0.0
 10
12.7324049094
 20
56.5491062076
 30
0.0
 10
13.0074463679
 20
56.0408580771
 30
0.0
 10
13.1596376001
 20
55.59105031
 30
0.0
 10
13.2225599659
 20
55.2367403184
 30
0.0
 10
13.2338579649
 20
55.0654007008
 30
0.0
 10
13.2338579649
 20
54.9824819349
 30
0.0
  0
SPLINE
  5
349
100
AcDbEntity
  8
0
100
AcDbSpline
 62
7
  6
CONTINUOUS
 70
0
 71
3
 72
19
 73
15
 74
0
 42
0.0000001
 43
0.0000001
 44
0.0000000001
 40
0.0
 40
0.0
 40
0.0
 40
0.0
 40
0.0428394104
 40
0.0874448899
 40
0.1352571039
 40
0.1871950253
 40
0.2436735499
 40
0.3046656819
 40
0.4382689093
 40
0.5825434307
 40
0.7296392143
 40
0.871166535
 40
0.9376088396
 40
1.0
 40
1.0
 40
1.0
 40
1.0
 10
23.5476214559
 20
24.8711024221
 30
0.0
 10
23.5969258452
 20
24.8995731223
 30
0.0
 10
23.7056256804
 20
24.944708621
 30
0.0
 10
23.8850283801
 20
24.9710445588
 30
0.0
 10
24.0776888174
 20
24.9568349668
 30
0.0
 10
24.27931757
 20
24.9032789579
 30
0.0
 10
24.4859781467
 20
24.8119683996
 30
0.0
 10
24.7712444907
 20
24.6373443801
 30
0.0
 10
25.11108732
 20
24.3363893745
 30
0.0
 10
25.4603799621
 20
23.8891976952
 30
0.0
 10
25.7354214206
 20
23.3809495647
 30
0.0
 10
25.8876126528
 20
22.9311417976
 30
0.0
 10
25.9505350186
 20
22.576831806
 30
0.0
 10
25.9618330175
 20
22.4054921884
 30
0.0
 10
25.9618330175
 20
22.3225734226
 30
0.0
  0
SPLINE
  5
34A
100
AcDbEntity
  8
0
100
AcDbSpline
 62
7
  6
CONTINUOUS
 70
0
 71
3
 72
11
 73
7
 74
0
 42
0.0000001
 43
0.0000001
 44
0.0000000001
 40
0.0
 40
0.0
 40
0.0
 40
0.0
 40
0.2429552865
 40
0.4983157063
 40
0.7545420482
 40
1.0
 40
1.0
 40
1.0
 40
1.0
 10
25.8716345795
 20
52.9540615419
 30
0.0
 10
25.8845244524
 20
52.8843674671
 30
0.0
 10
25.9248062763
 20
52.7437951509
 30
0.0
 10
26.0184554443
 20
52.5437066975
 30
0.0
 10
26.1413071154
 20
52.3592202801
 30
0.0
 10
26.24099995
 20
52.2509435282
 30
0.0
 10
26.294200325
 20
52.2030148556
 30
0.0
  0
SPLINE
  5
34B
100
AcDbEntity
  8
0
100
AcDbSpline
 62
7
  6
CONTINUOUS
 70
0
 71
3
 72
19
 73
15
 74
0
 42
0.0000001
 43
0.0000001
 44
0.0000000001
 40
0.0
 40
0.0
 40
0.0
 40
0.0
 40
0.0428394104
 40
0.0874448899
 40
0.1352571039
 40
0.1871950253
 40
0.2436735499
 40
0.3046656819
 40
0.4382689093
 40
0.5825434307
 40
0.7296392143
 40
0.871166535
 40
0.9376088396
 40
1.0
 40
1.0
 40
1.0
 40
1.0
 10
17.1836339296
 20
28.5452692128
 30
0.0
 10
17.2329383189
 20
28.573739913
 30
0.0
 10
17.3416381541
 20
28.6188754117
 30
0.0
 10
17.5210408537
 20
28.6452113495
 30
0.0
 10
17.7137012911
 20
28.6310017575
 30
0.0
 10
17.9153300437
 20
28.5774457486
 30
0.0
 10
18.1219906203
 20
28.4861351903
 30
0.0
 10
18.4072569644
 20
28.3115111708
 30
0.0
 10
18.7470997937
 20
28.0105561652
 30
0.0
 10
19.0963924357
 20
27.5633644859
 30
0.0
 10
19.3714338943
 20
27.0551163554
 30
0.0
 10
19.5236251264
 20
26.6053085883
 30
0.0
 10
19.5865474923
 20
26.2509985967
 30
0.0
 10
19.5978454912
 20
26.0796589791
 30
0.0
 10
19.5978454912
 20
25.9967402132
 30
0.0
  0
SPLINE
  5
34C
100
AcDbEntity
  8
0
100
AcDbSpline
 62
7
  6
CONTINUOUS
 70
0
 71
3
 72
11
 73
7
 74
0
 42
0.0000001
 43
0.0000001
 44
0.0000000001
 40
0.0
 40
0.0
 40
0.0
 40
0.0
 40
0.2892899333
 40
0.548600574
 40
0.7818722778
 40
1.0
 40
1.0
 40
1.0
 40
1.0
 10
35.9213721161
 20
58.5364044329
 30
0.0
 10
35.8565499302
 20
58.5743400328
 30
0.0
 10
35.7389576836
 20
58.6563466936
 30
0.0
 10
35.5985505099
 20
58.8054162055
 30
0.0
 10
35.5097981197
 20
58.9700467291
 30
0.0
 10
35.4891581068
 20
59.0880236449
 30
0.0
 10
35.4891353556
 20
59.1446549461
 30
0.0
  0
SPLINE
  5
34D
100
AcDbEntity
  8
0
100
AcDbSpline
 62
7
  6
CONTINUOUS
 70
0
 71
3
 72
13
 73
9
 74
0
 42
0.0000001
 43
0.0000001
 44
0.0000000001
 40
0.0
 40
0.0
 40
0.0
 40
0.0
 40
0.1140162743
 40
0.2371095287
 40
0.4990653133
 40
0.7615146947
 40
0.8852449716
 40
1.0
 40
1.0
 40
1.0
 40
1.0
 10
24.0597019689
 20
54.2844142995
 30
0.0
 10
24.0597915819
 20
54.2291042966
 30
0.0
 10
24.0698381299
 20
54.1139830142
 30
0.0
 10
24.1241913856
 20
53.8774658564
 30
0.0
 10
24.2513283431
 20
53.5870307206
 30
0.0
 10
24.4373163824
 20
53.3299441347
 30
0.0
 10
24.6138839926
 20
53.1621624474
 30
0.0
 10
24.7083035786
 20
53.0943838052
 30
0.0
 10
24.7561493315
 20
53.065927518
 30
0.0
  0
SPLINE
  5
34E
100
AcDbEntity
  8
0
100
AcDbSpline
 62
7
  6
CONTINUOUS
 70
0
 71
3
 72
19
 73
15
 74
0
 42
0.0000001
 43
0.0000001
 44
0.0000000001
 40
0.0
 40
0.0
 40
0.0
 40
0.0
 40
0.0428394104
 40
0.0874448899
 40
0.1352571039
 40
0.1871950253
 40
0.2436735499
 40
0.3046656819
 40
0.4382689093
 40
0.5825434307
 40
0.7296392143
 40
0.871166535
 40
0.9376088396
 40
1.0
 40
1.0
 40
1.0
 40
1.0
 10
10.8196464033
 20
32.2194360035
 30
0.0
 10
10.8689507925
 20
32.2479067037
 30
0.0
 10
10.9776506278
 20
32.2930422024
 30
0.0
 10
11.1570533274
 20
32.3193781402
 30
0.0
 10
11.3497137647
 20
32.3051685482
 30
0.0
 10
11.5513425174
 20
32.2516125393
 30
0.0
 10
11.758003094
 20
32.160301981
 30
0.0
 10
12.0432694381
 20
31.9856779615
 30
0.0
 10
12.3831122674
 20
31.6847229559
 30
0.0
 10
12.7324049094
 20
31.2375312766
 30
0.0
 10
13.0074463679
 20
30.7292831461
 30
0.0
 10
13.1596376001
 20
30.279475379
 30
0.0
 10
13.2225599659
 20
29.9251653874
 30
0.0
 10
13.2338579649
 20
29.7538257698
 30
0.0
 10
13.2338579649
 20
29.6709070039
 30
0.0
  0
SPLINE
  5
34F
100
AcDbEntity
  8
0
100
AcDbSpline
 62
7
  6
CONTINUOUS
 70
0
 71
3
 72
11
 73
7
 74
0
 42
0.0000001
 43
0.0000001
 44
0.0000000001
 40
0.0
 40
0.0
 40
0.0
 40
0.0
 40
0.2349735547
 40
0.4789517117
 40
0.7345162006
 40
1.0
 40
1.0
 40
1.0
 40
1.0
 10
19.732196339
 20
56.7013155957
 30
0.0
 10
19.732196339
 20
56.7187476489
 30
0.0
 10
19.7391993266
 20
56.7545108926
 30
0.0
 10
19.7668411268
 20
56.8023398254
 30
0.0
 10
19.8072760423
 20
56.8428297239
 30
0.0
 10
19.8393975922
 20
56.864684982
 30
0.0
 10
19.8564563051
 20
56.8745294755
 30
0.0
  0
SPLINE
  5
350
100
AcDbEntity
  8
0
100
AcDbSpline
 62
7
  6
CONTINUOUS
 70
0
 71
3
 72
11
 73
7
 74
0
 42
0.0000001
 43
0.0000001
 44
0.0000000001
 40
0.0
 40
0.0
 40
0.0
 40
0.0
 40
0.2480046782
 40
0.5104608001
 40
0.7676085741
 40
1.0
 40
1.0
 40
1.0
 40
1.0
 10
23.2701438582
 20
58.855593301
 30
0.0
 10
23.2733205835
 20
58.8770110097
 30
0.0
 10
23.2856155939
 20
58.920315066
 30
0.0
 10
23.31670244
 20
58.9801377965
 30
0.0
 10
23.3578762269
 20
59.0317850374
 30
0.0
 10
23.3915655601
 20
59.0589915144
 30
0.0
 10
23.4091362925
 20
59.0691359209
 30
0.0
  0
SPLINE
  5
351
100
AcDbEntity
  8
0
100
AcDbSpline
 62
7
  6
CONTINUOUS
 70
0
 71
3
 72
11
 73
7
 74
0
 42
0.0000001
 43
0.0000001
 44
0.0000000001
 40
0.0
 40
0.0
 40
0.0
 40
0.0
 40
0.2372446848
 40
0.5000016179
 40
0.7627576706
 40
1.0
 40
1.0
 40
1.0
 40
1.0
 10
45.7605962052
 20
88.7035934397
 30
0.0
 10
45.7605962052
 20
88.7267776836
 30
0.0
 10
45.7692943058
 20
88.7756705104
 30
0.0
 10
45.7996018138
 20
88.8443732327
 30
0.0
 10
45.8439459094
 20
88.9049717106
 30
0.0
 10
45.8819389978
 20
88.9369507989
 30
0.0
 10
45.9020169726
 20
88.9485427539
 30
0.0
  0
SPLINE
  5
352
100
AcDbEntity
  8
0
100
AcDbSpline
 62
7
  6
CONTINUOUS
 70
0
 71
3
 72
11
 73
7
 74
0
 42
0.0000001
 43
0.0000001
 44
0.0000000001
 40
0.0
 40
0.0
 40
0.0
 40
0.0
 40
0.2372423294
 40
0.499998382
 40
0.7627553151
 40
1.0
 40
1.0
 40
1.0
 40
1.0
 10
45.6191754377
 20
84.7027330066
 30
0.0
 10
45.6392534125
 20
84.7143249616
 30
0.0
 10
45.6772465009
 20
84.7463040499
 30
0.0
 10
45.7215905966
 20
84.8069025279
 30
0.0
 10
45.7518981046
 20
84.8756052502
 30
0.0
 10
45.7605962052
 20
84.924498077
 30
0.0
 10
45.7605962052
 20
84.9476823209
 30
0.0
  0
SPLINE
  5
353
100
AcDbEntity
  8
0
100
AcDbSpline
 62
7
  6
CONTINUOUS
 70
0
 71
3
 72
11
 73
7
 74
0
 42
0.0000001
 43
0.0000001
 44
0.0000000001
 40
0.0
 40
0.0
 40
0.0
 40
0.0
 40
0.2480046782
 40
0.5104608001
 40
0.7676085741
 40
1.0
 40
1.0
 40
1.0
 40
1.0
 10
12.1755922706
 20
65.2608907394
 30
0.0
 10
12.1787689959
 20
65.2823084482
 30
0.0
 10
12.1910640063
 20
65.3256125044
 30
0.0
 10
12.2221508525
 20
65.3854352349
 30
0.0
 10
12.2633246394
 20
65.4370824758
 30
0.0
 10
12.2970139726
 20
65.4642889529
 30
0.0
 10
12.3145847049
 20
65.4744333594
 30
0.0
  0
SPLINE
  5
354
100
AcDbEntity
  8
0
100
AcDbSpline
 62
7
  6
CONTINUOUS
 70
0
 71
3
 72
11
 73
7
 74
0
 42
0.0000001
 43
0.0000001
 44
0.0000000001
 40
0.0
 40
0.0
 40
0.0
 40
0.0
 40
0.2372446848
 40
0.5000016179
 40
0.7627576706
 40
1.0
 40
1.0
 40
1.0
 40
1.0
 10
8.6376447514
 20
63.1066130341
 30
0.0
 10
8.6376447514
 20
63.1413894
 30
0.0
 10
8.6506919023
 20
63.2147286401
 30
0.0
 10
8.6961531643
 20
63.3177827235
 30
0.0
 10
8.7626693079
 20
63.4086804404
 30
0.0
 10
8.8196589404
 20
63.4566490729
 30
0.0
 10
8.8497759026
 20
63.4740370054
 30
0.0
  0
SPLINE
  5
355
100
AcDbEntity
  8
0
100
AcDbSpline
 62
7
  6
CONTINUOUS
 70
0
 71
3
 72
9
 73
5
 74
0
 42
0.0000001
 43
0.0000001
 44
0.0000000001
 40
0.0
 40
0.0
 40
0.0
 40
0.0
 40
0.7490695291
 40
1.0
 40
1.0
 40
1.0
 40
1.0
 10
25.3652848059
 20
17.0949370974
 30
0.0
 10
25.2753292608
 20
17.1469493347
 30
0.0
 10
25.1618740313
 20
17.2327198155
 30
0.0
 10
25.0777140501
 20
17.343692036
 30
0.0
 10
25.0591685577
 20
17.3731490068
 30
0.0
  0
SPLINE
  5
356
100
AcDbEntity
  8
0
100
AcDbSpline
 62
7
  6
CONTINUOUS
 70
0
 71
3
 72
17
 73
13
 74
0
 42
0.0000001
 43
0.0000001
 44
0.0000000001
 40
0.0
 40
0.0
 40
0.0
 40
0.0
 40
0.0428551353
 40
0.0874812583
 40
0.1353062597
 40
0.1872680725
 40
0.3045152814
 40
0.4381640874
 40
0.5824932523
 40
0.7296431307
 40
0.8712850325
 40
1.0
 40
1.0
 40
1.0
 40
1.0
 10
23.5597320594
 20
19.5511070316
 30
0.0
 10
23.5843758881
 20
19.5653368824
 30
0.0
 10
23.6386803196
 20
19.5879751635
 30
0.0
 10
23.7283638191
 20
19.6010653776
 30
0.0
 10
23.8246679315
 20
19.5940499124
 30
0.0
 10
23.9645863386
 20
19.5567922365
 30
0.0
 10
24.1434830024
 20
19.4590625316
 30
0.0
 10
24.3411440943
 20
19.2840782969
 30
0.0
 10
24.5158753534
 20
19.0605122859
 30
0.0
 10
24.6534704697
 20
18.8064038784
 30
0.0
 10
24.7427896805
 20
18.5425558684
 30
0.0
 10
24.7667287712
 20
18.3628423397
 30
0.0
 10
24.7668183571
 20
18.2773717519
 30
0.0
  0
SPLINE
  5
357
100
AcDbEntity
  8
0
100
AcDbSpline
 62
7
  6
CONTINUOUS
 70
0
 71
3
 72
11
 73
7
 74
0
 42
0.0000001
 43
0.0000001
 44
0.0000000001
 40
0.0
 40
0.0
 40
0.0
 40
0.0
 40
0.2654982698
 40
0.5211015758
 40
0.7650448192
 40
1.0
 40
1.0
 40
1.0
 40
1.0
 10
19.8564564341
 20
20.2753887126
 30
0.0
 10
19.8393956869
 20
20.2852328221
 30
0.0
 10
19.8072688763
 20
20.3070913766
 30
0.0
 10
19.7668443728
 20
20.3475928027
 30
0.0
 10
19.7391857607
 20
20.3954133789
 30
0.0
 10
19.732196339
 20
20.4311771456
 30
0.0
 10
19.732196339
 20
20.4486082751
 30
0.0
  0
SPLINE
  5
358
100
AcDbEntity
  8
0
100
AcDbSpline
 62
7
  6
CONTINUOUS
 70
0
 71
3
 72
17
 73
13
 74
0
 42
0.0000001
 43
0.0000001
 44
0.0000000001
 40
0.0
 40
0.0
 40
0.0
 40
0.0
 40
0.0428570455
 40
0.087485165
 40
0.1353123244
 40
0.1872781392
 40
0.3045378316
 40
0.4381995438
 40
0.5825378192
 40
0.7296849502
 40
0.8713141218
 40
1.0
 40
1.0
 40
1.0
 40
1.0
 10
25.3242194839
 20
53.1068176387
 30
0.0
 10
25.345197915
 20
53.1189299822
 30
0.0
 10
25.3914269038
 20
53.1381955219
 30
0.0
 10
25.4677707468
 20
53.1493306959
 30
0.0
 10
25.549749786
 20
53.143348236
 30
0.0
 10
25.6688548528
 20
53.1116122395
 30
0.0
 10
25.821133559
 20
53.0283887529
 30
0.0
 10
25.9893719001
 20
52.8793963108
 30
0.0
 10
26.1380730301
 20
52.6890569611
 30
0.0
 10
26.2551471941
 20
52.4727314749
 30
0.0
 10
26.3310843527
 20
52.2481445737
 30
0.0
 10
26.3514504761
 20
52.0951832881
 30
0.0
 10
26.3514504761
 20
52.0224463546
 30
0.0
  0
SPLINE
  5
359
100
AcDbEntity
  8
0
100
AcDbSpline
 62
7
  6
CONTINUOUS
 70
0
 71
3
 72
11
 73
7
 74
0
 42
0.0000001
 43
0.0000001
 44
0.0000000001
 40
0.0
 40
0.0
 40
0.0
 40
0.0
 40
0.2183162805
 40
0.4516690973
 40
0.7108489591
 40
1.0
 40
1.0
 40
1.0
 40
1.0
 10
25.7248471822
 20
54.0132451035
 30
0.0
 10
25.7643197071
 20
54.0360334451
 30
0.0
 10
25.8548215777
 20
54.0691119374
 30
0.0
 10
26.0051517177
 20
54.0737858496
 30
0.0
 10
26.1654697692
 20
54.036337759
 30
0.0
 10
26.2699232672
 20
53.987692274
 30
0.0
 10
26.3224530894
 20
53.9579473971
 30
0.0
  0
SPLINE
  5
35A
100
AcDbEntity
  8
0
100
AcDbSpline
 62
7
  6
CONTINUOUS
 70
0
 71
3
 72
11
 73
7
 74
0
 42
0.0000001
 43
0.0000001
 44
0.0000000001
 40
0.0
 40
0.0
 40
0.0
 40
0.0
 40
0.2183704492
 40
0.4517294293
 40
0.7109125399
 40
1.0
 40
1.0
 40
1.0
 40
1.0
 10
25.0177523178
 20
53.6049855023
 30
0.0
 10
24.978249252
 20
53.5821394705
 30
0.0
 10
24.9042382858
 20
53.5202801976
 30
0.0
 10
24.8250107918
 20
53.3922275131
 30
0.0
 10
24.7773577084
 20
53.2344979488
 30
0.0
 10
24.7672650142
 20
53.1196129127
 30
0.0
 10
24.7668183571
 20
53.0592028795
 30
0.0
  0
SPLINE
  5
35B
100
AcDbEntity
  8
0
100
AcDbSpline
 62
7
  6
CONTINUOUS
 70
0
 71
3
 72
17
 73
13
 74
0
 42
0.0000001
 43
0.0000001
 44
0.0000000001
 40
0.0
 40
0.0
 40
0.0
 40
0.0
 40
0.0428570455
 40
0.087485165
 40
0.1353123244
 40
0.1872781392
 40
0.3045378316
 40
0.4381995438
 40
0.5825378192
 40
0.7296849502
 40
0.8713141218
 40
1.0
 40
1.0
 40
1.0
 40
1.0
 10
25.3242194839
 20
18.5687653941
 30
0.0
 10
25.345197915
 20
18.5808777377
 30
0.0
 10
25.3914269038
 20
18.6001432773
 30
0.0
 10
25.4677707468
 20
18.6112784513
 30
0.0
 10
25.549749786
 20
18.6052959914
 30
0.0
 10
25.6688548528
 20
18.5735599949
 30
0.0
 10
25.821133559
 20
18.4903365083
 30
0.0
 10
25.9893719001
 20
18.3413440663
 30
0.0
 10
26.1380730301
 20
18.1510047165
 30
0.0
 10
26.2551471941
 20
17.9346792304
 30
0.0
 10
26.3310843527
 20
17.7100923291
 30
0.0
 10
26.3514504761
 20
17.5571310435
 30
0.0
 10
26.3514504761
 20
17.48439411
 30
0.0
  0
SPLINE
  5
35C
100
AcDbEntity
  8
0
100
AcDbSpline
 62
7
  6
CONTINUOUS
 70
0
 71
3
 72
11
 73
7
 74
0
 42
0.0000001
 43
0.0000001
 44
0.0000000001
 40
0.0
 40
0.0
 40
0.0
 40
0.0
 40
0.2434008622
 40
0.4991464647
 40
0.7554057969
 40
1.0
 40
1.0
 40
1.0
 40
1.0
 10
25.8717302119
 20
18.415515727
 30
0.0
 10
25.8848650906
 20
18.3446723545
 30
0.0
 10
25.9260922354
 20
18.2018506216
 30
0.0
 10
26.0220427888
 20
17.9989422583
 30
0.0
 10
26.1478444397
 20
17.8126362943
 30
0.0
 10
26.2498585887
 20
17.7038463191
 30
0.0
 10
26.3042213771
 20
17.6560234777
 30
0.0
  0
SPLINE
  5
35D
100
AcDbEntity
  8
0
100
AcDbSpline
 62
7
  6
CONTINUOUS
 70
0
 71
3
 72
11
 73
7
 74
0
 42
0.0000001
 43
0.0000001
 44
0.0000000001
 40
0.0
 40
0.0
 40
0.0
 40
0.0
 40
0.2480046782
 40
0.5104608001
 40
0.7676085741
 40
1.0
 40
1.0
 40
1.0
 40
1.0
 10
16.5526014693
 20
62.7338804689
 30
0.0
 10
16.5557781946
 20
62.7552981777
 30
0.0
 10
16.568073205
 20
62.7986022339
 30
0.0
 10
16.5991600511
 20
62.8584249644
 30
0.0
 10
16.640333838
 20
62.9100722053
 30
0.0
 10
16.6740231712
 20
62.9372786824
 30
0.0
 10
16.6915939036
 20
62.9474230889
 30
0.0
  0
SPLINE
  5
35E
100
AcDbEntity
  8
0
100
AcDbSpline
 62
7
  6
CONTINUOUS
 70
0
 71
3
 72
11
 73
7
 74
0
 42
0.0000001
 43
0.0000001
 44
0.0000000001
 40
0.0
 40
0.0
 40
0.0
 40
0.0
 40
0.2896433527
 40
0.5491132405
 40
0.7822372579
 40
1.0
 40
1.0
 40
1.0
 40
1.0
 10
20.6230780495
 20
65.2498814615
 30
0.0
 10
20.5572730963
 20
65.2878731095
 30
0.0
 10
20.4378714193
 20
65.3701442339
 30
0.0
 10
20.2951331014
 20
65.5201022934
 30
0.0
 10
20.2048120168
 20
65.6860358245
 30
0.0
 10
20.1837835845
 20
65.805120207
 30
0.0
 10
20.1837606339
 20
65.8622477404
 30
0.0
  0
SPLINE
  5
35F
100
AcDbEntity
  8
0
100
AcDbSpline
 62
7
  6
CONTINUOUS
 70
0
 71
3
 72
11
 73
7
 74
0
 42
0.0000001
 43
0.0000001
 44
0.0000000001
 40
0.0
 40
0.0
 40
0.0
 40
0.0
 40
0.2480046782
 40
0.5104608001
 40
0.7676085741
 40
1.0
 40
1.0
 40
1.0
 40
1.0
 10
29.9876862471
 20
54.977306133
 30
0.0
 10
29.9908629724
 20
54.9987238418
 30
0.0
 10
30.0031579828
 20
55.042027898
 30
0.0
 10
30.0342448289
 20
55.1018506286
 30
0.0
 10
30.0754186158
 20
55.1534978694
 30
0.0
 10
30.109107949
 20
55.1807043465
 30
0.0
 10
30.1266786814
 20
55.190848753
 30
0.0
  0
SPLINE
  5
360
100
AcDbEntity
  8
0
100
AcDbSpline
 62
7
  6
CONTINUOUS
 70
0
 71
3
 72
9
 73
5
 74
0
 42
0.0000001
 43
0.0000001
 44
0.0000000001
 40
0.0
 40
0.0
 40
0.0
 40
0.0
 40
0.4927793841
 40
1.0
 40
1.0
 40
1.0
 40
1.0
 10
19.8564563051
 20
56.8745294755
 30
0.0
 10
19.9006940479
 20
56.9000588442
 30
0.0
 10
20.000038249
 20
56.9353858551
 30
0.0
 10
20.1038879057
 20
56.9462672142
 30
0.0
 10
20.1564604077
 20
56.9462673406
 30
0.0
  0
SPLINE
  5
361
100
AcDbEntity
  8
0
100
AcDbSpline
 62
7
  6
CONTINUOUS
 70
0
 71
3
 72
11
 73
7
 74
0
 42
0.0000001
 43
0.0000001
 44
0.0000000001
 40
0.0
 40
0.0
 40
0.0
 40
0.0
 40
0.2895453772
 40
0.5491366158
 40
0.7822776227
 40
1.0
 40
1.0
 40
1.0
 40
1.0
 10
25.1479497239
 20
18.1792198742
 30
0.0
 10
25.1479497239
 20
18.2223143663
 30
0.0
 10
25.1545299945
 20
18.3043167463
 30
0.0
 10
25.1876800015
 20
18.4170038708
 30
0.0
 10
25.2436035767
 20
18.5084632425
 30
0.0
 10
25.2961564332
 20
18.5525625948
 30
0.0
 10
25.3242194839
 20
18.5687653941
 30
0.0
  0
SPLINE
  5
362
100
AcDbEntity
  8
0
100
AcDbSpline
 62
7
  6
CONTINUOUS
 70
0
 71
3
 72
17
 73
13
 74
0
 42
0.0000001
 43
0.0000001
 44
0.0000000001
 40
0.0
 40
0.0
 40
0.0
 40
0.0
 40
0.0428565747
 40
0.0874844759
 40
0.1353118183
 40
0.1872777457
 40
0.3045370723
 40
0.438199271
 40
0.5825361041
 40
0.7296871328
 40
0.8713104531
 40
1.0
 40
1.0
 40
1.0
 40
1.0
 10
24.5596850822
 20
52.6019472929
 30
0.0
 10
24.5350341053
 20
52.5877141536
 30
0.0
 10
24.4807121746
 20
52.5650743525
 30
0.0
 10
24.3910020429
 20
52.5519892143
 30
0.0
 10
24.2946697898
 20
52.5590189726
 30
0.0
 10
24.1547112772
 20
52.5963107852
 30
0.0
 10
23.9757705148
 20
52.6941048595
 30
0.0
 10
23.7780764406
 20
52.8691810702
 30
0.0
 10
23.6033366772
 20
53.0928494354
 30
0.0
 10
23.4657764107
 20
53.3470413145
 30
0.0
 10
23.3764766209
 20
53.6109579547
 30
0.0
 10
23.3527366167
 20
53.7906960291
 30
0.0
 10
23.3525981317
 20
53.8761703276
 30
0.0
  0
SPLINE
  5
363
100
AcDbEntity
  8
0
100
AcDbSpline
 62
7
  6
CONTINUOUS
 70
0
 71
3
 72
11
 73
7
 74
0
 42
0.0000001
 43
0.0000001
 44
0.0000000001
 40
0.0
 40
0.0
 40
0.0
 40
0.0
 40
0.2323914259
 40
0.4895391999
 40
0.7519953218
 40
1.0
 40
1.0
 40
1.0
 40
1.0
 10
27.0295380852
 20
56.9789432578
 30
0.0
 10
27.0119673529
 20
56.9687988513
 30
0.0
 10
26.9782780197
 20
56.9415923742
 30
0.0
 10
26.9371042328
 20
56.8899451334
 30
0.0
 10
26.9060173867
 20
56.8301224028
 30
0.0
 10
26.8937223762
 20
56.7868183466
 30
0.0
 10
26.890545651
 20
56.7654006378
 30
0.0
  0
SPLINE
  5
364
100
AcDbEntity
  8
0
100
AcDbSpline
 62
7
  6
CONTINUOUS
 70
0
 71
3
 72
9
 73
5
 74
0
 42
0.0000001
 43
0.0000001
 44
0.0000000001
 40
0.0
 40
0.0
 40
0.0
 40
0.0
 40
0.2584211567
 40
1.0
 40
1.0
 40
1.0
 40
1.0
 10
26.890545651
 20
56.7654006378
 30
0.0
 10
26.8901473437
 20
56.7627152216
 30
0.0
 10
26.8887792418
 20
56.7522994868
 30
0.0
 10
26.8881173178
 20
56.7417844596
 30
0.0
 10
26.8881173178
 20
56.7339939436
 30
0.0
  0
SPLINE
  5
365
100
AcDbEntity
  8
0
100
AcDbSpline
 62
7
  6
CONTINUOUS
 70
0
 71
3
 72
17
 73
13
 74
0
 42
0.0000001
 43
0.0000001
 44
0.0000000001
 40
0.0
 40
0.0
 40
0.0
 40
0.0
 40
0.0428610441
 40
0.0874892275
 40
0.1353139613
 40
0.1872740542
 40
0.3045219965
 40
0.4381782377
 40
0.5825189697
 40
0.7296725293
 40
0.8713102799
 40
1.0
 40
1.0
 40
1.0
 40
1.0
 10
26.1751790734
 20
51.6329039091
 30
0.0
 10
26.1541984353
 20
51.6207908892
 30
0.0
 10
26.1079684714
 20
51.6015223612
 30
0.0
 10
26.0316233744
 20
51.5903856134
 30
0.0
 10
25.9496494386
 20
51.5963724041
 30
0.0
 10
25.8305543781
 20
51.6281004725
 30
0.0
 10
25.6782868309
 20
51.7113178134
 30
0.0
 10
25.5100505681
 20
51.8602990355
 30
0.0
 10
25.3613444269
 20
52.0506370919
 30
0.0
 10
25.2442604079
 20
52.2669684318
 30
0.0
 10
25.1683180315
 20
52.491564923
 30
0.0
 10
25.1479497239
 20
52.6445330459
 30
0.0
 10
25.1479497239
 20
52.7172721188
 30
0.0
  0
SPLINE
  5
366
100
AcDbEntity
  8
0
100
AcDbSpline
 62
7
  6
CONTINUOUS
 70
0
 71
3
 72
17
 73
13
 74
0
 42
0.0000001
 43
0.0000001
 44
0.0000000001
 40
0.0
 40
0.0
 40
0.0
 40
0.0
 40
0.0428570455
 40
0.087485165
 40
0.1353123244
 40
0.1872781392
 40
0.3045378316
 40
0.4381995438
 40
0.5825378192
 40
0.7296849502
 40
0.8713141218
 40
1.0
 40
1.0
 40
1.0
 40
1.0
 10
26.1751807161
 20
17.0948485901
 30
0.0
 10
26.1542022849
 20
17.0827362466
 30
0.0
 10
26.1079732962
 20
17.063470707
 30
0.0
 10
26.0316294532
 20
17.052335533
 30
0.0
 10
25.949650414
 20
17.0583179929
 30
0.0
 10
25.8305453472
 20
17.0900539894
 30
0.0
 10
25.678266641
 20
17.173277476
 30
0.0
 10
25.5100282998
 20
17.322269918
 30
0.0
 10
25.3613271698
 20
17.5126092677
 30
0.0
 10
25.2442530058
 20
17.7289347539
 30
0.0
 10
25.1683158473
 20
17.9535216552
 30
0.0
 10
25.1479497239
 20
18.1064829408
 30
0.0
 10
25.1479497239
 20
18.1792198742
 30
0.0
  0
SPLINE
  5
367
100
AcDbEntity
  8
0
100
AcDbSpline
 62
7
  6
CONTINUOUS
 70
0
 71
3
 72
11
 73
7
 74
0
 42
0.0000001
 43
0.0000001
 44
0.0000000001
 40
0.0
 40
0.0
 40
0.0
 40
0.0
 40
0.2895453772
 40
0.5491366158
 40
0.7822776227
 40
1.0
 40
1.0
 40
1.0
 40
1.0
 10
25.1479497239
 20
52.7172721188
 30
0.0
 10
25.1479497239
 20
52.7603666109
 30
0.0
 10
25.1545299945
 20
52.8423689908
 30
0.0
 10
25.1876800015
 20
52.9550561154
 30
0.0
 10
25.2436035767
 20
53.0465154871
 30
0.0
 10
25.2961564332
 20
53.0906148394
 30
0.0
 10
25.3242194839
 20
53.1068176387
 30
0.0
  0
SPLINE
  5
368
100
AcDbEntity
  8
0
100
AcDbSpline
 62
7
  6
CONTINUOUS
 70
0
 71
3
 72
11
 73
7
 74
0
 42
0.0000001
 43
0.0000001
 44
0.0000000001
 40
0.0
 40
0.0
 40
0.0
 40
0.0
 40
0.2897016594
 40
0.5490895814
 40
0.7822189142
 40
1.0
 40
1.0
 40
1.0
 40
1.0
 10
10.4054190643
 20
31.303870022
 30
0.0
 10
10.4054190643
 20
31.4052059539
 30
0.0
 10
10.4207829741
 20
31.5979264085
 30
0.0
 10
10.4988283632
 20
31.8627161659
 30
0.0
 10
10.6302404526
 20
32.0775778935
 30
0.0
 10
10.7536766328
 20
32.1813419193
 30
0.0
 10
10.8196464033
 20
32.2194360035
 30
0.0
  0
SPLINE
  5
369
100
AcDbEntity
  8
0
100
AcDbSpline
 62
7
  6
CONTINUOUS
 70
0
 71
3
 72
19
 73
15
 74
0
 42
0.0000001
 43
0.0000001
 44
0.0000000001
 40
0.0
 40
0.0
 40
0.0
 40
0.0
 40
0.0428394104
 40
0.0874448899
 40
0.1352571039
 40
0.1871950253
 40
0.2436735499
 40
0.3046656819
 40
0.4382689093
 40
0.5825434307
 40
0.7296392143
 40
0.871166535
 40
0.9376088396
 40
1.0
 40
1.0
 40
1.0
 40
1.0
 10
25.5476056786
 20
46.7185823721
 30
0.0
 10
25.4983012893
 20
46.6901116719
 30
0.0
 10
25.389601454
 20
46.6449761732
 30
0.0
 10
25.2101987544
 20
46.6186402354
 30
0.0
 10
25.0175383171
 20
46.6328498274
 30
0.0
 10
24.8159095644
 20
46.6864058363
 30
0.0
 10
24.6092489878
 20
46.7777163946
 30
0.0
 10
24.3239826437
 20
46.9523404141
 30
0.0
 10
23.9841398145
 20
47.2532954197
 30
0.0
 10
23.6348471724
 20
47.700487099
 30
0.0
 10
23.3598057139
 20
48.2087352295
 30
0.0
 10
23.2076144817
 20
48.6585429966
 30
0.0
 10
23.1446921159
 20
49.0128529882
 30
0.0
 10
23.1333941169
 20
49.1841926058
 30
0.0
 10
23.1333941169
 20
49.2671113717
 30
0.0
  0
SPLINE
  5
36A
100
AcDbEntity
  8
0
100
AcDbSpline
 62
7
  6
CONTINUOUS
 70
0
 71
3
 72
11
 73
7
 74
0
 42
0.0000001
 43
0.0000001
 44
0.0000000001
 40
0.0
 40
0.0
 40
0.0
 40
0.0
 40
0.2897016594
 40
0.5490895814
 40
0.7822189142
 40
1.0
 40
1.0
 40
1.0
 40
1.0
 10
16.7694065906
 20
27.6297032313
 30
0.0
 10
16.7694065906
 20
27.7310391632
 30
0.0
 10
16.7847705004
 20
27.9237596178
 30
0.0
 10
16.8628158895
 20
28.1885493752
 30
0.0
 10
16.9942279789
 20
28.4034111028
 30
0.0
 10
17.1176641591
 20
28.5071751286
 30
0.0
 10
17.1836339296
 20
28.5452692128
 30
0.0
  0
SPLINE
  5
36B
100
AcDbEntity
  8
0
100
AcDbSpline
 62
7
  6
CONTINUOUS
 70
0
 71
3
 72
10
 73
6
 74
0
 42
0.0000001
 43
0.0000001
 44
0.0000000001
 40
0.0
 40
0.0
 40
0.0
 40
0.0
 40
0.5197437211
 40
0.7712047223
 40
1.0
 40
1.0
 40
1.0
 40
1.0
 10
27.7296073304
 20
25.2074573128
 30
0.0
 10
27.7120036505
 20
25.2599410922
 30
0.0
 10
27.672190736
 20
25.3340556202
 30
0.0
 10
27.6005938779
 20
25.4132972016
 30
0.0
 10
27.5594919393
 20
25.4445682683
 30
0.0
 10
27.5383878694
 20
25.456752433
 30
0.0
  0
SPLINE
  5
36C
100
AcDbEntity
  8
0
100
AcDbSpline
 62
7
  6
CONTINUOUS
 70
0
 71
3
 72
11
 73
7
 74
0
 42
0.0000001
 43
0.0000001
 44
0.0000000001
 40
0.0
 40
0.0
 40
0.0
 40
0.0
 40
0.2897016594
 40
0.5490895814
 40
0.7822189142
 40
1.0
 40
1.0
 40
1.0
 40
1.0
 10
23.1333941169
 20
23.9555364406
 30
0.0
 10
23.1333941169
 20
24.0568723725
 30
0.0
 10
23.1487580267
 20
24.2495928271
 30
0.0
 10
23.2268034158
 20
24.5143825845
 30
0.0
 10
23.3582155052
 20
24.7292443122
 30
0.0
 10
23.4816516854
 20
24.8330083379
 30
0.0
 10
23.5476214559
 20
24.8711024221
 30
0.0
  0
SPLINE
  5
36D
100
AcDbEntity
  8
0
100
AcDbSpline
 62
7
  6
CONTINUOUS
 70
0
 71
3
 72
11
 73
7
 74
0
 42
0.0000001
 43
0.0000001
 44
0.0000000001
 40
0.0
 40
0.0
 40
0.0
 40
0.0
 40
0.2897016594
 40
0.5490895814
 40
0.7822189142
 40
1.0
 40
1.0
 40
1.0
 40
1.0
 10
10.4054190643
 20
56.615444953
 30
0.0
 10
10.4054190643
 20
56.7167808849
 30
0.0
 10
10.4207829741
 20
56.9095013395
 30
0.0
 10
10.4988283632
 20
57.1742910969
 30
0.0
 10
10.6302404526
 20
57.3891528245
 30
0.0
 10
10.7536766328
 20
57.4929168503
 30
0.0
 10
10.8196464033
 20
57.5310109345
 30
0.0
  0
SPLINE
  5
36E
100
AcDbEntity
  8
0
100
AcDbSpline
 62
7
  6
CONTINUOUS
 70
0
 71
3
 72
11
 73
7
 74
0
 42
0.0000001
 43
0.0000001
 44
0.0000000001
 40
0.0
 40
0.0
 40
0.0
 40
0.0
 40
0.2323914259
 40
0.4895391999
 40
0.7519953218
 40
1.0
 40
1.0
 40
1.0
 40
1.0
 10
20.3119956963
 20
60.8572304257
 30
0.0
 10
20.294424964
 20
60.8470860192
 30
0.0
 10
20.2607356308
 20
60.8198795422
 30
0.0
 10
20.2195618439
 20
60.7682323013
 30
0.0
 10
20.1884749978
 20
60.7084095708
 30
0.0
 10
20.1761799873
 20
60.6651055145
 30
0.0
 10
20.1730032621
 20
60.6436878058
 30
0.0
  0
SPLINE
  5
36F
100
AcDbEntity
  8
0
100
AcDbSpline
 62
7
  6
CONTINUOUS
 70
0
 71
3
 72
9
 73
5
 74
0
 42
0.0000001
 43
0.0000001
 44
0.0000000001
 40
0.0
 40
0.0
 40
0.0
 40
0.0
 40
0.2584211567
 40
1.0
 40
1.0
 40
1.0
 40
1.0
 10
20.1730032621
 20
60.6436878058
 30
0.0
 10
20.1726049548
 20
60.6410023895
 30
0.0
 10
20.1712368529
 20
60.6305866548
 30
0.0
 10
20.1705749289
 20
60.6200716276
 30
0.0
 10
20.1705749289
 20
60.6122811115
 30
0.0
  0
SPLINE
  5
370
100
AcDbEntity
  8
0
100
AcDbSpline
 62
7
  6
CONTINUOUS
 70
0
 71
3
 72
11
 73
7
 74
0
 42
0.0000001
 43
0.0000001
 44
0.0000000001
 40
0.0
 40
0.0
 40
0.0
 40
0.0
 40
0.2894974988
 40
0.549124881
 40
0.7822686143
 40
1.0
 40
1.0
 40
1.0
 40
1.0
 10
23.3525981317
 20
19.093368258
 30
0.0
 10
23.352680316
 20
19.1439983064
 30
0.0
 10
23.3604116713
 20
19.2403354293
 30
0.0
 10
23.3992388642
 20
19.3727941202
 30
0.0
 10
23.4650009577
 20
19.4802535082
 30
0.0
 10
23.5267557107
 20
19.5320658131
 30
0.0
 10
23.5597320594
 20
19.5511070316
 30
0.0
  0
SPLINE
  5
371
100
AcDbEntity
  8
0
100
AcDbSpline
 62
7
  6
CONTINUOUS
 70
0
 71
3
 72
10
 73
6
 74
0
 42
0.0000001
 43
0.0000001
 44
0.0000000001
 40
0.0
 40
0.0
 40
0.0
 40
0.0
 40
0.2287948127
 40
0.4802552903
 40
1.0
 40
1.0
 40
1.0
 40
1.0
 10
29.659699381
 20
26.6814848947
 30
0.0
 10
29.6808034082
 20
26.6693007545
 30
0.0
 10
29.7219052991
 20
26.6380298011
 30
0.0
 10
29.7935021422
 20
26.5587882011
 30
0.0
 10
29.8333151286
 20
26.484673654
 30
0.0
 10
29.850918842
 20
26.4321897744
 30
0.0
  0
SPLINE
  5
372
100
AcDbEntity
  8
0
100
AcDbSpline
 62
7
  6
CONTINUOUS
 70
0
 71
3
 72
11
 73
7
 74
0
 42
0.0000001
 43
0.0000001
 44
0.0000000001
 40
0.0
 40
0.0
 40
0.0
 40
0.0
 40
0.2897016594
 40
0.5490895814
 40
0.7822189142
 40
1.0
 40
1.0
 40
1.0
 40
1.0
 10
16.7694065906
 20
52.9412781623
 30
0.0
 10
16.7694065906
 20
53.0426140942
 30
0.0
 10
16.7847705004
 20
53.2353345488
 30
0.0
 10
16.8628158895
 20
53.5001243062
 30
0.0
 10
16.9942279789
 20
53.7149860339
 30
0.0
 10
17.1176641591
 20
53.8187500596
 30
0.0
 10
17.1836339296
 20
53.8568441438
 30
0.0
  0
SPLINE
  5
373
100
AcDbEntity
  8
0
100
AcDbSpline
 62
7
  6
CONTINUOUS
 70
0
 71
3
 72
15
 73
11
 74
0
 42
0.0000001
 43
0.0000001
 44
0.0000000001
 40
0.0
 40
0.0
 40
0.0
 40
0.0
 40
0.1485639676
 40
0.2895078956
 40
0.4227268574
 40
0.5486378888
 40
0.6680003436
 40
0.7819371032
 40
0.8919854368
 40
1.0
 40
1.0
 40
1.0
 40
1.0
 10
61.6705856287
 20
55.5569128598
 30
0.0
 10
61.6705856287
 20
55.2314184798
 30
0.0
 10
61.6442980309
 20
54.5966902871
 30
0.0
 10
61.5194210114
 20
53.6775098763
 30
0.0
 10
61.3106880582
 20
52.8243236423
 30
0.0
 10
61.0197930602
 20
52.0454958935
 30
0.0
 10
60.6491074003
 20
51.3484101321
 30
0.0
 10
60.2012873911
 20
50.7402946789
 30
0.0
 10
59.680673574
 20
50.2278690737
 30
0.0
 10
59.2866150342
 20
49.9529473663
 30
0.0
 10
59.0816747781
 20
49.8346079712
 30
0.0
  0
SPLINE
  5
374
100
AcDbEntity
  8
0
100
AcDbSpline
 62
7
  6
CONTINUOUS
 70
0
 71
3
 72
11
 73
7
 74
0
 42
0.0000001
 43
0.0000001
 44
0.0000000001
 40
0.0
 40
0.0
 40
0.0
 40
0.0
 40
0.2892362406
 40
0.5490282353
 40
0.7821835256
 40
1.0
 40
1.0
 40
1.0
 40
1.0
 10
8.8288642124
 20
36.2584565856
 30
0.0
 10
8.8157220689
 20
36.266044034
 30
0.0
 10
8.7895219203
 20
36.2784563889
 30
0.0
 10
8.7492934321
 20
36.2882404185
 30
0.0
 10
8.7114999698
 20
36.2872951026
 30
0.0
 10
8.6887586588
 20
36.2790334109
 30
0.0
 10
8.6788721941
 20
36.2733012611
 30
0.0
  0
SPLINE
  5
375
100
AcDbEntity
  8
0
100
AcDbSpline
 62
7
  6
CONTINUOUS
 70
0
 71
3
 72
18
 73
14
 74
0
 42
0.0000001
 43
0.0000001
 44
0.0000000001
 40
0.0
 40
0.0
 40
0.0
 40
0.0
 40
0.0428396717
 40
0.0874387111
 40
0.1352258787
 40
0.1871254273
 40
0.2435506458
 40
0.3044784313
 40
0.437957512
 40
0.5821584027
 40
0.7292862399
 40
0.8710079748
 40
1.0
 40
1.0
 40
1.0
 40
1.0
 10
35.4891353556
 20
59.1446549461
 30
0.0
 10
35.4891182512
 20
59.1872303857
 30
0.0
 10
35.5004827331
 20
59.2744983099
 30
0.0
 10
35.5503752151
 20
59.4005413973
 30
0.0
 10
35.6313953779
 20
59.5200540477
 30
0.0
 10
35.7411828229
 20
59.6307247584
 30
0.0
 10
35.8772899916
 20
59.7305593511
 30
0.0
 10
36.0965709448
 20
59.8503581944
 30
0.0
 10
36.4180891868
 20
59.9584692364
 30
0.0
 10
36.8379398751
 20
60.0183881246
 30
0.0
 10
37.2702823133
 20
60.0075700296
 30
0.0
 10
37.6796368556
 20
59.9270594152
 30
0.0
 10
37.9312399064
 20
59.8245548922
 30
0.0
 10
38.0426353747
 20
59.7611090711
 30
0.0
  0
SPLINE
  5
376
100
AcDbEntity
  8
0
100
AcDbSpline
 62
7
  6
CONTINUOUS
 70
0
 71
3
 72
11
 73
7
 74
0
 42
0.0000001
 43
0.0000001
 44
0.0000000001
 40
0.0
 40
0.0
 40
0.0
 40
0.0
 40
0.2897016594
 40
0.5490895814
 40
0.7822189142
 40
1.0
 40
1.0
 40
1.0
 40
1.0
 10
23.1333941169
 20
49.2671113717
 30
0.0
 10
23.1333941169
 20
49.3684473036
 30
0.0
 10
23.1487580267
 20
49.5611677581
 30
0.0
 10
23.2268034158
 20
49.8259575155
 30
0.0
 10
23.3582155052
 20
50.0408192432
 30
0.0
 10
23.4816516854
 20
50.1445832689
 30
0.0
 10
23.5476214559
 20
50.1826773531
 30
0.0
  0
SPLINE
  5
377
100
AcDbEntity
  8
0
100
AcDbSpline
 62
7
  6
CONTINUOUS
 70
0
 71
3
 72
19
 73
15
 74
0
 42
0.0000001
 43
0.0000001
 44
0.0000000001
 40
0.0
 40
0.0
 40
0.0
 40
0.0
 40
0.13035258
 40
0.2713839524
 40
0.3440080974
 40
0.4168004877
 40
0.4888505533
 40
0.5592789605
 40
0.6919619763
 40
0.8098903729
 40
0.8627032759
 40
0.9115257281
 40
0.956945883
 40
1.0
 40
1.0
 40
1.0
 40
1.0
 10
37.9684084425
 20
59.718961104
 30
0.0
 10
37.8585813563
 20
59.7735700337
 30
0.0
 10
37.6166773673
 20
59.8612713206
 30
0.0
 10
37.2963328731
 20
59.9168517811
 30
0.0
 10
37.0269617892
 20
59.9314176845
 30
0.0
 10
36.8221812071
 20
59.9263532697
 30
0.0
 10
36.6204952886
 20
59.9052266609
 30
0.0
 10
36.3658356878
 20
59.8571952931
 30
0.0
 10
36.0768419169
 20
59.763740518
 30
0.0
 10
35.8260452658
 20
59.6208969675
 30
0.0
 10
35.6715934855
 20
59.4825867201
 30
0.0
 10
35.5842776073
 20
59.3743011433
 30
0.0
 10
35.5233282193
 20
59.2594366068
 30
0.0
 10
35.5008621344
 20
59.1783885229
 30
0.0
 10
35.4948027134
 20
59.1383327314
 30
0.0
  0
SPLINE
  5
378
100
AcDbEntity
  8
0
100
AcDbSpline
 62
7
  6
CONTINUOUS
 70
0
 71
3
 72
11
 73
7
 74
0
 42
0.0000001
 43
0.0000001
 44
0.0000000001
 40
0.0
 40
0.0
 40
0.0
 40
0.0
 40
0.2892362406
 40
0.5490282353
 40
0.7821835256
 40
1.0
 40
1.0
 40
1.0
 40
1.0
 10
8.8288642124
 20
49.3224952597
 30
0.0
 10
8.8157220689
 20
49.3300827081
 30
0.0
 10
8.7895219203
 20
49.342495063
 30
0.0
 10
8.7492934321
 20
49.3522790926
 30
0.0
 10
8.7114999698
 20
49.3513337767
 30
0.0
 10
8.6887586588
 20
49.3430720849
 30
0.0
 10
8.6788721941
 20
49.3373399351
 30
0.0
  0
SPLINE
  5
379
100
AcDbEntity
  8
0
100
AcDbSpline
 62
7
  6
CONTINUOUS
 70
0
 71
3
 72
11
 73
7
 74
0
 42
0.0000001
 43
0.0000001
 44
0.0000000001
 40
0.0
 40
0.0
 40
0.0
 40
0.0
 40
0.2372322911
 40
0.4999880396
 40
0.762750381
 40
1.0
 40
1.0
 40
1.0
 40
1.0
 10
31.4065472839
 20
26.4867252006
 30
0.0
 10
31.3864746157
 20
26.4751400204
 30
0.0
 10
31.3484905939
 20
26.443174517
 30
0.0
 10
31.3041567284
 20
26.3825971451
 30
0.0
 10
31.2738553609
 20
26.3139153335
 30
0.0
 10
31.2651586976
 20
26.2650362873
 30
0.0
 10
31.2651586976
 20
26.2418585636
 30
0.0
  0
SPLINE
  5
37A
100
AcDbEntity
  8
0
100
AcDbSpline
 62
7
  6
CONTINUOUS
 70
0
 71
3
 72
11
 73
7
 74
0
 42
0.0000001
 43
0.0000001
 44
0.0000000001
 40
0.0
 40
0.0
 40
0.0
 40
0.0
 40
0.2372446848
 40
0.5000016179
 40
0.7627576706
 40
1.0
 40
1.0
 40
1.0
 40
1.0
 10
37.6290610514
 20
30.2425742381
 30
0.0
 10
37.6290610514
 20
30.2193899942
 30
0.0
 10
37.6203629508
 20
30.1704971674
 30
0.0
 10
37.5900554428
 20
30.1017944452
 30
0.0
 10
37.5457113471
 20
30.0411959672
 30
0.0
 10
37.5077182588
 20
30.0092168789
 30
0.0
 10
37.4876402839
 20
29.9976249239
 30
0.0
  0
SPLINE
  5
37B
100
AcDbEntity
  8
0
100
AcDbSpline
 62
7
  6
CONTINUOUS
 70
0
 71
3
 72
11
 73
7
 74
0
 42
0.0000001
 43
0.0000001
 44
0.0000000001
 40
0.0
 40
0.0
 40
0.0
 40
0.0
 40
0.2372423294
 40
0.4999983821
 40
0.7627553152
 40
1.0
 40
1.0
 40
1.0
 40
1.0
 10
37.7704818188
 20
33.6310578583
 30
0.0
 10
37.750403844
 20
33.6194659033
 30
0.0
 10
37.7124107557
 20
33.587486815
 30
0.0
 10
37.66806666
 20
33.526888337
 30
0.0
 10
37.637759152
 20
33.4581856148
 30
0.0
 10
37.6290610514
 20
33.409292788
 30
0.0
 10
37.6290610514
 20
33.3861085441
 30
0.0
  0
SPLINE
  5
37C
100
AcDbEntity
  8
0
100
AcDbSpline
 62
7
  6
CONTINUOUS
 70
0
 71
3
 72
18
 73
14
 74
0
 42
0.0000001
 43
0.0000001
 44
0.0000000001
 40
0.0
 40
0.0
 40
0.0
 40
0.0
 40
0.0428458059
 40
0.0874607978
 40
0.1352801933
 40
0.1872295381
 40
0.2437202082
 40
0.3047234345
 40
0.438356031
 40
0.582660981
 40
0.729781669
 40
0.871343991
 40
1.0
 40
1.0
 40
1.0
 40
1.0
 10
20.1837606339
 20
65.8622477404
 30
0.0
 10
20.1837434802
 20
65.9049460443
 30
0.0
 10
20.1951766164
 20
65.9924771447
 30
0.0
 10
20.245360015
 20
66.1188695613
 30
0.0
 10
20.3268392251
 20
66.2386719259
 30
0.0
 10
20.4372252801
 20
66.3495608021
 30
0.0
 10
20.574049355
 20
66.4495240776
 30
0.0
 10
20.7944243141
 20
66.569362802
 30
0.0
 10
21.1173667401
 20
66.6772172972
 30
0.0
 10
21.5387553104
 20
66.7363976472
 30
0.0
 10
21.972205832
 20
66.724430484
 30
0.0
 10
22.3819367229
 20
66.6424475187
 30
0.0
 10
22.633353127
 20
66.538719388
 30
0.0
 10
22.7443895612
 20
66.4746139231
 30
0.0
  0
SPLINE
  5
37D
100
AcDbEntity
  8
0
100
AcDbSpline
 62
7
  6
CONTINUOUS
 70
0
 71
3
 72
11
 73
7
 74
0
 42
0.0000001
 43
0.0000001
 44
0.0000000001
 40
0.0
 40
0.0
 40
0.0
 40
0.0
 40
0.2372423294
 40
0.4999983821
 40
0.7627553152
 40
1.0
 40
1.0
 40
1.0
 40
1.0
 10
27.9417384816
 20
52.4515366333
 30
0.0
 10
27.9116215193
 20
52.4341487009
 30
0.0
 10
27.8546318868
 20
52.3861800684
 30
0.0
 10
27.7881157433
 20
52.2952823515
 30
0.0
 10
27.7426544813
 20
52.1922282681
 30
0.0
 10
27.7296073304
 20
52.1188890279
 30
0.0
 10
27.7296073304
 20
52.084112662
 30
0.0
  0
SPLINE
  5
37E
100
AcDbEntity
  8
0
100
AcDbSpline
 62
7
  6
CONTINUOUS
 70
0
 71
3
 72
19
 73
15
 74
0
 42
0.0000001
 43
0.0000001
 44
0.0000000001
 40
0.0
 40
0.0
 40
0.0
 40
0.0
 40
0.0428394104
 40
0.0874448899
 40
0.1352571039
 40
0.1871950253
 40
0.2436735499
 40
0.3046656819
 40
0.4382689093
 40
0.5825434307
 40
0.7296392143
 40
0.871166535
 40
0.9376088396
 40
1.0
 40
1.0
 40
1.0
 40
1.0
 10
12.8196306259
 20
54.0669159535
 30
0.0
 10
12.7703262366
 20
54.0384452533
 30
0.0
 10
12.6616264014
 20
53.9933097545
 30
0.0
 10
12.4822237017
 20
53.9669738168
 30
0.0
 10
12.2895632644
 20
53.9811834088
 30
0.0
 10
12.0879345118
 20
54.0347394177
 30
0.0
 10
11.8812739352
 20
54.1260499759
 30
0.0
 10
11.5960075911
 20
54.3006739955
 30
0.0
 10
11.2561647618
 20
54.6016290011
 30
0.0
 10
10.9068721198
 20
55.0488206804
 30
0.0
 10
10.6318306612
 20
55.5570688109
 30
0.0
 10
10.4796394291
 20
56.006876578
 30
0.0
 10
10.4167170632
 20
56.3611865696
 30
0.0
 10
10.4054190643
 20
56.5325261872
 30
0.0
 10
10.4054190643
 20
56.615444953
 30
0.0
  0
SPLINE
  5
37F
100
AcDbEntity
  8
0
100
AcDbSpline
 62
7
  6
CONTINUOUS
 70
0
 71
3
 72
19
 73
15
 74
0
 42
0.0000001
 43
0.0000001
 44
0.0000000001
 40
0.0
 40
0.0
 40
0.0
 40
0.0
 40
0.0428394104
 40
0.0874448899
 40
0.1352571039
 40
0.1871950253
 40
0.2436735499
 40
0.3046656819
 40
0.4382689093
 40
0.5825434307
 40
0.7296392143
 40
0.871166535
 40
0.9376088396
 40
1.0
 40
1.0
 40
1.0
 40
1.0
 10
25.5476056786
 20
21.4070074411
 30
0.0
 10
25.4983012893
 20
21.3785367409
 30
0.0
 10
25.389601454
 20
21.3334012422
 30
0.0
 10
25.2101987544
 20
21.3070653044
 30
0.0
 10
25.0175383171
 20
21.3212748964
 30
0.0
 10
24.8159095644
 20
21.3748309053
 30
0.0
 10
24.6092489878
 20
21.4661414636
 30
0.0
 10
24.3239826437
 20
21.6407654831
 30
0.0
 10
23.9841398145
 20
21.9417204887
 30
0.0
 10
23.6348471724
 20
22.388912168
 30
0.0
 10
23.3598057139
 20
22.8971602985
 30
0.0
 10
23.2076144817
 20
23.3469680656
 30
0.0
 10
23.1446921159
 20
23.7012780572
 30
0.0
 10
23.1333941169
 20
23.8726176748
 30
0.0
 10
23.1333941169
 20
23.9555364406
 30
0.0
  0
SPLINE
  5
380
100
AcDbEntity
  8
0
100
AcDbSpline
 62
7
  6
CONTINUOUS
 70
0
 71
3
 72
10
 73
6
 74
0
 42
0.0000001
 43
0.0000001
 44
0.0000000001
 40
0.0
 40
0.0
 40
0.0
 40
0.0
 40
0.2287948127
 40
0.4802552903
 40
1.0
 40
1.0
 40
1.0
 40
1.0
 10
29.659699381
 20
39.7455235687
 30
0.0
 10
29.6808034082
 20
39.7333394286
 30
0.0
 10
29.7219052991
 20
39.7020684752
 30
0.0
 10
29.7935021422
 20
39.6228268752
 30
0.0
 10
29.8333151286
 20
39.5487123281
 30
0.0
 10
29.850918842
 20
39.4962284485
 30
0.0
  0
SPLINE
  5
381
100
AcDbEntity
  8
0
100
AcDbSpline
 62
7
  6
CONTINUOUS
 70
0
 71
3
 72
11
 73
7
 74
0
 42
0.0000001
 43
0.0000001
 44
0.0000000001
 40
0.0
 40
0.0
 40
0.0
 40
0.0
 40
0.2654560542
 40
0.5219917649
 40
0.767476654
 40
1.0
 40
1.0
 40
1.0
 40
1.0
 10
60.5834193224
 20
61.088555933
 30
0.0
 10
60.7583694326
 20
60.6188215973
 30
0.0
 10
61.0678371219
 20
59.6817638483
 30
0.0
 10
61.4106770989
 20
58.2719849527
 30
0.0
 10
61.6202897086
 20
56.8990715384
 30
0.0
 10
61.6705856287
 20
55.9959828765
 30
0.0
 10
61.6705856287
 20
55.5569128598
 30
0.0
  0
SPLINE
  5
382
100
AcDbEntity
  8
0
100
AcDbSpline
 62
7
  6
CONTINUOUS
 70
0
 71
3
 72
11
 73
7
 74
0
 42
0.0000001
 43
0.0000001
 44
0.0000000001
 40
0.0
 40
0.0
 40
0.0
 40
0.0
 40
0.2372428334
 40
0.4999989082
 40
0.7627555772
 40
1.0
 40
1.0
 40
1.0
 40
1.0
 10
24.5546728886
 20
55.7950341918
 30
0.0
 10
24.5847900573
 20
55.7776464297
 30
0.0
 10
24.6417801361
 20
55.7296781301
 30
0.0
 10
24.7082968763
 20
55.6387807034
 30
0.0
 10
24.7537585479
 20
55.5357267948
 30
0.0
 10
24.7668058062
 20
55.4623875875
 30
0.0
 10
24.7668058062
 20
55.4276112403
 30
0.0
  0
SPLINE
  5
383
100
AcDbEntity
  8
0
100
AcDbSpline
 62
7
  6
CONTINUOUS
 70
0
 71
3
 72
9
 73
5
 74
0
 42
0.0000001
 43
0.0000001
 44
0.0000000001
 40
0.0
 40
0.0
 40
0.0
 40
0.0
 40
0.2281840416
 40
1.0
 40
1.0
 40
1.0
 40
1.0
 10
25.0591685577
 20
53.6258563274
 30
0.0
 10
25.0662260136
 20
53.6289170643
 30
0.0
 10
25.0974709361
 20
53.6415996991
 30
0.0
 10
25.1297199476
 20
53.6517148869
 30
0.0
 10
25.1548450891
 20
53.6584785094
 30
0.0
  0
SPLINE
  5
384
100
AcDbEntity
  8
0
100
AcDbSpline
 62
7
  6
CONTINUOUS
 70
0
 71
3
 72
20
 73
16
 74
0
 42
0.0000001
 43
0.0000001
 44
0.0000000001
 40
0.0
 40
0.0
 40
0.0
 40
0.0
 40
0.2226542121
 40
0.3435562709
 40
0.4689798847
 40
0.597866088
 40
0.6633604983
 40
0.7294731486
 40
0.7961742498
 40
0.8634312024
 40
0.897249621
 40
0.9311761826
 40
0.9651967683
 40
0.9823652615
 40
1.0
 40
1.0
 40
1.0
 40
1.0
 10
25.1548450891
 20
53.6584785094
 30
0.0
 10
25.2033999841
 20
53.6715493604
 30
0.0
 10
25.2799616113
 20
53.6858491641
 30
0.0
 10
25.3853643193
 20
53.6964108566
 30
0.0
 10
25.4700591477
 20
53.7002878774
 30
0.0
 10
25.5423147509
 20
53.6998039468
 30
0.0
 10
25.6010879944
 20
53.6971205789
 30
0.0
 10
25.6457648674
 20
53.6939380523
 30
0.0
 10
25.6907467509
 20
53.6896336426
 30
0.0
 10
25.7283735234
 20
53.6851437133
 30
0.0
 10
25.7585832615
 20
53.6810292754
 30
0.0
 10
25.7813091251
 20
53.6775900925
 30
0.0
 10
25.8002999466
 20
53.6746534573
 30
0.0
 10
25.815586788
 20
53.6717387429
 30
0.0
 10
25.8235209931
 20
53.6717476373
 30
0.0
 10
25.8274804034
 20
53.6721764894
 30
0.0
  0
SPLINE
  5
385
100
AcDbEntity
  8
0
100
AcDbSpline
 62
7
  6
CONTINUOUS
 70
0
 71
3
 72
11
 73
7
 74
0
 42
0.0000001
 43
0.0000001
 44
0.0000000001
 40
0.0
 40
0.0
 40
0.0
 40
0.0
 40
0.2372428334
 40
0.4999989082
 40
0.7627555772
 40
1.0
 40
1.0
 40
1.0
 40
1.0
 10
17.8371304997
 20
59.6733213597
 30
0.0
 10
17.8672476684
 20
59.6559335976
 30
0.0
 10
17.9242377472
 20
59.6079652981
 30
0.0
 10
17.9907544874
 20
59.5170678714
 30
0.0
 10
18.036216159
 20
59.4140139628
 30
0.0
 10
18.0492634173
 20
59.3406747555
 30
0.0
 10
18.0492634173
 20
59.3058984082
 30
0.0
  0
SPLINE
  5
386
100
AcDbEntity
  8
0
100
AcDbSpline
 62
7
  6
CONTINUOUS
 70
0
 71
3
 72
11
 73
7
 74
0
 42
0.0000001
 43
0.0000001
 44
0.0000000001
 40
0.0
 40
0.0
 40
0.0
 40
0.0
 40
0.2323914259
 40
0.4895391999
 40
0.7519953218
 40
1.0
 40
1.0
 40
1.0
 40
1.0
 10
31.4065472839
 20
54.4519329873
 30
0.0
 10
31.3889765516
 20
54.4417885808
 30
0.0
 10
31.3552872183
 20
54.4145821037
 30
0.0
 10
31.3141134315
 20
54.3629348629
 30
0.0
 10
31.2830265853
 20
54.3031121323
 30
0.0
 10
31.2707315749
 20
54.2598080761
 30
0.0
 10
31.2675548496
 20
54.2383903673
 30
0.0
  0
SPLINE
  5
387
100
AcDbEntity
  8
0
100
AcDbSpline
 62
7
  6
CONTINUOUS
 70
0
 71
3
 72
9
 73
5
 74
0
 42
0.0000001
 43
0.0000001
 44
0.0000000001
 40
0.0
 40
0.0
 40
0.0
 40
0.0
 40
0.2584211567
 40
1.0
 40
1.0
 40
1.0
 40
1.0
 10
31.2675548496
 20
54.2383903673
 30
0.0
 10
31.2671565423
 20
54.2357049511
 30
0.0
 10
31.2657884404
 20
54.2252892163
 30
0.0
 10
31.2651265165
 20
54.2147741892
 30
0.0
 10
31.2651265165
 20
54.2069836731
 30
0.0
  0
SPLINE
  5
388
100
AcDbEntity
  8
0
100
AcDbSpline
 62
7
  6
CONTINUOUS
 70
0
 71
3
 72
11
 73
7
 74
0
 42
0.0000001
 43
0.0000001
 44
0.0000000001
 40
0.0
 40
0.0
 40
0.0
 40
0.0
 40
0.2323914259
 40
0.4895391999
 40
0.7519953218
 40
1.0
 40
1.0
 40
1.0
 40
1.0
 10
13.5237423349
 20
64.7763416691
 30
0.0
 10
13.5061716026
 20
64.7661972626
 30
0.0
 10
13.4724822694
 20
64.7389907856
 30
0.0
 10
13.4313084825
 20
64.6873435447
 30
0.0
 10
13.4002216363
 20
64.6275208142
 30
0.0
 10
13.3879266259
 20
64.5842167579
 30
0.0
 10
13.3847499006
 20
64.5627990492
 30
0.0
  0
SPLINE
  5
389
100
AcDbEntity
  8
0
100
AcDbSpline
 62
7
  6
CONTINUOUS
 70
0
 71
3
 72
9
 73
5
 74
0
 42
0.0000001
 43
0.0000001
 44
0.0000000001
 40
0.0
 40
0.0
 40
0.0
 40
0.0
 40
0.2584211567
 40
1.0
 40
1.0
 40
1.0
 40
1.0
 10
13.3847499006
 20
64.5627990492
 30
0.0
 10
13.3843515933
 20
64.5601136329
 30
0.0
 10
13.3829834915
 20
64.5496978982
 30
0.0
 10
13.3823215675
 20
64.539182871
 30
0.0
 10
13.3823215675
 20
64.5313923549
 30
0.0
  0
SPLINE
  5
38A
100
AcDbEntity
  8
0
100
AcDbSpline
 62
7
  6
CONTINUOUS
 70
0
 71
3
 72
11
 73
7
 74
0
 42
0.0000001
 43
0.0000001
 44
0.0000000001
 40
0.0
 40
0.0
 40
0.0
 40
0.0
 40
0.2372446849
 40
0.500001618
 40
0.7627576706
 40
1.0
 40
1.0
 40
1.0
 40
1.0
 10
64.8525587842
 20
73.9251819488
 30
0.0
 10
64.8525587842
 20
73.9019977049
 30
0.0
 10
64.8438606836
 20
73.8531048781
 30
0.0
 10
64.8135531756
 20
73.7844021558
 30
0.0
 10
64.7692090799
 20
73.7238036779
 30
0.0
 10
64.7312159915
 20
73.6918245896
 30
0.0
 10
64.7111380167
 20
73.6802326346
 30
0.0
  0
SPLINE
  5
38B
100
AcDbEntity
  8
0
100
AcDbSpline
 62
7
  6
CONTINUOUS
 70
0
 71
3
 72
11
 73
7
 74
0
 42
0.0000001
 43
0.0000001
 44
0.0000000001
 40
0.0
 40
0.0
 40
0.0
 40
0.0
 40
0.2372423294
 40
0.4999983821
 40
0.7627553152
 40
1.0
 40
1.0
 40
1.0
 40
1.0
 10
64.9939795516
 20
77.9260423819
 30
0.0
 10
64.9739015767
 20
77.9144504269
 30
0.0
 10
64.9359084884
 20
77.8824713386
 30
0.0
 10
64.8915643927
 20
77.8218728606
 30
0.0
 10
64.8612568847
 20
77.7531701384
 30
0.0
 10
64.8525587841
 20
77.7042773116
 30
0.0
 10
64.8525587841
 20
77.6810930677
 30
0.0
  0
SPLINE
  5
38C
100
AcDbEntity
  8
0
100
AcDbSpline
 62
7
  6
CONTINUOUS
 70
0
 71
3
 72
19
 73
15
 74
0
 42
0.0000001
 43
0.0000001
 44
0.0000000001
 40
0.0
 40
0.0
 40
0.0
 40
0.0
 40
0.0428394104
 40
0.0874448899
 40
0.1352571039
 40
0.1871950253
 40
0.2436735499
 40
0.3046656819
 40
0.4382689093
 40
0.5825434307
 40
0.7296392143
 40
0.871166535
 40
0.9376088396
 40
1.0
 40
1.0
 40
1.0
 40
1.0
 10
19.1836181522
 20
25.0811742318
 30
0.0
 10
19.1343137629
 20
25.0527035316
 30
0.0
 10
19.0256139277
 20
25.0075680328
 30
0.0
 10
18.8462112281
 20
24.9812320951
 30
0.0
 10
18.6535507908
 20
24.9954416871
 30
0.0
 10
18.4519220381
 20
25.048997696
 30
0.0
 10
18.2452614615
 20
25.1403082542
 30
0.0
 10
17.9599951174
 20
25.3149322738
 30
0.0
 10
17.6201522881
 20
25.6158872794
 30
0.0
 10
17.2708596461
 20
26.0630789587
 30
0.0
 10
16.9958181876
 20
26.5713270892
 30
0.0
 10
16.8436269554
 20
27.0211348563
 30
0.0
 10
16.7807045896
 20
27.3754448479
 30
0.0
 10
16.7694065906
 20
27.5467844655
 30
0.0
 10
16.7694065906
 20
27.6297032313
 30
0.0
  0
SPLINE
  5
38D
100
AcDbEntity
  8
0
100
AcDbSpline
 62
7
  6
CONTINUOUS
 70
0
 71
3
 72
18
 73
14
 74
0
 42
0.0000001
 43
0.0000001
 44
0.0000000001
 40
0.0
 40
0.0
 40
0.0
 40
0.0
 40
0.1287754149
 40
0.269053265
 40
0.4143180723
 40
0.5571540415
 40
0.6905516638
 40
0.7520227119
 40
0.8093636077
 40
0.8624218446
 40
0.9114091402
 40
0.9569156413
 40
1.0
 40
1.0
 40
1.0
 40
1.0
 10
22.7008537301
 20
66.4170967928
 30
0.0
 10
22.5922885741
 20
66.4748824324
 30
0.0
 10
22.3506679425
 20
66.5685028002
 30
0.0
 10
21.9603118115
 20
66.6428087722
 30
0.0
 10
21.5495549972
 20
66.6540790573
 30
0.0
 10
21.1488185972
 20
66.6012950401
 30
0.0
 10
20.8388233453
 20
66.504588246
 30
0.0
 10
20.6229173796
 20
66.3967628953
 30
0.0
 10
20.4854742806
 20
66.3061821172
 30
0.0
 10
20.3708573077
 20
66.2051556965
 30
0.0
 10
20.2811557807
 20
66.0954994993
 30
0.0
 10
20.2185791079
 20
65.9789619884
 30
0.0
 10
20.1955825264
 20
65.8966100654
 30
0.0
 10
20.1894279918
 20
65.8559255257
 30
0.0
  0
SPLINE
  5
38E
100
AcDbEntity
  8
0
100
AcDbSpline
 62
7
  6
CONTINUOUS
 70
0
 71
3
 72
19
 73
15
 74
0
 42
0.0000001
 43
0.0000001
 44
0.0000000001
 40
0.0
 40
0.0
 40
0.0
 40
0.0
 40
0.0428394104
 40
0.0874448899
 40
0.1352571039
 40
0.1871950253
 40
0.2436735499
 40
0.3046656819
 40
0.4382689093
 40
0.5825434307
 40
0.7296392143
 40
0.871166535
 40
0.9376088396
 40
1.0
 40
1.0
 40
1.0
 40
1.0
 10
12.8196306259
 20
28.7553410225
 30
0.0
 10
12.7703262366
 20
28.7268703223
 30
0.0
 10
12.6616264014
 20
28.6817348235
 30
0.0
 10
12.4822237017
 20
28.6553988857
 30
0.0
 10
12.2895632644
 20
28.6696084778
 30
0.0
 10
12.0879345118
 20
28.7231644867
 30
0.0
 10
11.8812739352
 20
28.8144750449
 30
0.0
 10
11.5960075911
 20
28.9890990644
 30
0.0
 10
11.2561647618
 20
29.29005407
 30
0.0
 10
10.9068721198
 20
29.7372457494
 30
0.0
 10
10.6318306612
 20
30.2454938798
 30
0.0
 10
10.4796394291
 20
30.6953016469
 30
0.0
 10
10.4167170632
 20
31.0496116386
 30
0.0
 10
10.4054190643
 20
31.2209512562
 30
0.0
 10
10.4054190643
 20
31.303870022
 30
0.0
  0
SPLINE
  5
38F
100
AcDbEntity
  8
0
100
AcDbSpline
 62
7
  6
CONTINUOUS
 70
0
 71
3
 72
19
 73
15
 74
0
 42
0.0000001
 43
0.0000001
 44
0.0000000001
 40
0.0
 40
0.0
 40
0.0
 40
0.0
 40
0.0428394104
 40
0.0874448899
 40
0.1352571039
 40
0.1871950253
 40
0.2436735499
 40
0.3046656819
 40
0.4382689093
 40
0.5825434307
 40
0.7296392143
 40
0.871166535
 40
0.9376088396
 40
1.0
 40
1.0
 40
1.0
 40
1.0
 10
19.1836181522
 20
50.3927491628
 30
0.0
 10
19.1343137629
 20
50.3642784626
 30
0.0
 10
19.0256139277
 20
50.3191429639
 30
0.0
 10
18.8462112281
 20
50.2928070261
 30
0.0
 10
18.6535507908
 20
50.3070166181
 30
0.0
 10
18.4519220381
 20
50.360572627
 30
0.0
 10
18.2452614615
 20
50.4518831853
 30
0.0
 10
17.9599951174
 20
50.6265072048
 30
0.0
 10
17.6201522881
 20
50.9274622104
 30
0.0
 10
17.2708596461
 20
51.3746538897
 30
0.0
 10
16.9958181876
 20
51.8829020202
 30
0.0
 10
16.8436269554
 20
52.3327097873
 30
0.0
 10
16.7807045896
 20
52.6870197789
 30
0.0
 10
16.7694065906
 20
52.8583593965
 30
0.0
 10
16.7694065906
 20
52.9412781623
 30
0.0
  0
SPLINE
  5
390
100
AcDbEntity
  8
0
100
AcDbSpline
 62
7
  6
CONTINUOUS
 70
0
 71
3
 72
10
 73
6
 74
0
 42
0.0000001
 43
0.0000001
 44
0.0000000001
 40
0.0
 40
0.0
 40
0.0
 40
0.0
 40
0.5197437211
 40
0.7712047223
 40
1.0
 40
1.0
 40
1.0
 40
1.0
 10
27.7296073304
 20
38.2714959869
 30
0.0
 10
27.7120036505
 20
38.3239797663
 30
0.0
 10
27.672190736
 20
38.3980942943
 30
0.0
 10
27.6005938779
 20
38.4773358757
 30
0.0
 10
27.5594919393
 20
38.5086069423
 30
0.0
 10
27.5383878694
 20
38.5207911071
 30
0.0
  0
ENDSEC
  0
SECTION
  2
OBJECTS
  0
DICTIONARY
  5
C
100
AcDbDictionary
280
0
281
1
  3
ACAD_GROUP
350
D
  3
ACAD_MLINESTYLE
350
17
  3
ACAD_LAYOUT
350
1A
  3
ACAD_PLOTSETTINGS
350
19
  3
ACAD_PLOTSTYLENAME
350
E
  0
DICTIONARY
  5
D
102
{ACAD_REACTORS
330
C
102
}
100
AcDbDictionary
280
0
281
1
  0
ACDBDICTIONARYWDFLT
  5
E
102
{ACAD_REACTORS
330
C
102
}
100
AcDbDictionary
281
1
  3
Normal
350
F
100
AcDbDictionaryWithDefault
340
F
  0
DICTIONARY
  5
17
102
{ACAD_REACTORS
330
C
102
}
100
AcDbDictionary
280
0
281
1
  3
Standard
350
18
  0
DICTIONARY
  5
19
102
{ACAD_REACTORS
330
C
102
}
100
AcDbDictionary
281
1
  0
DICTIONARY
  5
1A
102
{ACAD_REACTORS
330
C
102
}
100
AcDbDictionary
281
1
  3
Model
350
391
  3
Layout1
350
392
  0
ACDBPLACEHOLDER
  5
F
102
{ACAD_REACTORS
330
E
102
}
  0
MLINESTYLE
  5
18
102
{ACAD_REACTORS
330
17
102
}
100
AcDbMlineStyle
  2
STANDARD
 70
0
  3

 62
256
 51
90.0
 52
90.0
 71
2
 49
0.5
 62
256
  6
BYLAYER
 49
-0.5
 62
256
  6
BYLAYER
  0
LAYOUT
  5
391
102
{ACAD_REACTORS
330
1A
102
}
100
AcDbPlotSettings
  1

  2
none_device
  4

  6

 40
0.0
 41
0.0
 42
0.0
 43
0.0
 44
210.0
 45
297.0
 46
0.0
 47
0.0
 48
0.0
 49
0.0
140
0.0
141
0.0
142
1.0
143
1.0
 70
1024
 72
1
 73
0
 74
0
  7

 75
0
147
1.0
148
0.0
149
0.0
100
AcDbLayout
  1
Model
 70
0
 71
0
 10
0.0
 20
0.0
 11
210.0
 21
297.0
 12
0.0
 22
0.0
 32
0.0
 14
0.0
 24
0.0
 34
0.0
 15
0.0
 25
0.0
 35
0.0
146
0.0
 13
0.0
 23
0.0
 33
0.0
 16
1.0
 26
0.0
 36
0.0
 17
0.0
 27
1.0
 37
0.0
 76
0
330
210
345
0
346
0
  0
LAYOUT
  5
392
102
{ACAD_REACTORS
330
1A
102
}
100
AcDbPlotSettings
  1

  2
none_device
  4

  6

 40
0.0
 41
0.0
 42
0.0
 43
0.0
 44
210.0
 45
297.0
 46
0.0
 47
0.0
 48
0.0
 49
0.0
140
0.0
141
0.0
142
1.0
143
1.0
 70
0
 72
1
 73
0
 74
0
  7

 75
0
147
1.0
148
0.0
149
0.0
100
AcDbLayout
  1
Layout1
 70
0
 71
1
 10
0.0
 20
0.0
 11
210.0
 21
297.0
 12
0.0
 22
0.0
 32
0.0
 14
0.0
 24
0.0
 34
0.0
 15
0.0
 25
0.0
 35
0.0
146
0.0
 13
0.0
 23
0.0
 33
0.0
 16
1.0
 26
0.0
 36
0.0
 17
0.0
 27
1.0
 37
0.0
 76
0
330
211
345
0
346
0
  0
ENDSEC
  0
EOF
