999
DXF file: C:\Users\sesa63760\Dev\_Creo\CAD\MCADPD0005304_3D-CAD\drw0001_4.dxf
999
Pro/ENGINEER 2019471 by Parametric Technology Corporation
  0
SECTION
  2
HEADER
  9
$ACADVER
  1
AC1024
  9
$DWGCODEPAGE
  3
ANSI_1252
  9
$EXTMAX
 10
103.4831044427
 20
146.3546762833
 30
0.0
  9
$EXTMIN
 10
0.0
 20
0.0
 30
0.0
  9
$LIMMIN
 10
0.0
 20
0.0
  9
$LIMMAX
 10
103.4831044427
 20
146.3546762833
  9
$VIEWCTR
 10
51.7415522214
 20
73.1773381416
  9
$VIEWSIZE
 40
146.3546762833
  9
$CLAYER
  8
0
  9
$LTSCALE
 40
9.5401566762
  9
$CELTYPE
  6
BYLAYER
  9
$DIMSCALE
 40
1.0
  9
$DIMASZ
 40
1.2319417196
  9
$DIMEXO
 40
1.0
  9
$DIMDLI
 40
6.5913809763
  9
$DIMEXE
 40
1.0
  9
$DIMCEN
 40
1.561116547
  9
$DIMLFAC
 40
1.0
  9
$DIMBLK
  1
_FILLED
  9
$DIMALT
 70
0
  9
$DIMALTF
 40
0.0393700787
  9
$DIMTXT
 40
1.7247184074
  9
$DIMTOL
 70
1
  9
$DIMLIM
 70
0
  9
$DIMTFAC
 40
1.0
  9
$DIMTP
 40
0.01
  9
$DIMTM
 40
0.01
  9
$DIMGAP
 40
0.625
  9
$DIMDSEP
 70
46
  9
$AUNITS
 70
0
  9
$PDMODE
 70
3
  9
$PDSIZE
 40
0.3125
  9
$HANDSEED
  5
271
  9
$TILEMODE
 70
1
  9
$MEASUREMENT
 70
1
  9
$INSUNITS
 70
4
  0
ENDSEC
  0
SECTION
  2
CLASSES
  0
CLASS
  1
ACDBDICTIONARYWDFLT
  2
AcDbDictionaryWithDefault
  3
AutoCAD 2000
 90
0
 91
1
280
0
281
0
  0
CLASS
  1
ACDBPLACEHOLDER
  2
AcDbPlaceHolder
  3
AutoCAD 2000
 90
0
 91
1
280
0
281
0
  0
CLASS
  1
LAYOUT
  2
AcDbLayout
  3
AutoCAD 2000
 90
0
 91
0
280
0
281
0
  0
ENDSEC
  0
SECTION
  2
TABLES
  0
TABLE
  2
VPORT
  5
8
100
AcDbSymbolTable
 70
2
  0
VPORT
  5
1F4
100
AcDbSymbolTableRecord
100
AcDbViewportTableRecord
  2
*ACTIVE
 70
0
 10
0.0
 20
0.0
 11
1.0
 21
1.0
 12
51.7415522214
 22
73.1773381416
 13
0.0
 23
0.0
 14
1.0
 24
1.0
 15
0.0
 25
0.0
 16
0.0
 26
0.0
 36
1.0
 17
0.0
 27
0.0
 37
0.0
 40
146.3546762833
 41
0.7070707071
 42
50.0
 43
0.0
 44
0.0
 50
0.0
 51
0.0
 71
0
 72
100
 73
1
 74
1
 75
0
 76
0
 77
0
 78
0
  0
ENDTAB
  0
TABLE
  2
LTYPE
  5
5
100
AcDbSymbolTable
 70
6
  0
LTYPE
  5
14
100
AcDbSymbolTableRecord
100
AcDbLinetypeTableRecord
  2
BYBLOCK
 70
0
  3

 72
65
 73
0
 40
0.0
  0
LTYPE
  5
15
100
AcDbSymbolTableRecord
100
AcDbLinetypeTableRecord
  2
BYLAYER
 70
0
  3

 72
65
 73
0
 40
0.0
  0
LTYPE
  5
16
100
AcDbSymbolTableRecord
100
AcDbLinetypeTableRecord
  2
CONTINUOUS
 70
64
  3
Solid line
 72
65
 73
0
 40
0.0
  0
LTYPE
  5
1F5
100
AcDbSymbolTableRecord
100
AcDbLinetypeTableRecord
  2
CENTER
 70
64
  3
____ _ ____ _ ____ _ ____ _ ____ _ ____ _ ____
 72
65
 73
4
 40
0.6
 49
0.375
 74
0
 49
-0.075
 74
0
 49
0.075
 74
0
 49
-0.075
 74
0
  0
LTYPE
  5
1F6
100
AcDbSymbolTableRecord
100
AcDbLinetypeTableRecord
  2
HIDDEN
 70
64
  3
- - - - - - - - - - - - - - - - - - - -
 72
65
 73
2
 40
0.2
 49
0.1
 74
0
 49
-0.1
 74
0
  0
LTYPE
  5
1F7
100
AcDbSymbolTableRecord
100
AcDbLinetypeTableRecord
  2
PHANTOM
 70
64
  3
_____ _ _ _____ _ _ _____ _ _ _____
 72
65
 73
6
 40
0.8
 49
0.45
 74
0
 49
-0.05
 74
0
 49
0.1
 74
0
 49
-0.05
 74
0
 49
0.1
 74
0
 49
-0.05
 74
0
  0
LTYPE
  5
1F8
100
AcDbSymbolTableRecord
100
AcDbLinetypeTableRecord
  2
DOT
 70
64
  3
. . . . . . . . . . . . . . . . . . . .
 72
65
 73
2
 40
0.2
 49
0.1
 74
0
 49
-0.1
 74
0
  0
LTYPE
  5
1F9
100
AcDbSymbolTableRecord
100
AcDbLinetypeTableRecord
  2
DASHED
 70
64
  3
- - - - - - - - - - - - - - - - - - - -
 72
65
 73
2
 40
0.2
 49
0.1
 74
0
 49
-0.1
 74
0
  0
ENDTAB
  0
TABLE
  2
LAYER
  5
2
100
AcDbSymbolTable
 70
36
  0
LAYER
  5
10
100
AcDbSymbolTableRecord
100
AcDbLayerTableRecord
  2
0
 70
0
 62
7
  6
CONTINUOUS
370
-3
390
F
  0
LAYER
  5
1FA
100
AcDbSymbolTableRecord
100
AcDbLayerTableRecord
  2
DEFAULT_1
 70
0
 62
7
  6
CENTER
370
-3
390
F
  0
LAYER
  5
1FB
100
AcDbSymbolTableRecord
100
AcDbLayerTableRecord
  2
DEFAULT_2
 70
0
 62
7
  6
HIDDEN
370
-3
390
F
  0
LAYER
  5
1FC
100
AcDbSymbolTableRecord
100
AcDbLayerTableRecord
  2
DEFAULT_3
 70
0
 62
7
  6
PHANTOM
370
-3
390
F
  0
LAYER
  5
1FD
100
AcDbSymbolTableRecord
100
AcDbLayerTableRecord
  2
00_COMPONENTS
 70
0
 62
7
  6
CONTINUOUS
370
-3
390
F
  0
LAYER
  5
1FE
100
AcDbSymbolTableRecord
100
AcDbLayerTableRecord
  2
01_1_DEFAULT_DATUMS
 70
0
 62
7
  6
CONTINUOUS
370
-3
390
F
  0
LAYER
  5
1FF
100
AcDbSymbolTableRecord
100
AcDbLayerTableRecord
  2
01_PLANES
 70
0
 62
7
  6
CONTINUOUS
370
-3
390
F
  0
LAYER
  5
200
100
AcDbSymbolTableRecord
100
AcDbLayerTableRecord
  2
02_COORD_SYS
 70
0
 62
7
  6
CONTINUOUS
370
-3
390
F
  0
LAYER
  5
201
100
AcDbSymbolTableRecord
100
AcDbLayerTableRecord
  2
03_AXES
 70
0
 62
7
  6
CONTINUOUS
370
-3
390
F
  0
LAYER
  5
202
100
AcDbSymbolTableRecord
100
AcDbLayerTableRecord
  2
04_POINTS
 70
0
 62
7
  6
CONTINUOUS
370
-3
390
F
  0
LAYER
  5
203
100
AcDbSymbolTableRecord
100
AcDbLayerTableRecord
  2
05_CURVES
 70
0
 62
7
  6
CONTINUOUS
370
-3
390
F
  0
LAYER
  5
204
100
AcDbSymbolTableRecord
100
AcDbLayerTableRecord
  2
06_SURFS
 70
0
 62
7
  6
CONTINUOUS
370
-3
390
F
  0
LAYER
  5
205
100
AcDbSymbolTableRecord
100
AcDbLayerTableRecord
  2
07_COSMETICS
 70
0
 62
7
  6
CONTINUOUS
370
-3
390
F
  0
LAYER
  5
206
100
AcDbSymbolTableRecord
100
AcDbLayerTableRecord
  2
10_NOTES
 70
0
 62
7
  6
CONTINUOUS
370
-3
390
F
  0
LAYER
  5
207
100
AcDbSymbolTableRecord
100
AcDbLayerTableRecord
  2
11_NOTES_PUB
 70
0
 62
7
  6
CONTINUOUS
370
-3
390
F
  0
LAYER
  5
208
100
AcDbSymbolTableRecord
100
AcDbLayerTableRecord
  2
13_REF_GTOL
 70
0
 62
7
  6
CONTINUOUS
370
-3
390
F
  0
LAYER
  5
209
100
AcDbSymbolTableRecord
100
AcDbLayerTableRecord
  2
16_MISC
 70
0
 62
7
  6
CONTINUOUS
370
-3
390
F
  0
LAYER
  5
20A
100
AcDbSymbolTableRecord
100
AcDbLayerTableRecord
  2
17_NO_PRINT
 70
0
 62
7
  6
CONTINUOUS
370
-3
390
F
  0
LAYER
  5
20B
100
AcDbSymbolTableRecord
100
AcDbLayerTableRecord
  2
18_DATUM_CAMS_JOINTS
 70
0
 62
7
  6
CONTINUOUS
370
-3
390
F
  0
LAYER
  5
20C
100
AcDbSymbolTableRecord
100
AcDbLayerTableRecord
  2
19_DATUM_FUNCTIONAL
 70
0
 62
7
  6
CONTINUOUS
370
-3
390
F
  0
LAYER
  5
20D
100
AcDbSymbolTableRecord
100
AcDbLayerTableRecord
  2
20_DATUM_KINEMATIC_SCHEME
 70
0
 62
7
  6
CONTINUOUS
370
-3
390
F
  0
ENDTAB
  0
TABLE
  2
STYLE
  5
3
100
AcDbSymbolTable
 70
1
  0
STYLE
  5
11
100
AcDbSymbolTableRecord
100
AcDbTextStyleTableRecord
  2
STANDARD
 70
0
 40
0.0
 41
1.0
 50
0.0
 71
0
 42
0.2
  3
ARIAL.TTF
  4

  0
STYLE
  5
20E
100
AcDbSymbolTableRecord
100
AcDbTextStyleTableRecord
  2
TEXTSTYLE_1
 70
0
 40
0.0
 41
0.8
 50
0.0
 71
0
 42
0.2
  3
gdt
  4

  0
ENDTAB
  0
TABLE
  2
VIEW
  5
6
100
AcDbSymbolTable
 70
0
  0
ENDTAB
  0
TABLE
  2
UCS
  5
7
100
AcDbSymbolTable
 70
0
  0
ENDTAB
  0
TABLE
  2
APPID
  5
9
100
AcDbSymbolTable
 70
1
  0
APPID
  5
20F
100
AcDbSymbolTableRecord
100
AcDbRegAppTableRecord
  2
ACAD
 70
0
  0
ENDTAB
  0
TABLE
  2
BLOCK_RECORD
  5
1
100
AcDbSymbolTable
 70
0
  0
BLOCK_RECORD
  5
210
100
AcDbSymbolTableRecord
100
AcDbBlockTableRecord
  2
*Model_Space
  0
BLOCK_RECORD
  5
211
100
AcDbSymbolTableRecord
100
AcDbBlockTableRecord
  2
*Paper_Space
  0
BLOCK_RECORD
  5
212
100
AcDbSymbolTableRecord
100
AcDbBlockTableRecord
  2
_FILLED
  0
ENDTAB
  0
TABLE
  2
DIMSTYLE
  5
A
100
AcDbSymbolTable
 70
1
100
AcDbDimStyleTable
 71
0
  0
DIMSTYLE
105
213
100
AcDbSymbolTableRecord
100
AcDbDimStyleTableRecord
  2
STANDARD
 70
0
  3

  4

 40
1.0
 41
1.2319417196
 42
1.0
 43
0.38
 44
1.0
 45
0.0
 46
0.0
 47
0.01
 48
0.01
140
1.7247184074
141
0.09
142
0.0
143
25.4
144
1.0
145
0.0
146
1.0
147
0.625
 71
1
 72
0
 73
0
 74
0
 75
0
 76
0
 77
1
 78
8
 79
2
170
0
171
1
172
0
173
0
174
0
175
0
176
0
177
0
178
0
270
2
179
2
271
2
272
2
273
2
274
2
275
0
280
0
281
0
282
0
283
1
284
8
285
0
286
0
287
3
288
0
340
11
278
46
341
212
342
212
343
212
344
212
  0
ENDTAB
  0
ENDSEC
  0
SECTION
  2
BLOCKS
  0
BLOCK
  5
20
100
AcDbEntity
  8
0
100
AcDbBlockBegin
  2
*Model_Space
 70
0
 10
0.0
 20
0.0
 30
0.0
  3
*Model_Space
  1

  0
ENDBLK
  5
21
100
AcDbEntity
  8
0
100
AcDbBlockEnd
  0
BLOCK
  5
1C
100
AcDbEntity
  8
0
100
AcDbBlockBegin
  2
*Paper_Space
 70
0
 10
0.0
 20
0.0
 30
0.0
  3
*Paper_Space
  1

  0
ENDBLK
  5
1D
100
AcDbEntity
  8
0
100
AcDbBlockEnd
  0
BLOCK
  5
214
100
AcDbEntity
  8
0
100
AcDbBlockBegin
  2
_FILLED
 70
64
 10
0.0
 20
0.0
  3
_FILLED
  1

  0
SOLID
  5
215
100
AcDbEntity
  8
0
  6
BYBLOCK
 62
0
100
AcDbTrace
 10
0.0
 20
0.0
 11
-1.0
 21
0.25
 12
-1.0
 22
-0.25
 13
-1.0
 23
-0.25
  0
ENDBLK
  5
216
100
AcDbEntity
  8
0
  6
BYBLOCK
 62
0
100
AcDbBlockEnd
  0
ENDSEC
  0
SECTION
  2
ENTITIES
  0
LINE
  5
217
100
AcDbEntity
  8
0
100
AcDbLine
 62
7
  6
BYLAYER
 10
30.6350774014
 20
10.4794964046
 11
75.5350774014
 21
10.4794964046
  0
LINE
  5
218
100
AcDbEntity
  8
0
100
AcDbLine
 62
7
  6
BYLAYER
 10
66.0850774014
 20
13.9794964046
 11
55.0850774014
 21
13.9794964046
  0
LINE
  5
219
100
AcDbEntity
  8
0
100
AcDbLine
 62
7
  6
BYLAYER
 10
51.5850774014
 20
13.9794964046
 11
39.5850774014
 21
13.9794964046
  0
LINE
  5
21A
100
AcDbEntity
  8
0
100
AcDbLine
 62
7
  6
BYLAYER
 10
36.5850774014
 20
14.9794964046
 11
54.5850774014
 21
14.9794964046
  0
LINE
  5
21B
100
AcDbEntity
  8
0
100
AcDbLine
 62
7
  6
BYLAYER
 10
75.5350774014
 20
19.4794964046
 11
30.6350774014
 21
19.4794964046
  0
LINE
  5
21C
100
AcDbEntity
  8
0
100
AcDbLine
 62
7
  6
BYLAYER
 10
30.6350774014
 20
20.4794964046
 11
75.5350774014
 21
20.4794964046
  0
LINE
  5
21D
100
AcDbEntity
  8
0
100
AcDbLine
 62
7
  6
BYLAYER
 10
70.1850774014
 20
28.3349964046
 11
65.9850774014
 21
28.3349964046
  0
LINE
  5
21E
100
AcDbEntity
  8
0
100
AcDbLine
 62
7
  6
BYLAYER
 10
55.1850774014
 20
28.3349964046
 11
50.9850774014
 21
28.3349964046
  0
LINE
  5
21F
100
AcDbEntity
  8
0
100
AcDbLine
 62
7
  6
BYLAYER
 10
40.1850774014
 20
28.3349964046
 11
35.9850774014
 21
28.3349964046
  0
LINE
  5
220
100
AcDbEntity
  8
0
100
AcDbLine
 62
7
  6
BYLAYER
 10
35.9850774014
 20
34.5261464046
 11
40.1850774014
 21
34.5261464046
  0
LINE
  5
221
100
AcDbEntity
  8
0
100
AcDbLine
 62
7
  6
BYLAYER
 10
50.9850774014
 20
34.5261464046
 11
55.1850774014
 21
34.5261464046
  0
LINE
  5
222
100
AcDbEntity
  8
0
100
AcDbLine
 62
7
  6
BYLAYER
 10
65.9850774014
 20
34.5261464046
 11
70.1850774014
 21
34.5261464046
  0
LINE
  5
223
100
AcDbEntity
  8
0
100
AcDbLine
 62
7
  6
BYLAYER
 10
23.0850774014
 20
89.6794964046
 11
23.0850774014
 21
93.9794964046
  0
LINE
  5
224
100
AcDbEntity
  8
0
100
AcDbLine
 62
7
  6
BYLAYER
 10
26.0850774014
 20
89.6794964046
 11
26.0850774014
 21
94.9794964046
  0
LINE
  5
225
100
AcDbEntity
  8
0
100
AcDbLine
 62
7
  6
BYLAYER
 10
26.1273555364
 20
65.7794964046
 11
26.1273555364
 21
71.4794964046
  0
LINE
  5
226
100
AcDbEntity
  8
0
100
AcDbLine
 62
7
  6
BYLAYER
 10
29.56747464
 20
71.4794964046
 11
29.56747464
 21
65.7794964046
  0
LINE
  5
227
100
AcDbEntity
  8
0
100
AcDbLine
 62
7
  6
BYLAYER
 10
30.5850774014
 20
132.9794964046
 11
30.5850774014
 21
94.9794964046
  0
LINE
  5
228
100
AcDbEntity
  8
0
100
AcDbLine
 62
7
  6
BYLAYER
 10
30.6350774014
 20
10.4794964046
 11
30.6350774014
 21
65.7794964046
  0
LINE
  5
229
100
AcDbEntity
  8
0
100
AcDbLine
 62
7
  6
BYLAYER
 10
75.5350774014
 20
49.9794964046
 11
30.6350774014
 21
49.9794964046
  0
LINE
  5
22A
100
AcDbEntity
  8
0
100
AcDbLine
 62
7
  6
BYLAYER
 10
33.393979485
 20
116.7607024442
 11
33.301265937
 21
133.0492954568
  0
LINE
  5
22B
100
AcDbEntity
  8
0
100
AcDbLine
 62
7
  6
BYLAYER
 10
32.8350774014
 20
78.8794964046
 11
32.8350774014
 21
89.6794964046
  0
LINE
  5
22C
100
AcDbEntity
  8
0
100
AcDbLine
 62
7
  6
BYLAYER
 10
33.3012659375
 20
134.9794964046
 11
33.3012659375
 21
133.0492954274
  0
LINE
  5
22D
100
AcDbEntity
  8
0
100
AcDbLine
 62
7
  6
BYLAYER
 10
30.6350774014
 20
50.9794964046
 11
75.5350774014
 21
50.9794964046
  0
LINE
  5
22E
100
AcDbEntity
  8
0
100
AcDbLine
 62
7
  6
BYLAYER
 10
35.9850774014
 20
28.3349964046
 11
35.9850774014
 21
34.5261464046
  0
LINE
  5
22F
100
AcDbEntity
  8
0
100
AcDbLine
 62
7
  6
BYLAYER
 10
36.5850774014
 20
10.4794964046
 11
36.5850774014
 21
14.9794964046
  0
LINE
  5
230
100
AcDbEntity
  8
0
100
AcDbLine
 62
7
  6
BYLAYER
 10
39.1850774014
 20
132.9794964046
 11
39.1850774014
 21
134.9794964046
  0
LINE
  5
231
100
AcDbEntity
  8
0
100
AcDbLine
 62
7
  6
BYLAYER
 10
39.5850774014
 20
132.9794964046
 11
39.5850774014
 21
134.9794964046
  0
LINE
  5
232
100
AcDbEntity
  8
0
100
AcDbLine
 62
7
  6
BYLAYER
 10
40.1850774014
 20
34.5261464046
 11
40.1850774014
 21
28.3349964046
  0
LINE
  5
233
100
AcDbEntity
  8
0
100
AcDbLine
 62
7
  6
BYLAYER
 10
41.5850774014
 20
10.4794964046
 11
41.5850774014
 21
13.9794964046
  0
LINE
  5
234
100
AcDbEntity
  8
0
100
AcDbLine
 62
7
  6
BYLAYER
 10
42.0850774014
 20
71.4794964046
 11
42.0850774014
 21
78.8794964046
  0
LINE
  5
235
100
AcDbEntity
  8
0
100
AcDbLine
 62
7
  6
BYLAYER
 10
26.1273555364
 20
65.7794964046
 11
80.0101231162
 21
65.7794964046
  0
LINE
  5
236
100
AcDbEntity
  8
0
100
AcDbLine
 62
7
  6
BYLAYER
 10
49.5850774014
 20
13.9794964046
 11
49.5850774014
 21
10.4794964046
  0
LINE
  5
237
100
AcDbEntity
  8
0
100
AcDbLine
 62
7
  6
BYLAYER
 10
50.9850774014
 20
28.3349964046
 11
50.9850774014
 21
34.5261464046
  0
LINE
  5
238
100
AcDbEntity
  8
0
100
AcDbLine
 62
7
  6
BYLAYER
 10
53.0850774014
 20
71.4794964046
 11
53.0850774014
 21
65.7794964046
  0
LINE
  5
239
100
AcDbEntity
  8
0
100
AcDbLine
 62
7
  6
BYLAYER
 10
80.0101231162
 20
71.4794964046
 11
26.1273555364
 21
71.4794964046
  0
LINE
  5
23A
100
AcDbEntity
  8
0
100
AcDbLine
 62
7
  6
BYLAYER
 10
54.5850774014
 20
14.9794964046
 11
54.5850774014
 21
10.4794964046
  0
LINE
  5
23B
100
AcDbEntity
  8
0
100
AcDbLine
 62
7
  6
BYLAYER
 10
55.0850774014
 20
13.9794964046
 11
55.0850774014
 21
10.4794964046
  0
LINE
  5
23C
100
AcDbEntity
  8
0
100
AcDbLine
 62
7
  6
BYLAYER
 10
55.1850774014
 20
34.5261464046
 11
55.1850774014
 21
28.3349964046
  0
LINE
  5
23D
100
AcDbEntity
  8
0
100
AcDbLine
 62
7
  6
BYLAYER
 10
32.8351053471
 20
78.8794964046
 11
73.3350494558
 21
78.8794964046
  0
LINE
  5
23E
100
AcDbEntity
  8
0
100
AcDbLine
 62
7
  6
BYLAYER
 10
64.0850774014
 20
71.4794964046
 11
64.0850774014
 21
78.8794964046
  0
LINE
  5
23F
100
AcDbEntity
  8
0
100
AcDbLine
 62
7
  6
BYLAYER
 10
65.9850774014
 20
28.3349964046
 11
65.9850774014
 21
34.5261464046
  0
LINE
  5
240
100
AcDbEntity
  8
0
100
AcDbLine
 62
7
  6
BYLAYER
 10
66.0850774014
 20
13.9794964046
 11
66.0850774014
 21
10.4794964046
  0
LINE
  5
241
100
AcDbEntity
  8
0
100
AcDbLine
 62
7
  6
BYLAYER
 10
70.1850774014
 20
34.5261464046
 11
70.1850774014
 21
28.3349964046
  0
LINE
  5
242
100
AcDbEntity
  8
0
100
AcDbLine
 62
7
  6
BYLAYER
 10
23.0850774014
 20
89.6794964046
 11
83.0850774014
 21
89.6794964046
  0
LINE
  5
243
100
AcDbEntity
  8
0
100
AcDbLine
 62
7
  6
BYLAYER
 10
72.8688886423
 20
133.0492954174
 11
72.8688886423
 21
134.9794964046
  0
LINE
  5
244
100
AcDbEntity
  8
0
100
AcDbLine
 62
7
  6
BYLAYER
 10
73.3350774014
 20
78.8794964046
 11
73.3350774014
 21
89.6794964046
  0
LINE
  5
245
100
AcDbEntity
  8
0
100
AcDbLine
 62
7
  6
BYLAYER
 10
75.5350774014
 20
10.4794964046
 11
75.5350774014
 21
65.7794964046
  0
LINE
  5
246
100
AcDbEntity
  8
0
100
AcDbLine
 62
7
  6
BYLAYER
 10
75.5850774014
 20
132.9794964046
 11
75.5850774014
 21
94.9794964046
  0
LINE
  5
247
100
AcDbEntity
  8
0
100
AcDbLine
 62
7
  6
BYLAYER
 10
76.4983748506
 20
65.7794964046
 11
76.4983748506
 21
71.4794964046
  0
LINE
  5
248
100
AcDbEntity
  8
0
100
AcDbLine
 62
7
  6
BYLAYER
 10
72.8688888653
 20
133.0492954369
 11
72.7761753178
 21
116.7607024442
  0
LINE
  5
249
100
AcDbEntity
  8
0
100
AcDbLine
 62
7
  6
BYLAYER
 10
83.0850774014
 20
93.9794964046
 11
23.0850774014
 21
93.9794964046
  0
LINE
  5
24A
100
AcDbEntity
  8
0
100
AcDbLine
 62
7
  6
BYLAYER
 10
24.0850774014
 20
94.9794964046
 11
82.0850774014
 21
94.9794964046
  0
LINE
  5
24B
100
AcDbEntity
  8
0
100
AcDbLine
 62
7
  6
BYLAYER
 10
79.9273555364
 20
65.7794964046
 11
79.9273555364
 21
71.4794964046
  0
LINE
  5
24C
100
AcDbEntity
  8
0
100
AcDbLine
 62
7
  6
BYLAYER
 10
79.960128029
 20
65.7794964046
 11
79.960128029
 21
71.4794964046
  0
LINE
  5
24D
100
AcDbEntity
  8
0
100
AcDbLine
 62
7
  6
BYLAYER
 10
80.0101231162
 20
65.7794964046
 11
80.0101231162
 21
71.4794964046
  0
LINE
  5
24E
100
AcDbEntity
  8
0
100
AcDbLine
 62
7
  6
BYLAYER
 10
80.0850774014
 20
89.6794964046
 11
80.0850774014
 21
94.9794964046
  0
LINE
  5
24F
100
AcDbEntity
  8
0
100
AcDbLine
 62
7
  6
BYLAYER
 10
83.0850774014
 20
89.6794964046
 11
83.0850774014
 21
93.9794964046
  0
LINE
  5
250
100
AcDbEntity
  8
0
100
AcDbLine
 62
7
  6
BYLAYER
 10
62.9095620035
 20
102.6794964046
 11
43.2605927994
 21
102.6794964046
  0
LINE
  5
251
100
AcDbEntity
  8
0
100
AcDbLine
 62
7
  6
BYLAYER
 10
61.8179526033
 20
105.1794964046
 11
44.3522021996
 21
105.1794964046
  0
LINE
  5
252
100
AcDbEntity
  8
0
100
AcDbLine
 62
7
  6
BYLAYER
 10
33.393979485
 20
116.7607024442
 11
72.7761753178
 21
116.7607024442
  0
LINE
  5
253
100
AcDbEntity
  8
0
100
AcDbLine
 62
7
  6
BYLAYER
 10
75.5850774014
 20
132.9794964046
 11
75.3419669105
 21
132.9794964046
  0
LINE
  5
254
100
AcDbEntity
  8
0
100
AcDbLine
 62
7
  6
BYLAYER
 10
30.8281878924
 20
132.9794964046
 11
30.5850774014
 21
132.9794964046
  0
LINE
  5
255
100
AcDbEntity
  8
0
100
AcDbLine
 62
7
  6
BYLAYER
 10
39.1850774014
 20
132.9794964046
 11
39.5850774014
 21
132.9794964046
  0
LINE
  5
256
100
AcDbEntity
  8
0
100
AcDbLine
 62
7
  6
BYLAYER
 10
72.8688888653
 20
133.0492954369
 11
39.5850774014
 21
133.049295398
  0
LINE
  5
257
100
AcDbEntity
  8
0
100
AcDbLine
 62
7
  6
BYLAYER
 10
39.1850774014
 20
133.049295398
 11
33.301265937
 21
133.0492954568
  0
LINE
  5
258
100
AcDbEntity
  8
0
100
AcDbLine
 62
7
  6
BYLAYER
 10
32.5850819182
 20
134.9794964046
 11
73.5850728847
 21
134.9794964046
  0
ARC
  5
259
100
AcDbEntity
  8
0
100
AcDbCircle
 62
7
  6
BYLAYER
 10
32.5850774014
 20
132.9794964046
 40
2.0
100
AcDbArc
 50
90.0
 51
180.0
  0
ARC
  5
25A
100
AcDbEntity
  8
0
100
AcDbCircle
 62
7
  6
BYLAYER
 10
73.5850774014
 20
132.9794964046
 40
2.0
100
AcDbArc
 50
0.0
 51
90.0
  0
ARC
  5
25B
100
AcDbEntity
  8
0
100
AcDbCircle
 62
7
  6
BYLAYER
 10
73.3617350507
 20
133.0138579068
 40
1.9656951588
100
AcDbArc
 50
83.9544166137
 51
84.6075922887
  0
ARC
  5
25C
100
AcDbEntity
  8
0
100
AcDbCircle
 62
7
  6
BYLAYER
 10
73.3632000829
 20
133.0321690317
 40
1.9473274104
100
AcDbArc
 50
84.5998757302
 51
89.9892167471
  0
ARC
  5
25D
100
AcDbEntity
  8
0
100
AcDbCircle
 62
7
  6
BYLAYER
 10
82.0850774014
 20
93.9794964046
 40
1.0
100
AcDbArc
 50
0.0
 51
90.0
  0
ARC
  5
25E
100
AcDbEntity
  8
0
100
AcDbCircle
 62
7
  6
BYLAYER
 10
24.0850774014
 20
93.9794964046
 40
1.0
100
AcDbArc
 50
90.0
 51
180.0
  0
SPLINE
  5
25F
100
AcDbEntity
  8
0
100
AcDbSpline
 62
7
  6
BYLAYER
 70
0
 71
3
 72
12
 73
8
 74
0
 42
0.0000001
 43
0.0000001
 44
0.0000000001
 40
0.0
 40
0.0
 40
0.0
 40
0.0
 40
0.2656934239
 40
0.525799889
 40
0.7733178826
 40
0.8899880282
 40
1.0
 40
1.0
 40
1.0
 40
1.0
 10
36.5850774014
 20
14.9794964046
 30
0.0
 10
36.8421924201
 20
14.8645110727
 30
0.0
 10
37.351039419
 20
14.6368571065
 30
0.0
 10
38.1082864092
 20
14.3228721339
 30
0.0
 10
38.7363696601
 20
14.109448732
 30
0.0
 10
39.2281005641
 20
14.0023671397
 30
0.0
 10
39.4684562804
 20
13.9794964046
 30
0.0
 10
39.5850774014
 20
13.9794964046
 30
0.0
  0
SPLINE
  5
260
100
AcDbEntity
  8
0
100
AcDbSpline
 62
7
  6
BYLAYER
 70
0
 71
3
 72
13
 73
9
 74
0
 42
0.0000001
 43
0.0000001
 44
0.0000000001
 40
0.0
 40
0.0
 40
0.0
 40
0.0
 40
0.1246821418
 40
0.2493991014
 40
0.37423106
 40
0.4993641507
 40
0.7493049732
 40
1.0
 40
1.0
 40
1.0
 40
1.0
 10
73.5687613808
 20
134.9686206945
 30
0.0
 10
73.6889851227
 20
134.9558881287
 30
0.0
 10
73.9277300012
 20
134.9082138086
 30
0.0
 10
74.2661445721
 20
134.771883452
 30
0.0
 10
74.5742706334
 20
134.5753682603
 30
0.0
 10
74.9302785998
 20
134.2429980905
 30
0.0
 10
75.2528848689
 20
133.712429065
 30
0.0
 10
75.3419567206
 20
133.2225789577
 30
0.0
 10
75.3419567676
 20
132.9794964284
 30
0.0
  0
SPLINE
  5
261
100
AcDbEntity
  8
0
100
AcDbSpline
 62
7
  6
BYLAYER
 70
0
 71
3
 72
15
 73
11
 74
0
 42
0.0000001
 43
0.0000001
 44
0.0000000001
 40
0.0
 40
0.0
 40
0.0
 40
0.0
 40
0.0172857634
 40
0.0423044083
 40
0.1147196231
 40
0.2150070987
 40
0.3400772238
 40
0.4859165687
 40
0.647975436
 40
1.0
 40
1.0
 40
1.0
 40
1.0
 10
75.3424368754
 20
132.9794893548
 30
0.0
 10
75.3284278193
 20
132.9821678606
 30
0.0
 10
75.2937914764
 20
132.9867736376
 30
0.0
 10
75.1995842092
 20
132.9959212339
 30
0.0
 10
75.036699974
 20
133.0059319896
 30
0.0
 10
74.7912488392
 20
133.0167499899
 30
0.0
 10
74.4851115239
 20
133.0265190225
 30
0.0
 10
74.1279610081
 20
133.0350140785
 30
0.0
 10
73.5835223975
 20
133.0443455857
 30
0.0
 10
73.1593489413
 20
133.048107264
 30
0.0
 10
72.8688889884
 20
133.0492826596
 30
0.0
  0
SPLINE
  5
262
100
AcDbEntity
  8
0
100
AcDbSpline
 62
7
  6
BYLAYER
 70
0
 71
3
 72
23
 73
19
 74
0
 42
0.0000001
 43
0.0000001
 44
0.0000000001
 40
0.0
 40
0.0
 40
0.0
 40
0.0
 40
0.0788713301
 40
0.1558558132
 40
0.2296427103
 40
0.2991787671
 40
0.3637985271
 40
0.4233657128
 40
0.4784130742
 40
0.5301903588
 40
0.5805009527
 40
0.6312889555
 40
0.6841742368
 40
0.7402011518
 40
0.7998513344
 40
0.8631895708
 40
0.9300200003
 40
1.0
 40
1.0
 40
1.0
 40
1.0
 10
75.2375625574
 20
116.6734537024
 30
0.0
 10
75.2334548352
 20
116.0854235494
 30
0.0
 10
75.2113838623
 20
114.9234643272
 30
0.0
 10
75.1305539792
 20
113.2129348395
 30
0.0
 10
74.9910660241
 20
111.5757750007
 30
0.0
 10
74.777212779
 20
110.0392041722
 30
0.0
 10
74.4705612701
 20
108.6258715713
 30
0.0
 10
74.051706695
 20
107.3534967535
 30
0.0
 10
73.5024094341
 20
106.2355608597
 30
0.0
 10
72.8091774417
 20
105.2828153909
 30
0.0
 10
71.9689707963
 20
104.5019983284
 30
0.0
 10
70.990467417
 20
103.8898396782
 30
0.0
 10
69.8870580014
 20
103.430977718
 30
0.0
 10
68.6708967807
 20
103.1036013799
 30
0.0
 10
67.3526561986
 20
102.88502433
 30
0.0
 10
65.9426913638
 20
102.7536907986
 30
0.0
 10
64.4514158606
 20
102.6895436944
 30
0.0
 10
63.4313150145
 20
102.6794964728
 30
0.0
 10
62.9095620035
 20
102.6794964046
 30
0.0
  0
SPLINE
  5
263
100
AcDbEntity
  8
0
100
AcDbSpline
 62
7
  6
BYLAYER
 70
0
 71
3
 72
15
 73
11
 74
0
 42
0.0000001
 43
0.0000001
 44
0.0000000001
 40
0.0
 40
0.0
 40
0.0
 40
0.0
 40
0.1557668708
 40
0.315918324
 40
0.4728228094
 40
0.6178061382
 40
0.7435903257
 40
0.8474851582
 40
0.930543205
 40
1.0
 40
1.0
 40
1.0
 40
1.0
 10
62.9095620037
 20
102.6794964046
 30
0.0
 10
62.9095620037
 20
102.8314000083
 30
0.0
 10
62.8971949657
 20
103.1396021884
 30
0.0
 10
62.8409626044
 20
103.5978846296
 30
0.0
 10
62.7422726962
 20
104.0382981683
 30
0.0
 10
62.6066267599
 20
104.4339814038
 30
0.0
 10
62.4361528899
 20
104.7589931833
 30
0.0
 10
62.2440831344
 20
104.9994741033
 30
0.0
 10
62.0354569163
 20
105.1454394066
 30
0.0
 10
61.885686759
 20
105.1794964046
 30
0.0
 10
61.8179526035
 20
105.1794964046
 30
0.0
  0
SPLINE
  5
264
100
AcDbEntity
  8
0
100
AcDbSpline
 62
7
  6
BYLAYER
 70
0
 71
3
 72
14
 73
10
 74
0
 42
0.0000001
 43
0.0000001
 44
0.0000000001
 40
0.0
 40
0.0
 40
0.0
 40
0.0
 40
0.3282427218
 40
0.4912784814
 40
0.6426814666
 40
0.7741742412
 40
0.8797712531
 40
0.9551077201
 40
1.0
 40
1.0
 40
1.0
 40
1.0
 10
72.7761753753
 20
116.7607024317
 30
0.0
 10
73.0457679954
 20
116.7590303803
 30
0.0
 10
73.4492600462
 20
116.7543508653
 30
0.0
 10
73.9769963494
 20
116.743006484
 30
0.0
 10
74.3431140844
 20
116.7323484102
 30
0.0
 10
74.6619282961
 20
116.7196251458
 30
0.0
 10
74.9182505776
 20
116.7061440173
 30
0.0
 10
75.1030657147
 20
116.6916173042
 30
0.0
 10
75.2014250093
 20
116.680774775
 30
0.0
 10
75.2375625572
 20
116.6734536878
 30
0.0
  0
SPLINE
  5
265
100
AcDbEntity
  8
0
100
AcDbSpline
 62
7
  6
BYLAYER
 70
0
 71
3
 72
15
 73
11
 74
0
 42
0.0000001
 43
0.0000001
 44
0.0000000001
 40
0.0
 40
0.0
 40
0.0
 40
0.0
 40
0.0694567956
 40
0.1525148428
 40
0.2564096755
 40
0.3821938629
 40
0.5271771914
 40
0.6840816766
 40
0.8442331294
 40
1.0
 40
1.0
 40
1.0
 40
1.0
 10
44.3522020731
 20
105.1794964046
 30
0.0
 10
44.2844679167
 20
105.1794964046
 30
0.0
 10
44.1346977578
 20
105.1454394069
 30
0.0
 10
43.9260715366
 20
104.9994741044
 30
0.0
 10
43.7340017777
 20
104.7589931849
 30
0.0
 10
43.5635279044
 20
104.4339814057
 30
0.0
 10
43.4278819651
 20
104.0382981702
 30
0.0
 10
43.3291920544
 20
103.5978846313
 30
0.0
 10
43.2729596913
 20
103.1396021893
 30
0.0
 10
43.2605926525
 20
102.8314000086
 30
0.0
 10
43.2605926522
 20
102.6794964046
 30
0.0
  0
SPLINE
  5
266
100
AcDbEntity
  8
0
100
AcDbSpline
 62
7
  6
BYLAYER
 70
0
 71
3
 72
14
 73
10
 74
0
 42
0.0000001
 43
0.0000001
 44
0.0000000001
 40
0.0
 40
0.0
 40
0.0
 40
0.0
 40
0.3282427223
 40
0.4912784819
 40
0.6426814669
 40
0.7741742413
 40
0.8797712531
 40
0.95510772
 40
1.0
 40
1.0
 40
1.0
 40
1.0
 10
33.3939794125
 20
116.7607024437
 30
0.0
 10
33.1243867937
 20
116.7590303923
 30
0.0
 10
32.7208947451
 20
116.7543508774
 30
0.0
 10
32.1931584448
 20
116.7430064964
 30
0.0
 10
31.8270407125
 20
116.7323484229
 30
0.0
 10
31.5082265031
 20
116.7196251589
 30
0.0
 10
31.2519042234
 20
116.7061440308
 30
0.0
 10
31.0670890876
 20
116.6916173183
 30
0.0
 10
30.9687297935
 20
116.6807747894
 30
0.0
 10
30.9325922458
 20
116.6734537025
 30
0.0
  0
SPLINE
  5
267
100
AcDbEntity
  8
0
100
AcDbSpline
 62
7
  6
BYLAYER
 70
0
 71
3
 72
15
 73
11
 74
0
 42
0.0000001
 43
0.0000001
 44
0.0000000001
 40
0.0
 40
0.0
 40
0.0
 40
0.0
 40
0.3520226456
 40
0.514081956
 40
0.659921846
 40
0.7849926413
 40
0.8852802911
 40
0.957695586
 40
0.9827141672
 40
1.0
 40
1.0
 40
1.0
 40
1.0
 10
33.3012657738
 20
133.049285877
 30
0.0
 10
33.0108026167
 20
133.0481106042
 30
0.0
 10
32.5866233825
 20
133.0443495701
 30
0.0
 10
32.0421765597
 20
133.0350183703
 30
0.0
 10
31.6850187783
 20
133.0265236825
 30
0.0
 10
31.3788752538
 20
133.016755042
 30
0.0
 10
31.1334192929
 20
133.0059372348
 30
0.0
 10
30.9705321844
 20
132.9959269738
 30
0.0
 10
30.8763232374
 20
132.9867797527
 30
0.0
 10
30.8416862916
 20
132.9821741784
 30
0.0
 10
30.8276769035
 20
132.9794958525
 30
0.0
  0
SPLINE
  5
268
100
AcDbEntity
  8
0
100
AcDbSpline
 62
7
  6
BYLAYER
 70
0
 71
3
 72
11
 73
7
 74
0
 42
0.0000001
 43
0.0000001
 44
0.0000000001
 40
0.0
 40
0.0
 40
0.0
 40
0.0
 40
0.251265339
 40
0.5016958005
 40
0.7511572039
 40
1.0
 40
1.0
 40
1.0
 40
1.0
 10
30.8282018559
 20
132.9794965988
 30
0.0
 10
30.8282018796
 20
133.2395213397
 30
0.0
 10
30.9306823351
 20
133.7643486469
 30
0.0
 10
31.3702476921
 20
134.428824998
 30
0.0
 10
32.0276248386
 20
134.8750316063
 30
0.0
 10
32.5490728445
 20
134.9794961777
 30
0.0
 10
32.8065905898
 20
134.9794963168
 30
0.0
  0
SPLINE
  5
269
100
AcDbEntity
  8
0
100
AcDbSpline
 62
7
  6
BYLAYER
 70
0
 71
3
 72
12
 73
8
 74
0
 42
0.0000001
 43
0.0000001
 44
0.0000000001
 40
0.0
 40
0.0
 40
0.0
 40
0.0
 40
0.1100056643
 40
0.2266432258
 40
0.4741924357
 40
0.7343034751
 40
1.0
 40
1.0
 40
1.0
 40
1.0
 10
51.5850774014
 20
13.9794964046
 30
0.0
 10
51.7016913643
 20
13.9794964046
 30
0.0
 10
51.9419972315
 20
14.0024510663
 30
0.0
 10
52.4337274437
 20
14.1094549329
 30
0.0
 10
53.0618230912
 20
14.3228662969
 30
0.0
 10
53.8191118208
 20
14.6368437262
 30
0.0
 10
54.3279604221
 20
14.8645101958
 30
0.0
 10
54.5850774014
 20
14.9794964046
 30
0.0
  0
SPLINE
  5
26A
100
AcDbEntity
  8
0
100
AcDbSpline
 62
7
  6
BYLAYER
 70
0
 71
3
 72
9
 73
5
 74
0
 42
0.0000001
 43
0.0000001
 44
0.0000000001
 40
0.0
 40
0.0
 40
0.0
 40
0.0
 40
0.4999990478
 40
1.0
 40
1.0
 40
1.0
 40
1.0
 10
30.8281878924
 20
132.9794964046
 30
0.0
 10
30.8447710239
 20
130.2618225646
 30
0.0
 10
30.8763974934
 20
124.8264546775
 30
0.0
 10
30.9142982995
 20
119.3911269161
 30
0.0
 10
30.9325922455
 20
116.6734537024
 30
0.0
  0
SPLINE
  5
26B
100
AcDbEntity
  8
0
100
AcDbSpline
 62
7
  6
BYLAYER
 70
0
 71
3
 72
23
 73
19
 74
0
 42
0.0000001
 43
0.0000001
 44
0.0000000001
 40
0.0
 40
0.0
 40
0.0
 40
0.0
 40
0.0788712227
 40
0.1558556142
 40
0.2296425826
 40
0.2991786852
 40
0.3637984755
 40
0.4233657746
 40
0.4784130649
 40
0.5301903721
 40
0.580501001
 40
0.6312890232
 40
0.684174312
 40
0.7402012397
 40
0.7998514287
 40
0.8631896214
 40
0.9300199989
 40
1.0
 40
1.0
 40
1.0
 40
1.0
 10
30.9325922455
 20
116.6734537024
 30
0.0
 10
30.9366999634
 20
116.0854243511
 30
0.0
 10
30.9587713105
 20
114.9234666178
 30
0.0
 10
31.0396013568
 20
113.2129381095
 30
0.0
 10
31.1790883219
 20
111.5757780013
 30
0.0
 10
31.3929429372
 20
110.0392061634
 30
0.0
 10
31.6995959846
 20
108.6258726599
 30
0.0
 10
32.1184466629
 20
107.3534958701
 30
0.0
 10
32.6677463707
 20
106.2355605421
 30
0.0
 10
33.3609779483
 20
105.2828149842
 30
0.0
 10
34.2011853932
 20
104.5019980157
 30
0.0
 10
35.1796881364
 20
103.8898374791
 30
0.0
 10
36.2830984757
 20
103.4309766262
 30
0.0
 10
37.4992600295
 20
103.1036010659
 30
0.0
 10
38.8175003637
 20
102.8850238154
 30
0.0
 10
40.227464447
 20
102.753689212
 30
0.0
 10
41.7187393241
 20
102.68954356
 30
0.0
 10
42.7388397786
 20
102.679496338
 30
0.0
 10
43.2605927994
 20
102.6794964046
 30
0.0
  0
SPLINE
  5
26C
100
AcDbEntity
  8
0
100
AcDbSpline
 62
7
  6
BYLAYER
 70
0
 71
3
 72
9
 73
5
 74
0
 42
0.0000001
 43
0.0000001
 44
0.0000000001
 40
0.0
 40
0.0
 40
0.0
 40
0.0
 40
0.5000009522
 40
1.0
 40
1.0
 40
1.0
 40
1.0
 10
75.2375625574
 20
116.6734537024
 30
0.0
 10
75.2558555751
 20
119.3911269223
 30
0.0
 10
75.2937573129
 20
124.8264546771
 30
0.0
 10
75.3253847022
 20
130.261822559
 30
0.0
 10
75.3419669105
 20
132.9794964046
 30
0.0
  0
SPLINE
  5
26D
100
AcDbEntity
  8
0
100
AcDbSpline
 62
7
  6
BYLAYER
 70
0
 71
3
 72
22
 73
18
 74
0
 42
0.0000001
 43
0.0000001
 44
0.0000000001
 40
0.0
 40
0.0
 40
0.0
 40
0.0
 40
0.0727021116
 40
0.1423539535
 40
0.2085468212
 40
0.2709710141
 40
0.3295636046
 40
0.3846441943
 40
0.4371066553
 40
0.4884740179
 40
0.5406429101
 40
0.5953671235
 40
0.6538525803
 40
0.7165269196
 40
0.7832260943
 40
0.8533271344
 40
1.0
 40
1.0
 40
1.0
 40
1.0
 10
44.3522017731
 20
105.1794964046
 30
0.0
 10
43.8883260316
 20
105.179496926
 30
0.0
 10
42.9799741926
 20
105.1876726291
 30
0.0
 10
41.650109698
 20
105.2412256985
 30
0.0
 10
40.3891650774
 20
105.3508608757
 30
0.0
 10
39.2076285481
 20
105.5346937865
 30
0.0
 10
38.1164351924
 20
105.8115142645
 30
0.0
 10
37.1263746833
 20
106.2005059802
 30
0.0
 10
36.2509411952
 20
106.7223877558
 30
0.0
 10
35.5012238561
 20
107.3868547933
 30
0.0
 10
34.8891790627
 20
108.1976604196
 30
0.0
 10
34.4077054087
 20
109.1416326048
 30
0.0
 10
34.0462138231
 20
110.2071489738
 30
0.0
 10
33.7837682072
 20
111.3783207411
 30
0.0
 10
33.6020819868
 20
112.6389544255
 30
0.0
 10
33.443324973
 20
114.4412225446
 30
0.0
 10
33.4010031156
 20
115.8248827463
 30
0.0
 10
33.3939783381
 20
116.7607024356
 30
0.0
  0
SPLINE
  5
26E
100
AcDbEntity
  8
0
100
AcDbSpline
 62
7
  6
BYLAYER
 70
0
 71
3
 72
22
 73
18
 74
0
 42
0.0000001
 43
0.0000001
 44
0.0000000001
 40
0.0
 40
0.0
 40
0.0
 40
0.0
 40
0.1466553546
 40
0.2167553032
 40
0.28345763
 40
0.3461323026
 40
0.4046168985
 40
0.4593417421
 40
0.511511664
 40
0.5628791821
 40
0.6153417898
 40
0.6704235065
 40
0.7290173759
 40
0.7914423103
 40
0.8576372071
 40
0.9272936902
 40
1.0
 40
1.0
 40
1.0
 40
1.0
 10
72.7761757152
 20
116.7607024412
 30
0.0
 10
72.7691537343
 20
115.8249944927
 30
0.0
 10
72.7268381778
 20
114.4414530228
 30
0.0
 10
72.5680994238
 20
112.6392826903
 30
0.0
 10
72.3864428316
 20
111.3786297436
 30
0.0
 10
72.1240265509
 20
110.2074340313
 30
0.0
 10
71.7625599023
 20
109.1419088105
 30
0.0
 10
71.2811227482
 20
108.1979138549
 30
0.0
 10
70.6691222341
 20
107.387061147
 30
0.0
 10
69.9194382175
 20
106.722542396
 30
0.0
 10
69.0440179788
 20
106.2006185195
 30
0.0
 10
68.0539536138
 20
105.8115910782
 30
0.0
 10
66.9627477815
 20
105.5347371767
 30
0.0
 10
65.7811883794
 20
105.3508808219
 30
0.0
 10
64.520197112
 20
105.2412344407
 30
0.0
 10
63.1902634701
 20
105.1876755294
 30
0.0
 10
62.281855265
 20
105.1794971941
 30
0.0
 10
61.817952751
 20
105.1794964046
 30
0.0
  0
ENDSEC
  0
SECTION
  2
OBJECTS
  0
DICTIONARY
  5
C
100
AcDbDictionary
280
0
281
1
  3
ACAD_GROUP
350
D
  3
ACAD_MLINESTYLE
350
17
  3
ACAD_LAYOUT
350
1A
  3
ACAD_PLOTSETTINGS
350
19
  3
ACAD_PLOTSTYLENAME
350
E
  0
DICTIONARY
  5
D
102
{ACAD_REACTORS
330
C
102
}
100
AcDbDictionary
280
0
281
1
  0
ACDBDICTIONARYWDFLT
  5
E
102
{ACAD_REACTORS
330
C
102
}
100
AcDbDictionary
281
1
  3
Normal
350
F
100
AcDbDictionaryWithDefault
340
F
  0
DICTIONARY
  5
17
102
{ACAD_REACTORS
330
C
102
}
100
AcDbDictionary
280
0
281
1
  3
Standard
350
18
  0
DICTIONARY
  5
19
102
{ACAD_REACTORS
330
C
102
}
100
AcDbDictionary
281
1
  0
DICTIONARY
  5
1A
102
{ACAD_REACTORS
330
C
102
}
100
AcDbDictionary
281
1
  3
Model
350
26F
  3
Layout1
350
270
  0
ACDBPLACEHOLDER
  5
F
102
{ACAD_REACTORS
330
E
102
}
  0
MLINESTYLE
  5
18
102
{ACAD_REACTORS
330
17
102
}
100
AcDbMlineStyle
  2
STANDARD
 70
0
  3

 62
256
 51
90.0
 52
90.0
 71
2
 49
0.5
 62
256
  6
BYLAYER
 49
-0.5
 62
256
  6
BYLAYER
  0
LAYOUT
  5
26F
102
{ACAD_REACTORS
330
1A
102
}
100
AcDbPlotSettings
  1

  2
none_device
  4

  6

 40
0.0
 41
0.0
 42
0.0
 43
0.0
 44
210.0
 45
297.0
 46
0.0
 47
0.0
 48
0.0
 49
0.0
140
0.0
141
0.0
142
1.0
143
1.0
 70
1024
 72
1
 73
0
 74
0
  7

 75
0
147
1.0
148
0.0
149
0.0
100
AcDbLayout
  1
Model
 70
0
 71
0
 10
0.0
 20
0.0
 11
210.0
 21
297.0
 12
0.0
 22
0.0
 32
0.0
 14
0.0
 24
0.0
 34
0.0
 15
0.0
 25
0.0
 35
0.0
146
0.0
 13
0.0
 23
0.0
 33
0.0
 16
1.0
 26
0.0
 36
0.0
 17
0.0
 27
1.0
 37
0.0
 76
0
330
210
345
0
346
0
  0
LAYOUT
  5
270
102
{ACAD_REACTORS
330
1A
102
}
100
AcDbPlotSettings
  1

  2
none_device
  4

  6

 40
0.0
 41
0.0
 42
0.0
 43
0.0
 44
210.0
 45
297.0
 46
0.0
 47
0.0
 48
0.0
 49
0.0
140
0.0
141
0.0
142
1.0
143
1.0
 70
0
 72
1
 73
0
 74
0
  7

 75
0
147
1.0
148
0.0
149
0.0
100
AcDbLayout
  1
Layout1
 70
0
 71
1
 10
0.0
 20
0.0
 11
210.0
 21
297.0
 12
0.0
 22
0.0
 32
0.0
 14
0.0
 24
0.0
 34
0.0
 15
0.0
 25
0.0
 35
0.0
146
0.0
 13
0.0
 23
0.0
 33
0.0
 16
1.0
 26
0.0
 36
0.0
 17
0.0
 27
1.0
 37
0.0
 76
0
330
211
345
0
346
0
  0
ENDSEC
  0
EOF
