999
DXF file: C:\Users\sesa63760\Dev\_Creo\CAD\MCADID0004739_3D-CAD\drw0001_4.dxf
999
Pro/ENGINEER 2019471 by Parametric Technology Corporation
  0
SECTION
  2
HEADER
  9
$ACADVER
  1
AC1024
  9
$DWGCODEPAGE
  3
ANSI_1252
  9
$EXTMAX
 10
23.8551413415
 20
33.7379856115
 30
0.0
  9
$EXTMIN
 10
0.0
 20
0.0
 30
0.0
  9
$LIMMIN
 10
0.0
 20
0.0
  9
$LIMMAX
 10
23.8551413415
 20
33.7379856115
  9
$VIEWCTR
 10
11.9275706707
 20
16.8689928058
  9
$VIEWSIZE
 40
33.7379856115
  9
$CLAYER
  8
0
  9
$LTSCALE
 40
2.1992168399
  9
$CELTYPE
  6
BYLAYER
  9
$DIMSCALE
 40
1.0
  9
$DIMASZ
 40
0.2839897779
  9
$DIMEXO
 40
1.0
  9
$DIMDLI
 40
1.5194589075
  9
$DIMEXE
 40
1.0
  9
$DIMCEN
 40
0.3598718465
  9
$DIMLFAC
 40
1.0
  9
$DIMBLK
  1
_FILLED
  9
$DIMALT
 70
0
  9
$DIMALTF
 40
0.0393700787
  9
$DIMTXT
 40
0.397585689
  9
$DIMTOL
 70
1
  9
$DIMLIM
 70
0
  9
$DIMTFAC
 40
1.0
  9
$DIMTP
 40
0.01
  9
$DIMTM
 40
0.01
  9
$DIMGAP
 40
0.625
  9
$DIMDSEP
 70
46
  9
$AUNITS
 70
0
  9
$PDMODE
 70
3
  9
$PDSIZE
 40
0.3125
  9
$HANDSEED
  5
2C0
  9
$TILEMODE
 70
1
  9
$MEASUREMENT
 70
1
  9
$INSUNITS
 70
4
  0
ENDSEC
  0
SECTION
  2
CLASSES
  0
CLASS
  1
ACDBDICTIONARYWDFLT
  2
AcDbDictionaryWithDefault
  3
AutoCAD 2000
 90
0
 91
1
280
0
281
0
  0
CLASS
  1
ACDBPLACEHOLDER
  2
AcDbPlaceHolder
  3
AutoCAD 2000
 90
0
 91
1
280
0
281
0
  0
CLASS
  1
LAYOUT
  2
AcDbLayout
  3
AutoCAD 2000
 90
0
 91
0
280
0
281
0
  0
ENDSEC
  0
SECTION
  2
TABLES
  0
TABLE
  2
VPORT
  5
8
100
AcDbSymbolTable
 70
2
  0
VPORT
  5
1F4
100
AcDbSymbolTableRecord
100
AcDbViewportTableRecord
  2
*ACTIVE
 70
0
 10
0.0
 20
0.0
 11
1.0
 21
1.0
 12
11.9275706707
 22
16.8689928058
 13
0.0
 23
0.0
 14
1.0
 24
1.0
 15
0.0
 25
0.0
 16
0.0
 26
0.0
 36
1.0
 17
0.0
 27
0.0
 37
0.0
 40
33.7379856115
 41
0.7070707071
 42
50.0
 43
0.0
 44
0.0
 50
0.0
 51
0.0
 71
0
 72
100
 73
1
 74
1
 75
0
 76
0
 77
0
 78
0
  0
ENDTAB
  0
TABLE
  2
LTYPE
  5
5
100
AcDbSymbolTable
 70
6
  0
LTYPE
  5
14
100
AcDbSymbolTableRecord
100
AcDbLinetypeTableRecord
  2
BYBLOCK
 70
0
  3

 72
65
 73
0
 40
0.0
  0
LTYPE
  5
15
100
AcDbSymbolTableRecord
100
AcDbLinetypeTableRecord
  2
BYLAYER
 70
0
  3

 72
65
 73
0
 40
0.0
  0
LTYPE
  5
16
100
AcDbSymbolTableRecord
100
AcDbLinetypeTableRecord
  2
CONTINUOUS
 70
64
  3
Solid line
 72
65
 73
0
 40
0.0
  0
LTYPE
  5
1F5
100
AcDbSymbolTableRecord
100
AcDbLinetypeTableRecord
  2
CENTER
 70
64
  3
____ _ ____ _ ____ _ ____ _ ____ _ ____ _ ____
 72
65
 73
4
 40
0.6
 49
0.375
 74
0
 49
-0.075
 74
0
 49
0.075
 74
0
 49
-0.075
 74
0
  0
LTYPE
  5
1F6
100
AcDbSymbolTableRecord
100
AcDbLinetypeTableRecord
  2
HIDDEN
 70
64
  3
- - - - - - - - - - - - - - - - - - - -
 72
65
 73
2
 40
0.2
 49
0.1
 74
0
 49
-0.1
 74
0
  0
LTYPE
  5
1F7
100
AcDbSymbolTableRecord
100
AcDbLinetypeTableRecord
  2
PHANTOM
 70
64
  3
_____ _ _ _____ _ _ _____ _ _ _____
 72
65
 73
6
 40
0.8
 49
0.45
 74
0
 49
-0.05
 74
0
 49
0.1
 74
0
 49
-0.05
 74
0
 49
0.1
 74
0
 49
-0.05
 74
0
  0
LTYPE
  5
1F8
100
AcDbSymbolTableRecord
100
AcDbLinetypeTableRecord
  2
DOT
 70
64
  3
. . . . . . . . . . . . . . . . . . . .
 72
65
 73
2
 40
0.2
 49
0.1
 74
0
 49
-0.1
 74
0
  0
LTYPE
  5
1F9
100
AcDbSymbolTableRecord
100
AcDbLinetypeTableRecord
  2
DASHED
 70
64
  3
- - - - - - - - - - - - - - - - - - - -
 72
65
 73
2
 40
0.2
 49
0.1
 74
0
 49
-0.1
 74
0
  0
ENDTAB
  0
TABLE
  2
LAYER
  5
2
100
AcDbSymbolTable
 70
36
  0
LAYER
  5
10
100
AcDbSymbolTableRecord
100
AcDbLayerTableRecord
  2
0
 70
0
 62
7
  6
CONTINUOUS
370
-3
390
F
  0
LAYER
  5
1FA
100
AcDbSymbolTableRecord
100
AcDbLayerTableRecord
  2
DEFAULT_1
 70
0
 62
7
  6
CENTER
370
-3
390
F
  0
LAYER
  5
1FB
100
AcDbSymbolTableRecord
100
AcDbLayerTableRecord
  2
DEFAULT_2
 70
0
 62
7
  6
HIDDEN
370
-3
390
F
  0
LAYER
  5
1FC
100
AcDbSymbolTableRecord
100
AcDbLayerTableRecord
  2
DEFAULT_3
 70
0
 62
7
  6
PHANTOM
370
-3
390
F
  0
LAYER
  5
1FD
100
AcDbSymbolTableRecord
100
AcDbLayerTableRecord
  2
00_COMPONENTS
 70
0
 62
7
  6
CONTINUOUS
370
-3
390
F
  0
LAYER
  5
1FE
100
AcDbSymbolTableRecord
100
AcDbLayerTableRecord
  2
01_1_DEFAULT_DATUMS
 70
0
 62
7
  6
CONTINUOUS
370
-3
390
F
  0
LAYER
  5
1FF
100
AcDbSymbolTableRecord
100
AcDbLayerTableRecord
  2
01_PLANES
 70
0
 62
7
  6
CONTINUOUS
370
-3
390
F
  0
LAYER
  5
200
100
AcDbSymbolTableRecord
100
AcDbLayerTableRecord
  2
02_COORD_SYS
 70
0
 62
7
  6
CONTINUOUS
370
-3
390
F
  0
LAYER
  5
201
100
AcDbSymbolTableRecord
100
AcDbLayerTableRecord
  2
03_AXES
 70
0
 62
7
  6
CONTINUOUS
370
-3
390
F
  0
LAYER
  5
202
100
AcDbSymbolTableRecord
100
AcDbLayerTableRecord
  2
04_POINTS
 70
0
 62
7
  6
CONTINUOUS
370
-3
390
F
  0
LAYER
  5
203
100
AcDbSymbolTableRecord
100
AcDbLayerTableRecord
  2
05_CURVES
 70
0
 62
7
  6
CONTINUOUS
370
-3
390
F
  0
LAYER
  5
204
100
AcDbSymbolTableRecord
100
AcDbLayerTableRecord
  2
06_SURFS
 70
0
 62
7
  6
CONTINUOUS
370
-3
390
F
  0
LAYER
  5
205
100
AcDbSymbolTableRecord
100
AcDbLayerTableRecord
  2
07_COSMETICS
 70
0
 62
7
  6
CONTINUOUS
370
-3
390
F
  0
LAYER
  5
206
100
AcDbSymbolTableRecord
100
AcDbLayerTableRecord
  2
10_NOTES
 70
0
 62
7
  6
CONTINUOUS
370
-3
390
F
  0
LAYER
  5
207
100
AcDbSymbolTableRecord
100
AcDbLayerTableRecord
  2
11_NOTES_PUB
 70
0
 62
7
  6
CONTINUOUS
370
-3
390
F
  0
LAYER
  5
208
100
AcDbSymbolTableRecord
100
AcDbLayerTableRecord
  2
13_REF_GTOL
 70
0
 62
7
  6
CONTINUOUS
370
-3
390
F
  0
LAYER
  5
209
100
AcDbSymbolTableRecord
100
AcDbLayerTableRecord
  2
16_MISC
 70
0
 62
7
  6
CONTINUOUS
370
-3
390
F
  0
LAYER
  5
20A
100
AcDbSymbolTableRecord
100
AcDbLayerTableRecord
  2
17_NO_PRINT
 70
0
 62
7
  6
CONTINUOUS
370
-3
390
F
  0
LAYER
  5
20B
100
AcDbSymbolTableRecord
100
AcDbLayerTableRecord
  2
18_DATUM_CAMS_JOINTS
 70
0
 62
7
  6
CONTINUOUS
370
-3
390
F
  0
LAYER
  5
20C
100
AcDbSymbolTableRecord
100
AcDbLayerTableRecord
  2
19_DATUM_FUNCTIONAL
 70
0
 62
7
  6
CONTINUOUS
370
-3
390
F
  0
LAYER
  5
20D
100
AcDbSymbolTableRecord
100
AcDbLayerTableRecord
  2
20_DATUM_KINEMATIC_SCHEME
 70
0
 62
7
  6
CONTINUOUS
370
-3
390
F
  0
ENDTAB
  0
TABLE
  2
STYLE
  5
3
100
AcDbSymbolTable
 70
1
  0
STYLE
  5
11
100
AcDbSymbolTableRecord
100
AcDbTextStyleTableRecord
  2
STANDARD
 70
0
 40
0.0
 41
1.0
 50
0.0
 71
0
 42
0.2
  3
ARIAL.TTF
  4

  0
STYLE
  5
20E
100
AcDbSymbolTableRecord
100
AcDbTextStyleTableRecord
  2
TEXTSTYLE_1
 70
0
 40
0.0
 41
0.8
 50
0.0
 71
0
 42
0.2
  3
gdt
  4

  0
ENDTAB
  0
TABLE
  2
VIEW
  5
6
100
AcDbSymbolTable
 70
0
  0
ENDTAB
  0
TABLE
  2
UCS
  5
7
100
AcDbSymbolTable
 70
0
  0
ENDTAB
  0
TABLE
  2
APPID
  5
9
100
AcDbSymbolTable
 70
1
  0
APPID
  5
20F
100
AcDbSymbolTableRecord
100
AcDbRegAppTableRecord
  2
ACAD
 70
0
  0
ENDTAB
  0
TABLE
  2
BLOCK_RECORD
  5
1
100
AcDbSymbolTable
 70
0
  0
BLOCK_RECORD
  5
210
100
AcDbSymbolTableRecord
100
AcDbBlockTableRecord
  2
*Model_Space
  0
BLOCK_RECORD
  5
211
100
AcDbSymbolTableRecord
100
AcDbBlockTableRecord
  2
*Paper_Space
  0
BLOCK_RECORD
  5
212
100
AcDbSymbolTableRecord
100
AcDbBlockTableRecord
  2
_FILLED
  0
ENDTAB
  0
TABLE
  2
DIMSTYLE
  5
A
100
AcDbSymbolTable
 70
1
100
AcDbDimStyleTable
 71
0
  0
DIMSTYLE
105
213
100
AcDbSymbolTableRecord
100
AcDbDimStyleTableRecord
  2
STANDARD
 70
0
  3

  4

 40
1.0
 41
0.2839897779
 42
1.0
 43
0.38
 44
1.0
 45
0.0
 46
0.0
 47
0.01
 48
0.01
140
0.397585689
141
0.09
142
0.0
143
25.4
144
1.0
145
0.0
146
1.0
147
0.625
 71
1
 72
0
 73
0
 74
0
 75
0
 76
0
 77
1
 78
8
 79
2
170
0
171
1
172
0
173
0
174
0
175
0
176
0
177
0
178
0
270
2
179
2
271
2
272
2
273
2
274
2
275
0
280
0
281
0
282
0
283
1
284
8
285
0
286
0
287
3
288
0
340
11
278
46
341
212
342
212
343
212
344
212
  0
ENDTAB
  0
ENDSEC
  0
SECTION
  2
BLOCKS
  0
BLOCK
  5
20
100
AcDbEntity
  8
0
100
AcDbBlockBegin
  2
*Model_Space
 70
0
 10
0.0
 20
0.0
 30
0.0
  3
*Model_Space
  1

  0
ENDBLK
  5
21
100
AcDbEntity
  8
0
100
AcDbBlockEnd
  0
BLOCK
  5
1C
100
AcDbEntity
  8
0
100
AcDbBlockBegin
  2
*Paper_Space
 70
0
 10
0.0
 20
0.0
 30
0.0
  3
*Paper_Space
  1

  0
ENDBLK
  5
1D
100
AcDbEntity
  8
0
100
AcDbBlockEnd
  0
BLOCK
  5
214
100
AcDbEntity
  8
0
100
AcDbBlockBegin
  2
_FILLED
 70
64
 10
0.0
 20
0.0
  3
_FILLED
  1

  0
SOLID
  5
215
100
AcDbEntity
  8
0
  6
BYBLOCK
 62
0
100
AcDbTrace
 10
0.0
 20
0.0
 11
-1.0
 21
0.25
 12
-1.0
 22
-0.25
 13
-1.0
 23
-0.25
  0
ENDBLK
  5
216
100
AcDbEntity
  8
0
  6
BYBLOCK
 62
0
100
AcDbBlockEnd
  0
ENDSEC
  0
SECTION
  2
ENTITIES
  0
LINE
  5
217
100
AcDbEntity
  8
0
100
AcDbLine
 62
7
  6
BYLAYER
 10
18.0872827727
 20
2.4157553957
 11
6.3872830292
 21
2.4157553957
  0
LINE
  5
218
100
AcDbEntity
  8
0
100
AcDbLine
 62
7
  6
BYLAYER
 10
18.587282901
 20
2.9157553957
 11
13.6093251744
 21
2.9157553957
  0
LINE
  5
219
100
AcDbEntity
  8
0
100
AcDbLine
 62
7
  6
BYLAYER
 10
10.8652406276
 20
2.9157553957
 11
5.887282901
 21
2.9157553957
  0
LINE
  5
21A
100
AcDbEntity
  8
0
100
AcDbLine
 62
7
  6
BYLAYER
 10
10.762282901
 20
31.1157553957
 11
10.562282901
 21
30.9157553957
  0
LINE
  5
21B
100
AcDbEntity
  8
0
100
AcDbLine
 62
7
  6
BYLAYER
 10
5.8872874435
 20
4.9157553957
 11
18.5872783584
 21
4.9157553957
  0
LINE
  5
21C
100
AcDbEntity
  8
0
100
AcDbLine
 62
7
  6
BYLAYER
 10
18.237282901
 20
5.1157553957
 11
6.237282901
 21
5.1157553957
  0
LINE
  5
21D
100
AcDbEntity
  8
0
100
AcDbLine
 62
7
  6
BYLAYER
 10
8.937282901
 20
28.0157553957
 11
8.737282901
 21
27.8157553957
  0
LINE
  5
21E
100
AcDbEntity
  8
0
100
AcDbLine
 62
7
  6
BYLAYER
 10
18.5872783584
 20
6.1157553957
 11
5.8872874435
 21
6.1157553957
  0
LINE
  5
21F
100
AcDbEntity
  8
0
100
AcDbLine
 62
7
  6
BYLAYER
 10
5.8872874435
 20
7.2657553957
 11
18.5872783584
 21
7.2657553957
  0
LINE
  5
220
100
AcDbEntity
  8
0
100
AcDbLine
 62
7
  6
BYLAYER
 10
4.237282901
 20
11.7157553957
 11
4.237282901
 21
10.7157553957
  0
LINE
  5
221
100
AcDbEntity
  8
0
100
AcDbLine
 62
7
  6
BYLAYER
 10
6.2568506192
 20
23.7016047438
 11
6.256845024
 21
23.7015860104
  0
LWPOLYLINE
  5
222
100
AcDbEntity
  8
0
100
AcDbPolyline
 62
7
  6
BYLAYER
 90
7
 70
0
 10
6.0551289525
 20
23.1176781684
 10
6.0502729891
 20
23.1030722177
 10
6.0456002136
 20
23.0858976868
 10
6.0416777432
 20
23.0669034697
 10
6.0388408298
 20
23.0462621065
 10
6.0379287182
 20
23.0353843908
 10
6.0372861666
 20
23.0157600296
  0
LWPOLYLINE
  5
223
100
AcDbEntity
  8
0
100
AcDbPolyline
 62
7
  6
BYLAYER
 90
3
 70
0
 10
6.256859183
 20
23.7016340681
 10
6.1148752889
 20
23.2756003742
 10
6.0551289525
 20
23.1176781684
  0
LINE
  5
224
100
AcDbEntity
  8
0
100
AcDbLine
 62
7
  6
BYLAYER
 10
6.116393693
 20
23.2797383408
 11
6.1152193254
 21
23.2766326679
  0
LINE
  5
225
100
AcDbEntity
  8
0
100
AcDbLine
 62
7
  6
BYLAYER
 10
6.037282901
 20
23.0158213393
 11
6.0776844379
 21
23.1170325872
  0
LINE
  5
226
100
AcDbEntity
  8
0
100
AcDbLine
 62
7
  6
BYLAYER
 10
6.037283105
 20
23.0158131779
 11
6.0672157964
 21
23.0898017109
  0
LINE
  5
227
100
AcDbEntity
  8
0
100
AcDbLine
 62
7
  6
BYLAYER
 10
19.6004512976
 20
8.6057553957
 11
4.8741145043
 21
8.6057553957
  0
LINE
  5
228
100
AcDbEntity
  8
0
100
AcDbLine
 62
7
  6
BYLAYER
 10
4.8741145043
 20
10.7157553957
 11
4.8741145043
 21
8.6057553957
  0
LINE
  5
229
100
AcDbEntity
  8
0
100
AcDbLine
 62
7
  6
BYLAYER
 10
4.9341565527
 20
8.6057553957
 11
4.9341565527
 21
10.7157553957
  0
LINE
  5
22A
100
AcDbEntity
  8
0
100
AcDbLine
 62
7
  6
BYLAYER
 10
5.3158602139
 20
10.7157553957
 11
5.3158602139
 21
8.6057553957
  0
LINE
  5
22B
100
AcDbEntity
  8
0
100
AcDbLine
 62
7
  6
BYLAYER
 10
5.4918945928
 20
8.6057553957
 11
5.4918945928
 21
10.7157553957
  0
LINE
  5
22C
100
AcDbEntity
  8
0
100
AcDbLine
 62
7
  6
BYLAYER
 10
5.887282901
 20
2.9157553957
 11
5.887282901
 21
4.9157553957
  0
LINE
  5
22D
100
AcDbEntity
  8
0
100
AcDbLine
 62
7
  6
BYLAYER
 10
5.887282901
 20
6.1157553957
 11
5.887282901
 21
7.2657553957
  0
LINE
  5
22E
100
AcDbEntity
  8
0
100
AcDbLine
 62
7
  6
BYLAYER
 10
6.037282901
 20
12.2157553957
 11
6.037282901
 21
23.0157599712
  0
LINE
  5
22F
100
AcDbEntity
  8
0
100
AcDbLine
 62
7
  6
BYLAYER
 10
6.2859755583
 20
10.7157553957
 11
6.2859825805
 21
8.6057553957
  0
LINE
  5
230
100
AcDbEntity
  8
0
100
AcDbLine
 62
7
  6
BYLAYER
 10
6.737282901
 20
7.2657553957
 11
6.737282901
 21
8.6057553957
  0
LINE
  5
231
100
AcDbEntity
  8
0
100
AcDbLine
 62
7
  6
BYLAYER
 10
6.256845024
 20
23.7015860104
 11
6.2548313808
 21
23.6157375815
  0
LINE
  5
232
100
AcDbEntity
  8
0
100
AcDbLine
 62
7
  6
BYLAYER
 10
20.2372767471
 20
10.7157553957
 11
4.2372890548
 21
10.7157553957
  0
LINE
  5
233
100
AcDbEntity
  8
0
100
AcDbLine
 62
7
  6
BYLAYER
 10
7.1267545525
 20
23.8593200213
 11
7.1267545525
 21
23.9157553957
  0
LINE
  5
234
100
AcDbEntity
  8
0
100
AcDbLine
 62
7
  6
BYLAYER
 10
14.5802129637
 20
23.8718743777
 11
14.5801995586
 21
23.8718662067
  0
LWPOLYLINE
  5
235
100
AcDbEntity
  8
0
100
AcDbPolyline
 62
7
  6
BYLAYER
 90
4
 70
0
 10
14.5802907461
 20
23.8719080737
 10
14.4647943586
 20
23.8025795408
 10
14.3124879049
 20
23.7145896686
 10
14.1942851359
 20
23.6491363438
  0
LINE
  5
236
100
AcDbEntity
  8
0
100
AcDbLine
 62
7
  6
BYLAYER
 10
14.1943140215
 20
23.6491583415
 11
14.1942586973
 21
23.6491283191
  0
LINE
  5
237
100
AcDbEntity
  8
0
100
AcDbLine
 62
7
  6
BYLAYER
 10
4.237282901
 20
11.7157553957
 11
11.344254346
 21
11.7157553957
  0
LINE
  5
238
100
AcDbEntity
  8
0
100
AcDbLine
 62
7
  6
BYLAYER
 10
13.1303114559
 20
11.7157553957
 11
20.237282901
 21
11.7157553957
  0
LINE
  5
239
100
AcDbEntity
  8
0
100
AcDbLine
 62
7
  6
BYLAYER
 10
4.7373402901
 20
12.2157553957
 11
19.7372762485
 21
12.2157553957
  0
LINE
  5
23A
100
AcDbEntity
  8
0
100
AcDbLine
 62
7
  6
BYLAYER
 10
8.737282901
 20
27.8157553957
 11
8.737282901
 21
27.1807553957
  0
LINE
  5
23B
100
AcDbEntity
  8
0
100
AcDbLine
 62
7
  6
BYLAYER
 10
9.7381380472
 20
23.9157553957
 11
9.7381380472
 21
23.8593200213
  0
LINE
  5
23C
100
AcDbEntity
  8
0
100
AcDbLine
 62
7
  6
BYLAYER
 10
10.0305032399
 20
15.9157553957
 11
10.0305032399
 21
19.6965110849
  0
LINE
  5
23D
100
AcDbEntity
  8
0
100
AcDbLine
 62
7
  6
BYLAYER
 10
10.137282901
 20
23.6153301732
 11
10.137282901
 21
19.8261932795
  0
LINE
  5
23E
100
AcDbEntity
  8
0
100
AcDbLine
 62
7
  6
BYLAYER
 10
4.737282901
 20
12.2157553957
 11
4.237282901
 21
11.7157553957
  0
LINE
  5
23F
100
AcDbEntity
  8
0
100
AcDbLine
 62
7
  6
BYLAYER
 10
10.437282901
 20
15.9157553957
 11
10.437282901
 21
23.3854138088
  0
LINE
  5
240
100
AcDbEntity
  8
0
100
AcDbLine
 62
7
  6
BYLAYER
 10
10.487282901
 20
19.3978184628
 11
10.487282901
 21
28.0157553957
  0
LINE
  5
241
100
AcDbEntity
  8
0
100
AcDbLine
 62
7
  6
BYLAYER
 10
10.562282901
 20
19.7157553957
 11
10.562282901
 21
30.9157553957
  0
LINE
  5
242
100
AcDbEntity
  8
0
100
AcDbLine
 62
7
  6
BYLAYER
 10
10.762282901
 20
19.5157553957
 11
10.762282901
 21
31.1157553957
  0
LINE
  5
243
100
AcDbEntity
  8
0
100
AcDbLine
 62
7
  6
BYLAYER
 10
10.827495683
 20
8.6057553957
 11
10.827495683
 21
10.7157553957
  0
LINE
  5
244
100
AcDbEntity
  8
0
100
AcDbLine
 62
7
  6
BYLAYER
 10
10.8652406276
 20
2.9157553957
 11
10.8652406276
 21
4.9157553957
  0
LINE
  5
245
100
AcDbEntity
  8
0
100
AcDbLine
 62
7
  6
BYLAYER
 10
10.8652406276
 20
6.1157553957
 11
10.8652406276
 21
7.2657553957
  0
LINE
  5
246
100
AcDbEntity
  8
0
100
AcDbLine
 62
7
  6
BYLAYER
 10
10.8817387298
 20
12.2157553957
 11
10.8817387298
 21
15.9157553957
  0
LINE
  5
247
100
AcDbEntity
  8
0
100
AcDbLine
 62
7
  6
BYLAYER
 10
11.344254346
 20
10.7157553957
 11
11.344254346
 21
11.7157553957
  0
LINE
  5
248
100
AcDbEntity
  8
0
100
AcDbLine
 62
7
  6
BYLAYER
 10
11.4973504716
 20
7.2657553957
 11
11.4973504716
 21
8.6057553957
  0
LINE
  5
249
100
AcDbEntity
  8
0
100
AcDbLine
 62
7
  6
BYLAYER
 10
13.712282901
 20
19.5157553957
 11
13.912282901
 21
19.7157553957
  0
LINE
  5
24A
100
AcDbEntity
  8
0
100
AcDbLine
 62
7
  6
BYLAYER
 10
10.0305032399
 20
15.9157553957
 11
14.444062562
 21
15.9157553957
  0
LINE
  5
24B
100
AcDbEntity
  8
0
100
AcDbLine
 62
7
  6
BYLAYER
 10
12.9772153303
 20
8.6057553957
 11
12.9772153303
 21
7.2657553957
  0
LINE
  5
24C
100
AcDbEntity
  8
0
100
AcDbLine
 62
7
  6
BYLAYER
 10
13.1303114559
 20
11.7157553957
 11
13.1303114559
 21
10.7157553957
  0
LINE
  5
24D
100
AcDbEntity
  8
0
100
AcDbLine
 62
7
  6
BYLAYER
 10
10.762282901
 20
19.5157553957
 11
10.562282901
 21
19.7157553957
  0
LINE
  5
24E
100
AcDbEntity
  8
0
100
AcDbLine
 62
7
  6
BYLAYER
 10
13.5928270721
 20
15.9157553957
 11
13.5928270721
 21
12.2157553957
  0
LINE
  5
24F
100
AcDbEntity
  8
0
100
AcDbLine
 62
7
  6
BYLAYER
 10
13.6093251744
 20
7.2657553957
 11
13.6093251744
 21
6.1157553957
  0
LINE
  5
250
100
AcDbEntity
  8
0
100
AcDbLine
 62
7
  6
BYLAYER
 10
13.6093251744
 20
4.9157553957
 11
13.6093251744
 21
2.9157553957
  0
LINE
  5
251
100
AcDbEntity
  8
0
100
AcDbLine
 62
7
  6
BYLAYER
 10
13.6470701189
 20
10.7157553957
 11
13.6470701189
 21
8.6057553957
  0
LINE
  5
252
100
AcDbEntity
  8
0
100
AcDbLine
 62
7
  6
BYLAYER
 10
13.712282901
 20
31.1157553957
 11
13.712282901
 21
19.5157553957
  0
LINE
  5
253
100
AcDbEntity
  8
0
100
AcDbLine
 62
7
  6
BYLAYER
 10
13.912282901
 20
30.9157553957
 11
13.912282901
 21
19.7157553957
  0
LINE
  5
254
100
AcDbEntity
  8
0
100
AcDbLine
 62
7
  6
BYLAYER
 10
13.987282901
 20
19.3978184628
 11
13.987282901
 21
28.0157553957
  0
LINE
  5
255
100
AcDbEntity
  8
0
100
AcDbLine
 62
7
  6
BYLAYER
 10
14.037282901
 20
15.9157553957
 11
14.037282901
 21
23.3854156273
  0
LINE
  5
256
100
AcDbEntity
  8
0
100
AcDbLine
 62
7
  6
BYLAYER
 10
14.337282901
 20
19.8261932795
 11
14.337282901
 21
23.6153310427
  0
LINE
  5
257
100
AcDbEntity
  8
0
100
AcDbLine
 62
7
  6
BYLAYER
 10
14.444062562
 20
19.6965110849
 11
14.444062562
 21
15.9157553957
  0
LINE
  5
258
100
AcDbEntity
  8
0
100
AcDbLine
 62
7
  6
BYLAYER
 10
19.737282901
 20
12.2157553957
 11
20.237282901
 21
11.7157553957
  0
LINE
  5
259
100
AcDbEntity
  8
0
100
AcDbLine
 62
7
  6
BYLAYER
 10
14.7364277547
 20
23.8593200288
 11
14.7364277547
 21
23.9157553957
  0
LINE
  5
25A
100
AcDbEntity
  8
0
100
AcDbLine
 62
7
  6
BYLAYER
 10
13.712282901
 20
19.5157553957
 11
10.762282901
 21
19.5157553957
  0
LINE
  5
25B
100
AcDbEntity
  8
0
100
AcDbLine
 62
7
  6
BYLAYER
 10
10.0305032399
 20
19.6965110849
 11
10.437282901
 21
19.6965110849
  0
LINE
  5
25C
100
AcDbEntity
  8
0
100
AcDbLine
 62
7
  6
BYLAYER
 10
14.037282901
 20
19.6965110849
 11
14.444062562
 21
19.6965110849
  0
LINE
  5
25D
100
AcDbEntity
  8
0
100
AcDbLine
 62
7
  6
BYLAYER
 10
15.737282901
 20
27.8157553957
 11
15.737282901
 21
27.1807553957
  0
LINE
  5
25E
100
AcDbEntity
  8
0
100
AcDbLine
 62
7
  6
BYLAYER
 10
17.3478112494
 20
23.9157553957
 11
17.3478112494
 21
23.8593200288
  0
LINE
  5
25F
100
AcDbEntity
  8
0
100
AcDbLine
 62
7
  6
BYLAYER
 10
17.737282901
 20
7.2657553957
 11
17.737282901
 21
8.6057553957
  0
LINE
  5
260
100
AcDbEntity
  8
0
100
AcDbLine
 62
7
  6
BYLAYER
 10
8.4858941666
 20
21.8284211989
 11
10.137282901
 21
21.828421199
  0
LINE
  5
261
100
AcDbEntity
  8
0
100
AcDbLine
 62
7
  6
BYLAYER
 10
14.337282901
 20
21.828421199
 11
15.9886716353
 21
21.8284211989
  0
LINE
  5
262
100
AcDbEntity
  8
0
100
AcDbLine
 62
7
  6
BYLAYER
 10
10.2802512572
 20
23.6491586251
 11
10.2803067146
 21
23.6491285307
  0
LWPOLYLINE
  5
263
100
AcDbEntity
  8
0
100
AcDbPolyline
 62
7
  6
BYLAYER
 90
4
 70
0
 10
10.2802803554
 20
23.649136345
 10
10.1589681128
 20
23.7163458915
 10
10.0067770447
 20
23.804349488
 10
9.8942747062
 20
23.8719083605
  0
LINE
  5
264
100
AcDbEntity
  8
0
100
AcDbLine
 62
7
  6
BYLAYER
 10
9.8943479319
 20
23.8718773712
 11
9.8943615275
 21
23.8718690841
  0
LWPOLYLINE
  5
265
100
AcDbEntity
  8
0
100
AcDbPolyline
 62
7
  6
BYLAYER
 90
8
 70
0
 10
18.4372796675
 20
23.0157599871
 10
18.4366364903
 20
23.0353938892
 10
18.4357241299
 20
23.0462706186
 10
18.4328872576
 20
23.0669082443
 10
18.4289653896
 20
23.0858986051
 10
18.4242929415
 20
23.1030718588
 10
18.4194352972
 20
23.1176825122
 10
18.3578976438
 20
23.280487859
  0
LINE
  5
266
100
AcDbEntity
  8
0
100
AcDbLine
 62
7
  6
BYLAYER
 10
18.2177250055
 20
23.7015718503
 11
18.2197414525
 21
23.6157766857
  0
LINE
  5
267
100
AcDbEntity
  8
0
100
AcDbLine
 62
7
  6
BYLAYER
 10
18.1885902437
 20
10.7157553957
 11
18.1885610576
 21
8.6057553957
  0
LINE
  5
268
100
AcDbEntity
  8
0
100
AcDbLine
 62
7
  6
BYLAYER
 10
18.437282901
 20
12.2157553957
 11
18.437282901
 21
23.0157599292
  0
LINE
  5
269
100
AcDbEntity
  8
0
100
AcDbLine
 62
7
  6
BYLAYER
 10
18.587282901
 20
2.9157553957
 11
18.587282901
 21
4.9157553957
  0
LINE
  5
26A
100
AcDbEntity
  8
0
100
AcDbLine
 62
7
  6
BYLAYER
 10
18.587282901
 20
6.1157553957
 11
18.587282901
 21
7.2657553957
  0
LINE
  5
26B
100
AcDbEntity
  8
0
100
AcDbLine
 62
7
  6
BYLAYER
 10
18.9826712091
 20
10.7157553957
 11
18.9826712091
 21
8.6057553957
  0
LINE
  5
26C
100
AcDbEntity
  8
0
100
AcDbLine
 62
7
  6
BYLAYER
 10
19.158705588
 20
8.6057553957
 11
19.158705588
 21
10.7157553957
  0
LINE
  5
26D
100
AcDbEntity
  8
0
100
AcDbLine
 62
7
  6
BYLAYER
 10
19.5404092492
 20
10.7157553957
 11
19.5404092492
 21
8.6057553957
  0
LINE
  5
26E
100
AcDbEntity
  8
0
100
AcDbLine
 62
7
  6
BYLAYER
 10
19.6004512976
 20
8.6057553957
 11
19.6004512976
 21
10.7157553957
  0
LINE
  5
26F
100
AcDbEntity
  8
0
100
AcDbLine
 62
7
  6
BYLAYER
 10
6.2548402955
 20
23.6157553957
 11
6.8668956832
 21
23.6157553957
  0
LINE
  5
270
100
AcDbEntity
  8
0
100
AcDbLine
 62
7
  6
BYLAYER
 10
17.6076704615
 20
23.6157553957
 11
18.2197235596
 21
23.6157553957
  0
LINE
  5
271
100
AcDbEntity
  8
0
100
AcDbLine
 62
7
  6
BYLAYER
 10
17.3477970692
 20
23.8593200288
 11
14.7363110442
 21
23.8593200288
  0
LINE
  5
272
100
AcDbEntity
  8
0
100
AcDbLine
 62
7
  6
BYLAYER
 10
9.7382554258
 20
23.8593200213
 11
7.1267672247
 21
23.8593200213
  0
LINE
  5
273
100
AcDbEntity
  8
0
100
AcDbLine
 62
7
  6
BYLAYER
 10
6.5443042209
 20
23.9157553957
 11
9.7381828542
 21
23.9157553957
  0
LINE
  5
274
100
AcDbEntity
  8
0
100
AcDbLine
 62
7
  6
BYLAYER
 10
14.7363852
 20
23.9157553957
 11
17.9302618361
 21
23.9157553957
  0
LINE
  5
275
100
AcDbEntity
  8
0
100
AcDbLine
 62
7
  6
BYLAYER
 10
10.487282901
 20
24.0507553957
 11
10.562282901
 21
24.0507553957
  0
LINE
  5
276
100
AcDbEntity
  8
0
100
AcDbLine
 62
7
  6
BYLAYER
 10
13.912282901
 20
24.0507553957
 11
13.987282901
 21
24.0507553957
  0
LINE
  5
277
100
AcDbEntity
  8
0
100
AcDbLine
 62
7
  6
BYLAYER
 10
18.2177147145
 20
23.7016063062
 11
18.2177250055
 21
23.7015718503
  0
LINE
  5
278
100
AcDbEntity
  8
0
100
AcDbLine
 62
7
  6
BYLAYER
 10
20.237282901
 20
11.7157553957
 11
20.237282901
 21
10.7157553957
  0
LINE
  5
279
100
AcDbEntity
  8
0
100
AcDbLine
 62
7
  6
BYLAYER
 10
18.3723005802
 20
23.1793709727
 11
18.437282901
 21
23.0158387041
  0
LINE
  5
27A
100
AcDbEntity
  8
0
100
AcDbLine
 62
7
  6
BYLAYER
 10
18.3595846652
 20
23.2758887962
 11
18.2177116246
 21
23.7016138437
  0
LINE
  5
27B
100
AcDbEntity
  8
0
100
AcDbLine
 62
7
  6
BYLAYER
 10
13.987282901
 20
26.5615372032
 11
13.912282901
 21
26.5615372032
  0
LINE
  5
27C
100
AcDbEntity
  8
0
100
AcDbLine
 62
7
  6
BYLAYER
 10
10.562282901
 20
26.5615372032
 11
10.487282901
 21
26.5615372032
  0
LINE
  5
27D
100
AcDbEntity
  8
0
100
AcDbLine
 62
7
  6
BYLAYER
 10
8.737282901
 20
27.8157553957
 11
10.487282901
 21
27.8157553957
  0
LINE
  5
27E
100
AcDbEntity
  8
0
100
AcDbLine
 62
7
  6
BYLAYER
 10
13.987282901
 20
27.8157553957
 11
15.737282901
 21
27.8157553957
  0
LINE
  5
27F
100
AcDbEntity
  8
0
100
AcDbLine
 62
7
  6
BYLAYER
 10
15.537282901
 20
28.0157553957
 11
15.737282901
 21
27.8157553957
  0
LINE
  5
280
100
AcDbEntity
  8
0
100
AcDbLine
 62
7
  6
BYLAYER
 10
8.9372862198
 20
28.0157553957
 11
10.487282901
 21
28.0157553957
  0
LINE
  5
281
100
AcDbEntity
  8
0
100
AcDbLine
 62
7
  6
BYLAYER
 10
13.987282901
 20
28.0157553957
 11
15.5372795821
 21
28.0157553957
  0
LINE
  5
282
100
AcDbEntity
  8
0
100
AcDbLine
 62
7
  6
BYLAYER
 10
13.712282901
 20
31.1157553957
 11
13.912282901
 21
30.9157553957
  0
LINE
  5
283
100
AcDbEntity
  8
0
100
AcDbLine
 62
7
  6
BYLAYER
 10
13.712282901
 20
31.1157553957
 11
10.762282901
 21
31.1157553957
  0
ARC
  5
284
100
AcDbEntity
  8
0
100
AcDbCircle
 62
7
  6
BYLAYER
 10
9.0574856737
 20
32.6513732894
 40
10.4665781478
100
AcDbArc
 50
302.1763887077
 51
302.8585928325
  0
ARC
  5
285
100
AcDbEntity
  8
0
100
AcDbCircle
 62
7
  6
BYLAYER
 10
15.2716225661
 20
32.4232218103
 40
10.1960073441
100
AcDbArc
 50
237.1324110641
 51
237.8327138386
  0
ARC
  5
286
100
AcDbEntity
  8
0
100
AcDbCircle
 62
7
  6
BYLAYER
 10
14.4337749648
 20
31.0831215093
 40
8.6155528838
100
AcDbArc
 50
237.804620685
 51
240.0866158072
  0
ARC
  5
287
100
AcDbEntity
  8
0
100
AcDbCircle
 62
7
  6
BYLAYER
 10
10.0409489783
 20
31.0829184697
 40
8.615297276
100
AcDbArc
 50
299.9131488577
 51
302.1952064323
  0
ARC
  5
288
100
AcDbEntity
  8
0
100
AcDbCircle
 62
7
  6
BYLAYER
 10
12.2370581887
 20
3.7650988998
 40
8.0006187839
100
AcDbArc
 50
89.9983907423
 51
96.4070799649
  0
ARC
  5
289
100
AcDbEntity
  8
0
100
AcDbCircle
 62
7
  6
BYLAYER
 10
12.237507618
 20
3.7650988995
 40
8.0006187839
100
AcDbArc
 50
83.5929200698
 51
90.0016092924
  0
ARC
  5
28A
100
AcDbEntity
  8
0
100
AcDbCircle
 62
7
  6
BYLAYER
 10
-1.2961041392
 20
26.0223302258
 40
7.9257935858
100
AcDbArc
 50
338.2845003053
 51
338.7966498918
  0
ARC
  5
28B
100
AcDbEntity
  8
0
100
AcDbCircle
 62
7
  6
BYLAYER
 10
25.1441639415
 20
25.7919442718
 40
7.2583519223
100
AcDbArc
 50
197.4467078544
 51
201.0965291022
  0
ARC
  5
28C
100
AcDbEntity
  8
0
100
AcDbCircle
 62
7
  6
BYLAYER
 10
18.237282901
 20
5.6157553957
 40
0.5
100
AcDbArc
 50
270.0
 51
90.0
  0
ARC
  5
28D
100
AcDbEntity
  8
0
100
AcDbCircle
 62
7
  6
BYLAYER
 10
6.237282901
 20
5.6157553957
 40
0.5
100
AcDbArc
 50
90.0
 51
270.0
  0
ARC
  5
28E
100
AcDbEntity
  8
0
100
AcDbCircle
 62
7
  6
BYLAYER
 10
18.087282901
 20
2.9157553957
 40
0.5
100
AcDbArc
 50
269.9999853081
 51
360.0
  0
ARC
  5
28F
100
AcDbEntity
  8
0
100
AcDbCircle
 62
7
  6
BYLAYER
 10
6.387282901
 20
2.9157553957
 40
0.5
100
AcDbArc
 50
180.0
 51
270.0000146919
  0
ARC
  5
290
100
AcDbEntity
  8
0
100
AcDbCircle
 62
7
  6
BYLAYER
 10
6.5664597592
 20
23.6155738462
 40
0.3116284214
100
AcDbArc
 50
164.5723237201
 51
179.9698957405
  0
ARC
  5
291
100
AcDbEntity
  8
0
100
AcDbCircle
 62
7
  6
BYLAYER
 10
17.9082019709
 20
23.6155903224
 40
0.3115395374
100
AcDbArc
 50
0.0342743924
 51
15.4276057921
  0
ARC
  5
292
100
AcDbEntity
  8
0
100
AcDbCircle
 62
7
  6
BYLAYER
 10
6.54430477
 20
23.6157553957
 40
0.3
100
AcDbArc
 50
90.0000324537
 51
163.3745824484
  0
ARC
  5
293
100
AcDbEntity
  8
0
100
AcDbCircle
 62
7
  6
BYLAYER
 10
10.137282901
 20
23.3854162335
 40
0.3
100
AcDbArc
 50
0.0023975008
 51
61.5389524601
  0
ARC
  5
294
100
AcDbEntity
  8
0
100
AcDbCircle
 62
7
  6
BYLAYER
 10
9.7381380472
 20
23.6157553957
 40
0.3
100
AcDbArc
 50
58.6308964359
 51
89.9992682439
  0
ARC
  5
295
100
AcDbEntity
  8
0
100
AcDbCircle
 62
7
  6
BYLAYER
 10
6.337282901
 20
5.2157553957
 40
0.3
100
AcDbArc
 50
270.0
 51
342.986983833
  0
ARC
  5
296
100
AcDbEntity
  8
0
100
AcDbCircle
 62
7
  6
BYLAYER
 10
18.137282901
 20
5.2157553957
 40
0.3
100
AcDbArc
 50
197.013016167
 51
270.0
  0
ARC
  5
297
100
AcDbEntity
  8
0
100
AcDbCircle
 62
7
  6
BYLAYER
 10
14.337282901
 20
23.3854162335
 40
0.3
100
AcDbArc
 50
118.4611612011
 51
179.9999042023
  0
ARC
  5
298
100
AcDbEntity
  8
0
100
AcDbCircle
 62
7
  6
BYLAYER
 10
14.7364277547
 20
23.6157553957
 40
0.3
100
AcDbArc
 50
90.0007034091
 51
121.3691582081
  0
ARC
  5
299
100
AcDbEntity
  8
0
100
AcDbCircle
 62
7
  6
BYLAYER
 10
17.9302610319
 20
23.6157553957
 40
0.3
100
AcDbArc
 50
16.6237519347
 51
89.9999998808
  0
SPLINE
  5
29A
100
AcDbEntity
  8
0
100
AcDbSpline
 62
7
  6
BYLAYER
 70
0
 71
3
 72
18
 73
14
 74
0
 42
0.0000001
 43
0.0000001
 44
0.0000000001
 40
0.0
 40
0.0
 40
0.0
 40
0.0
 40
0.1317858125
 40
0.2051278507
 40
0.2816447742
 40
0.360190338
 40
0.4396590734
 40
0.5189508457
 40
0.5969651804
 40
0.6725894989
 40
0.7446488236
 40
0.8723811611
 40
1.0
 40
1.0
 40
1.0
 40
1.0
 10
8.8824966158
 20
23.9149499575
 30
0.0
 10
8.9213644877
 20
24.0557527882
 30
0.0
 10
8.9747015016
 20
24.2770332101
 30
0.0
 10
9.0292943625
 20
24.5844808785
 30
0.0
 10
9.0615679461
 20
24.8356881161
 30
0.0
 10
9.0810651318
 20
25.095034827
 30
0.0
 10
9.0861253773
 20
25.3581532464
 30
0.0
 10
9.076309115
 20
25.6205452596
 30
0.0
 10
9.0524696321
 20
25.8777420503
 30
0.0
 10
9.0166066087
 20
26.1254194112
 30
0.0
 10
8.9589465445
 20
26.4252848241
 30
0.0
 10
8.869952685
 20
26.7773780106
 30
0.0
 10
8.7837074357
 20
27.047200385
 30
0.0
 10
8.737282901
 20
27.1807553957
 30
0.0
  0
SPLINE
  5
29B
100
AcDbEntity
  8
0
100
AcDbSpline
 62
7
  6
BYLAYER
 70
0
 71
3
 72
18
 73
14
 74
0
 42
0.0000001
 43
0.0000001
 44
0.0000000001
 40
0.0
 40
0.0
 40
0.0
 40
0.0
 40
0.1276199271
 40
0.2553531133
 40
0.3274128076
 40
0.4030374547
 40
0.4810519803
 40
0.560343873
 40
0.6398126664
 40
0.7183580892
 40
0.79487467
 40
0.868216211
 40
1.0
 40
1.0
 40
1.0
 40
1.0
 10
15.737282901
 20
27.1807553957
 30
0.0
 10
15.6908574729
 20
27.0471978575
 30
0.0
 10
15.604610804
 20
26.7773705637
 30
0.0
 10
15.5156160447
 20
26.4252710419
 30
0.0
 10
15.4579559509
 20
26.1254006361
 30
0.0
 10
15.4220934268
 20
25.8777195604
 30
0.0
 10
15.3982549539
 20
25.6205192504
 30
0.0
 10
15.3884400812
 20
25.3581240273
 30
0.0
 10
15.3935021261
 20
25.0950028474
 30
0.0
 10
15.4130013267
 20
24.8356540372
 30
0.0
 10
15.4452768334
 20
24.584445477
 30
0.0
 10
15.4998718084
 20
24.2769980962
 30
0.0
 10
15.553210007
 20
24.0557184019
 30
0.0
 10
15.5920784316
 20
23.9149164676
 30
0.0
  0
SPLINE
  5
29C
100
AcDbEntity
  8
0
100
AcDbSpline
 62
7
  6
BYLAYER
 70
0
 71
3
 72
9
 73
5
 74
0
 42
0.0000001
 43
0.0000001
 44
0.0000000001
 40
0.0
 40
0.0
 40
0.0
 40
0.0
 40
0.5174554725
 40
1.0
 40
1.0
 40
1.0
 40
1.0
 10
12.237282901
 20
19.510313684
 30
0.0
 10
12.539908615
 20
19.510313684
 30
0.0
 10
13.1249169159
 20
19.4906690251
 30
0.0
 10
13.7073594328
 20
19.4336589903
 30
0.0
 10
13.987282901
 20
19.3978184628
 30
0.0
  0
SPLINE
  5
29D
100
AcDbEntity
  8
0
100
AcDbSpline
 62
7
  6
BYLAYER
 70
0
 71
3
 72
9
 73
5
 74
0
 42
0.0000001
 43
0.0000001
 44
0.0000000001
 40
0.0
 40
0.0
 40
0.0
 40
0.0
 40
0.4825445557
 40
1.0
 40
1.0
 40
1.0
 40
1.0
 10
10.487282901
 20
19.3978184628
 30
0.0
 10
10.7672063855
 20
19.4336589924
 30
0.0
 10
11.3496489023
 20
19.4906690303
 30
0.0
 10
11.9346572034
 20
19.510313684
 30
0.0
 10
12.237282901
 20
19.510313684
 30
0.0
  0
SPLINE
  5
29E
100
AcDbEntity
  8
0
100
AcDbSpline
 62
7
  6
BYLAYER
 70
0
 71
3
 72
12
 73
8
 74
0
 42
0.0000001
 43
0.0000001
 44
0.0000000001
 40
0.0
 40
0.0
 40
0.0
 40
0.0
 40
0.2896061122
 40
0.423190362
 40
0.5489172211
 40
0.7812372526
 40
1.0
 40
1.0
 40
1.0
 40
1.0
 10
14.736433339
 20
23.8592528136
 30
0.0
 10
14.7226268269
 20
23.8669732195
 30
0.0
 10
14.7013952024
 20
23.8765797383
 30
0.0
 10
14.6724311441
 20
23.8845295176
 30
0.0
 10
14.6458452638
 20
23.8886268959
 30
0.0
 10
14.6138906755
 20
23.8872850349
 30
0.0
 10
14.5904289218
 20
23.8780918419
 30
0.0
 10
14.58022301
 20
23.8718775619
 30
0.0
  0
SPLINE
  5
29F
100
AcDbEntity
  8
0
100
AcDbSpline
 62
7
  6
BYLAYER
 70
0
 71
3
 72
13
 73
9
 74
0
 42
0.0000001
 43
0.0000001
 44
0.0000000001
 40
0.0
 40
0.0
 40
0.0
 40
0.0
 40
0.3058789183
 40
0.570199092
 40
0.6876185729
 40
0.7968265756
 40
0.9000087656
 40
1.0
 40
1.0
 40
1.0
 40
1.0
 10
14.3373431848
 20
23.615293521
 30
0.0
 10
14.3247851868
 20
23.6248513925
 30
0.0
 10
14.3000388262
 20
23.6410261723
 30
0.0
 10
14.2667531248
 20
23.6543596001
 30
0.0
 10
14.2416790492
 20
23.6585576747
 30
0.0
 10
14.2245737434
 20
23.6586092139
 30
0.0
 10
14.2086335215
 20
23.6556283596
 30
0.0
 10
14.1988547685
 20
23.6516086611
 30
0.0
 10
14.1943179623
 20
23.6491526225
 30
0.0
  0
SPLINE
  5
2A0
100
AcDbEntity
  8
0
100
AcDbSpline
 62
7
  6
BYLAYER
 70
0
 71
3
 72
11
 73
7
 74
0
 42
0.0000001
 43
0.0000001
 44
0.0000000001
 40
0.0
 40
0.0
 40
0.0
 40
0.0
 40
0.2473431891
 40
0.4961099413
 40
0.7468039548
 40
1.0
 40
1.0
 40
1.0
 40
1.0
 10
8.4858964619
 20
21.8284222849
 30
0.0
 10
8.5940855749
 20
21.642487392
 30
0.0
 10
8.8227110354
 20
21.2761082679
 30
0.0
 10
9.2073162366
 20
20.751827928
 30
0.0
 10
9.6401501608
 20
20.2594991717
 30
0.0
 10
9.9648639149
 20
19.9631763792
 30
0.0
 10
10.1372826525
 20
19.8261930252
 30
0.0
  0
SPLINE
  5
2A1
100
AcDbEntity
  8
0
100
AcDbSpline
 62
7
  6
BYLAYER
 70
0
 71
3
 72
11
 73
7
 74
0
 42
0.0000001
 43
0.0000001
 44
0.0000000001
 40
0.0
 40
0.0
 40
0.0
 40
0.0
 40
0.2192624379
 40
0.4620232282
 40
0.7235335997
 40
1.0
 40
1.0
 40
1.0
 40
1.0
 10
7.1267672247
 20
23.8593200213
 30
0.0
 10
7.2346742513
 20
23.716820227
 30
0.0
 10
7.4595742141
 20
23.4146592729
 30
0.0
 10
7.8010196316
 20
22.9336090259
 30
0.0
 10
8.152637356
 20
22.4029354239
 30
0.0
 10
8.3774058962
 20
22.0259716993
 30
0.0
 10
8.4858941666
 20
21.828421199
 30
0.0
  0
SPLINE
  5
2A2
100
AcDbEntity
  8
0
100
AcDbSpline
 62
7
  6
BYLAYER
 70
0
 71
3
 72
11
 73
7
 74
0
 42
0.0000001
 43
0.0000001
 44
0.0000000001
 40
0.0
 40
0.0
 40
0.0
 40
0.0
 40
0.275404702
 40
0.5366933178
 40
0.7799154784
 40
1.0
 40
1.0
 40
1.0
 40
1.0
 10
8.2951570545
 20
21.6987477755
 30
0.0
 10
8.1805842405
 20
21.8861422451
 30
0.0
 10
7.943604494
 20
22.2430006413
 30
0.0
 10
7.5741695114
 20
22.7435672925
 30
0.0
 10
7.2159733027
 20
23.1971565353
 30
0.0
 10
6.9800348097
 20
23.481556157
 30
0.0
 10
6.8668988254
 20
23.6157543189
 30
0.0
  0
SPLINE
  5
2A3
100
AcDbEntity
  8
0
100
AcDbSpline
 62
7
  6
BYLAYER
 70
0
 71
3
 72
11
 73
7
 74
0
 42
0.0000001
 43
0.0000001
 44
0.0000000001
 40
0.0
 40
0.0
 40
0.0
 40
0.0
 40
0.25381964
 40
0.5049541016
 40
0.7533337727
 40
1.0
 40
1.0
 40
1.0
 40
1.0
 10
6.2660602394
 20
23.6984737952
 30
0.0
 10
6.274566561
 20
23.7292685446
 30
0.0
 10
6.3013143965
 20
23.7882991852
 30
0.0
 10
6.3666424104
 20
23.8592129757
 30
0.0
 10
6.4504565733
 20
23.9051571854
 30
0.0
 10
6.5132570017
 20
23.9157553766
 30
0.0
 10
6.5443046003
 20
23.9157553957
 30
0.0
  0
SPLINE
  5
2A4
100
AcDbEntity
  8
0
100
AcDbSpline
 62
7
  6
BYLAYER
 70
0
 71
3
 72
14
 73
10
 74
0
 42
0.0000001
 43
0.0000001
 44
0.0000000001
 40
0.0
 40
0.0
 40
0.0
 40
0.0
 40
0.1160937076
 40
0.2338262331
 40
0.3540238104
 40
0.4775471046
 40
0.6045480131
 40
0.7346807992
 40
1.0
 40
1.0
 40
1.0
 40
1.0
 10
7.1267545525
 20
23.9157553957
 30
0.0
 10
7.1097610095
 20
23.9157553957
 30
0.0
 10
7.0754157736
 20
23.9118024767
 30
0.0
 10
7.0261497922
 20
23.8944776995
 30
0.0
 10
6.9808575715
 20
23.8663518883
 30
0.0
 10
6.9413336573
 20
23.828654281
 30
0.0
 10
6.908948754
 20
23.7828817042
 30
0.0
 10
6.8767989845
 20
23.7131608687
 30
0.0
 10
6.8668953365
 20
23.6545922401
 30
0.0
 10
6.8668953365
 20
23.6157553957
 30
0.0
  0
SPLINE
  5
2A5
100
AcDbEntity
  8
0
100
AcDbSpline
 62
7
  6
BYLAYER
 70
0
 71
3
 72
15
 73
11
 74
0
 42
0.0000001
 43
0.0000001
 44
0.0000000001
 40
0.0
 40
0.0
 40
0.0
 40
0.0
 40
0.117681385
 40
0.2430592056
 40
0.3739626483
 40
0.5071697596
 40
0.6393243928
 40
0.7672304219
 40
0.8880025654
 40
1.0
 40
1.0
 40
1.0
 40
1.0
 10
7.1267535108
 20
23.8592981598
 30
0.0
 10
7.1127492893
 20
23.8554679887
 30
0.0
 10
7.0843167978
 20
23.8456658564
 30
0.0
 10
7.0427127078
 20
23.8254760096
 30
0.0
 10
7.002261295
 20
23.7993262224
 30
0.0
 10
6.9644930936
 20
23.7680977553
 30
0.0
 10
6.9311245756
 20
23.7327097291
 30
0.0
 10
6.9031706111
 20
23.69479104
 30
0.0
 10
6.881563877
 20
23.6557545593
 30
0.0
 10
6.8710177855
 20
23.6289328622
 30
0.0
 10
6.8669112338
 20
23.6157398924
 30
0.0
  0
SPLINE
  5
2A6
100
AcDbEntity
  8
0
100
AcDbSpline
 62
7
  6
BYLAYER
 70
0
 71
3
 72
11
 73
7
 74
0
 42
0.0000001
 43
0.0000001
 44
0.0000000001
 40
0.0
 40
0.0
 40
0.0
 40
0.0
 40
0.2549656828
 40
0.5156499745
 40
0.7681599916
 40
1.0
 40
1.0
 40
1.0
 40
1.0
 10
8.4858969393
 20
21.8284214645
 30
0.0
 10
8.468105823
 20
21.8200032633
 30
0.0
 10
8.4328121391
 20
21.8014993109
 30
0.0
 10
8.3823972066
 20
21.7701705942
 30
0.0
 10
8.3361133068
 20
21.7359306775
 30
0.0
 10
8.3079478039
 20
21.7112441787
 30
0.0
 10
8.2951451472
 20
21.6987383623
 30
0.0
  0
SPLINE
  5
2A7
100
AcDbEntity
  8
0
100
AcDbSpline
 62
7
  6
BYLAYER
 70
0
 71
3
 72
14
 73
10
 74
0
 42
0.0000001
 43
0.0000001
 44
0.0000000001
 40
0.0
 40
0.0
 40
0.0
 40
0.0
 40
0.2464451669
 40
0.3703967692
 40
0.4948891719
 40
0.6200022588
 40
0.7458786328
 40
0.8725542502
 40
1.0
 40
1.0
 40
1.0
 40
1.0
 10
8.295145587
 20
21.6987390045
 30
0.0
 10
8.4093315348
 20
21.5119932344
 30
0.0
 10
8.5901250669
 20
21.2367142327
 30
0.0
 10
8.8519128592
 20
20.8835135612
 30
0.0
 10
9.0602762142
 20
20.6251733616
 30
0.0
 10
9.2813154554
 20
20.3752843481
 30
0.0
 10
9.5158454862
 20
20.1352495527
 30
0.0
 10
9.764699851
 20
19.906990528
 30
0.0
 10
9.9402077075
 20
19.7647747859
 30
0.0
 10
10.0305032399
 20
19.6965110849
 30
0.0
  0
SPLINE
  5
2A8
100
AcDbEntity
  8
0
100
AcDbSpline
 62
7
  6
BYLAYER
 70
0
 71
3
 72
9
 73
5
 74
0
 42
0.0000001
 43
0.0000001
 44
0.0000000001
 40
0.0
 40
0.0
 40
0.0
 40
0.0
 40
0.4920837905
 40
1.0
 40
1.0
 40
1.0
 40
1.0
 10
10.1372827882
 20
19.826193369
 30
0.0
 10
10.1180100748
 20
19.8064691707
 30
0.0
 10
10.0807645527
 20
19.7645018357
 30
0.0
 10
10.0467289212
 20
19.7198968557
 30
0.0
 10
10.0305021119
 20
19.6965110652
 30
0.0
  0
SPLINE
  5
2A9
100
AcDbEntity
  8
0
100
AcDbSpline
 62
7
  6
BYLAYER
 70
0
 71
3
 72
18
 73
14
 74
0
 42
0.0000001
 43
0.0000001
 44
0.0000000001
 40
0.0
 40
0.0
 40
0.0
 40
0.0
 40
0.0364104979
 40
0.0743897045
 40
0.1151203882
 40
0.1595093059
 40
0.2081507845
 40
0.2613591607
 40
0.381644994
 40
0.5191930397
 40
0.6709944059
 40
0.8330595507
 40
1.0
 40
1.0
 40
1.0
 40
1.0
 10
10.437282901
 20
19.6965110849
 30
0.0
 10
10.437282901
 20
19.7007663658
 30
0.0
 10
10.4362584102
 20
19.709488677
 30
0.0
 10
10.431782399
 20
19.7222731007
 30
0.0
 10
10.4244571074
 20
19.7347474945
 30
0.0
 10
10.4143669307
 20
19.7467658719
 30
0.0
 10
10.4016497079
 20
19.7582504903
 30
0.0
 10
10.3804845402
 20
19.7733626903
 30
0.0
 10
10.3479348223
 20
19.7899675439
 30
0.0
 10
10.3026122211
 20
19.805704327
 30
0.0
 10
10.2510663817
 20
19.8173908348
 30
0.0
 10
10.1952643349
 20
19.8245688877
 30
0.0
 10
10.1567931674
 20
19.8261932795
 30
0.0
 10
10.137282901
 20
19.8261932795
 30
0.0
  0
SPLINE
  5
2AA
100
AcDbEntity
  8
0
100
AcDbSpline
 62
7
  6
BYLAYER
 70
0
 71
3
 72
18
 73
14
 74
0
 42
0.0000001
 43
0.0000001
 44
0.0000000001
 40
0.0
 40
0.0
 40
0.0
 40
0.0
 40
0.1669407405
 40
0.3290063986
 40
0.4808077469
 40
0.6183555621
 40
0.7386412015
 40
0.79184948
 40
0.8404908554
 40
0.8848796951
 40
0.9256103284
 40
0.9635895087
 40
1.0
 40
1.0
 40
1.0
 40
1.0
 10
10.137282901
 20
21.828421199
 30
0.0
 10
10.1567932015
 20
21.828421199
 30
0.0
 10
10.1952644613
 20
21.8267967707
 30
0.0
 10
10.2510666038
 20
21.8196187345
 30
0.0
 10
10.3026124645
 20
21.8079321744
 30
0.0
 10
10.3479350097
 20
21.7921953871
 30
0.0
 10
10.3804846588
 20
21.7755905339
 30
0.0
 10
10.4016497843
 20
21.7604783539
 30
0.0
 10
10.4143669723
 20
21.7489937456
 30
0.0
 10
10.4244571298
 20
21.7369753881
 30
0.0
 10
10.4317824107
 20
21.7245010086
 30
0.0
 10
10.4362584129
 20
21.7117165919
 30
0.0
 10
10.437282901
 20
21.7029942846
 30
0.0
 10
10.437282901
 20
21.6987390044
 30
0.0
  0
SPLINE
  5
2AB
100
AcDbEntity
  8
0
100
AcDbSpline
 62
7
  6
BYLAYER
 70
0
 71
3
 72
14
 73
10
 74
0
 42
0.0000001
 43
0.0000001
 44
0.0000000001
 40
0.0
 40
0.0
 40
0.0
 40
0.0
 40
0.1406647332
 40
0.2793975977
 40
0.5416239505
 40
0.6640527154
 40
0.7802588832
 40
0.8916190641
 40
1.0
 40
1.0
 40
1.0
 40
1.0
 10
10.1372241114
 20
23.6152936094
 30
0.0
 10
10.1567740904
 20
23.6152954705
 30
0.0
 10
10.1956889996
 20
23.6123550143
 30
0.0
 10
10.2692096245
 20
23.5954892879
 30
0.0
 10
10.3359860815
 20
23.5624672512
 30
0.0
 10
10.3874385473
 20
23.5149859061
 30
0.0
 10
10.4157483003
 20
23.4749150123
 30
0.0
 10
10.4332621138
 20
23.4311626432
 30
0.0
 10
10.4372818105
 20
23.4004918595
 30
0.0
 10
10.4372829005
 20
23.3854287732
 30
0.0
  0
SPLINE
  5
2AC
100
AcDbEntity
  8
0
100
AcDbSpline
 62
7
  6
BYLAYER
 70
0
 71
3
 72
13
 73
9
 74
0
 42
0.0000001
 43
0.0000001
 44
0.0000000001
 40
0.0
 40
0.0
 40
0.0
 40
0.0
 40
0.3058850271
 40
0.5702093369
 40
0.6876278757
 40
0.7968338145
 40
0.9000130832
 40
1.0
 40
1.0
 40
1.0
 40
1.0
 10
10.1372241114
 20
23.6152936094
 30
0.0
 10
10.1497820278
 20
23.6248518085
 30
0.0
 10
10.1745284242
 20
23.641026909
 30
0.0
 10
10.207814235
 20
23.6543604275
 30
0.0
 10
10.2328882089
 20
23.6585578616
 30
0.0
 10
10.2499929905
 20
23.6586088502
 30
0.0
 10
10.2659325431
 20
23.6556283035
 30
0.0
 10
10.2757109521
 20
23.6516090452
 30
0.0
 10
10.2802475239
 20
23.6491531664
 30
0.0
  0
SPLINE
  5
2AD
100
AcDbEntity
  8
0
100
AcDbSpline
 62
7
  6
BYLAYER
 70
0
 71
3
 72
9
 73
5
 74
0
 42
0.0000001
 43
0.0000001
 44
0.0000000001
 40
0.0
 40
0.0
 40
0.0
 40
0.0
 40
0.1902469496
 40
1.0
 40
1.0
 40
1.0
 40
1.0
 10
6.0931342661
 20
23.155736471
 30
0.0
 10
6.1043231226
 20
23.1845662048
 30
0.0
 10
6.1622740377
 20
23.3364341133
 30
0.0
 10
6.2154344175
 20
23.4901663685
 30
0.0
 10
6.2548402955
 20
23.6157553957
 30
0.0
  0
SPLINE
  5
2AE
100
AcDbEntity
  8
0
100
AcDbSpline
 62
7
  6
BYLAYER
 70
0
 71
3
 72
11
 73
7
 74
0
 42
0.0000001
 43
0.0000001
 44
0.0000000001
 40
0.0
 40
0.0
 40
0.0
 40
0.0
 40
0.28964402
 40
0.5487200233
 40
0.7812349215
 40
1.0
 40
1.0
 40
1.0
 40
1.0
 10
9.7381324225
 20
23.8592522736
 30
0.0
 10
9.7519345952
 20
23.8669702913
 30
0.0
 10
9.7794042375
 20
23.879416777
 30
0.0
 10
9.8213603242
 20
23.8889256813
 30
0.0
 10
9.8606691018
 20
23.8872844826
 30
0.0
 10
9.8841364773
 20
23.8780908065
 30
0.0
 10
9.8943380446
 20
23.8718793468
 30
0.0
  0
SPLINE
  5
2AF
100
AcDbEntity
  8
0
100
AcDbSpline
 62
7
  6
BYLAYER
 70
0
 71
3
 72
11
 73
7
 74
0
 42
0.0000001
 43
0.0000001
 44
0.0000000001
 40
0.0
 40
0.0
 40
0.0
 40
0.0
 40
0.2200854649
 40
0.4633072308
 40
0.7245955804
 40
1.0
 40
1.0
 40
1.0
 40
1.0
 10
17.6076670643
 20
23.6157547447
 30
0.0
 10
17.4945306489
 20
23.4815559279
 30
0.0
 10
17.2585918003
 20
23.1971559628
 30
0.0
 10
16.9003953365
 20
22.7435665229
 30
0.0
 10
16.5309608396
 20
22.2430003271
 30
0.0
 10
16.2939813788
 20
21.8861421991
 30
0.0
 10
16.179408573
 20
21.6987479499
 30
0.0
  0
SPLINE
  5
2B0
100
AcDbEntity
  8
0
100
AcDbSpline
 62
7
  6
BYLAYER
 70
0
 71
3
 72
45
 73
41
 74
0
 42
0.0000001
 43
0.0000001
 44
0.0000000001
 40
0.0
 40
0.0
 40
0.0
 40
0.0
 40
0.007813687
 40
0.0156297963
 40
0.0234456958
 40
0.0312630138
 40
0.0468793904
 40
0.0625026052
 40
0.0781276453
 40
0.093753287
 40
0.1093791441
 40
0.1250050983
 40
0.1562526166
 40
0.187501803
 40
0.2187516492
 40
0.2500018235
 40
0.2812521676
 40
0.3125026037
 40
0.3750008102
 40
0.4374999754
 40
0.4999997588
 40
0.5624997187
 40
0.6249990478
 40
0.6874973374
 40
0.7187477901
 40
0.7499981429
 40
0.7812483229
 40
0.8124981738
 40
0.8437473658
 40
0.8749948894
 40
0.8906208489
 40
0.9062467115
 40
0.9218723586
 40
0.9374974019
 40
0.9531206233
 40
0.9687370117
 40
0.9765543261
 40
0.9843702177
 40
0.9921863125
 40
1.0
 40
1.0
 40
1.0
 40
1.0
 10
13.6093251744
 20
2.9157553957
 30
0.0
 10
13.6093251744
 20
2.9080230094
 30
0.0
 10
13.607633904
 20
2.8925084238
 30
0.0
 10
13.6004450352
 20
2.8703090964
 30
0.0
 10
13.5895471984
 20
2.8497122545
 30
0.0
 10
13.5713533995
 20
2.8246114802
 30
0.0
 10
13.5436283441
 20
2.7973346851
 30
0.0
 10
13.5061787284
 20
2.7698280207
 30
0.0
 10
13.4661798366
 20
2.7462203524
 30
0.0
 10
13.4245610865
 20
2.7256613975
 30
0.0
 10
13.381835497
 20
2.7075379855
 30
0.0
 10
13.3238209838
 20
2.6860508964
 30
0.0
 10
13.2498496871
 20
2.6633638271
 30
0.0
 10
13.1597586602
 20
2.6410926956
 30
0.0
 10
13.0688016098
 20
2.6227045476
 30
0.0
 10
12.9772706923
 20
2.6074724353
 30
0.0
 10
12.8853425525
 20
2.5948803371
 30
0.0
 10
12.7624030322
 20
2.5811117819
 30
0.0
 10
12.6082267883
 20
2.5688300018
 30
0.0
 10
12.4228387781
 20
2.5604843048
 30
0.0
 10
12.2372834412
 20
2.5577824933
 30
0.0
 10
12.0517279293
 20
2.5604840065
 30
0.0
 10
11.8663395225
 20
2.5688301651
 30
0.0
 10
11.7121629984
 20
2.5811116817
 30
0.0
 10
11.5892233764
 20
2.5948803077
 30
0.0
 10
11.4972952076
 20
2.6074724168
 30
0.0
 10
11.4057642717
 20
2.6227045338
 30
0.0
 10
11.3148072036
 20
2.6410926721
 30
0.0
 10
11.224716158
 20
2.6633637961
 30
0.0
 10
11.1507448547
 20
2.6860508967
 30
0.0
 10
11.0927303196
 20
2.7075379719
 30
0.0
 10
11.0500047145
 20
2.7256613886
 30
0.0
 10
11.0083859539
 20
2.7462203539
 30
0.0
 10
10.9683870515
 20
2.7698280344
 30
0.0
 10
10.9309374202
 20
2.7973347115
 30
0.0
 10
10.9032123508
 20
2.8246115185
 30
0.0
 10
10.8850185828
 20
2.8497123137
 30
0.0
 10
10.8741207425
 20
2.8703091248
 30
0.0
 10
10.8669319008
 20
2.8925084385
 30
0.0
 10
10.8652406276
 20
2.9080230089
 30
0.0
 10
10.8652406276
 20
2.9157553957
 30
0.0
  0
SPLINE
  5
2B1
100
AcDbEntity
  8
0
100
AcDbSpline
 62
7
  6
BYLAYER
 70
0
 71
3
 72
14
 73
10
 74
0
 42
0.0000001
 43
0.0000001
 44
0.0000000001
 40
0.0
 40
0.0
 40
0.0
 40
0.0
 40
0.1083808799
 40
0.219740687
 40
0.335946348
 40
0.4583747303
 40
0.7206012157
 40
0.8593346052
 40
1.0
 40
1.0
 40
1.0
 40
1.0
 10
14.037282901
 20
23.3854167346
 30
0.0
 10
14.0372829445
 20
23.4004802969
 30
0.0
 10
14.0413008266
 20
23.4311522955
 30
0.0
 10
14.0588128982
 20
23.4749068974
 30
0.0
 10
14.0871219286
 20
23.514980073
 30
0.0
 10
14.1385747029
 20
23.5624643018
 30
0.0
 10
14.2053530144
 20
23.5954884389
 30
0.0
 10
14.2788761472
 20
23.6123549632
 30
0.0
 10
14.3177924861
 20
23.6152954295
 30
0.0
 10
14.3373431848
 20
23.615293521
 30
0.0
  0
SPLINE
  5
2B2
100
AcDbEntity
  8
0
100
AcDbSpline
 62
7
  6
BYLAYER
 70
0
 71
3
 72
20
 73
16
 74
0
 42
0.0000001
 43
0.0000001
 44
0.0000000001
 40
0.0
 40
0.0
 40
0.0
 40
0.0
 40
0.0086973514
 40
0.0153287268
 40
0.023826732
 40
0.046755292
 40
0.0778097473
 40
0.1170144438
 40
0.1641964635
 40
0.2191018104
 40
0.2814598305
 40
0.4272605337
 40
0.5982368025
 40
0.7905699817
 40
1.0
 40
1.0
 40
1.0
 40
1.0
 10
13.0037794797
 20
4.9157553957
 30
0.0
 10
13.003207762
 20
4.9157553957
 30
0.0
 10
13.0022986658
 20
4.916489713
 30
0.0
 10
13.0014748363
 20
4.9177822307
 30
0.0
 10
13.0003802496
 20
4.9200552231
 30
0.0
 10
12.9991355634
 20
4.9239719486
 30
0.0
 10
12.9977258044
 20
4.9299387147
 30
0.0
 10
12.996351224
 20
4.9375370947
 30
0.0
 10
12.9950051647
 20
4.9467281598
 30
0.0
 10
12.993703999
 20
4.9574601318
 30
0.0
 10
12.9919460404
 20
4.9746637603
 30
0.0
 10
12.9899859654
 20
4.999511851
 30
0.0
 10
12.9880152846
 20
5.0329213556
 30
0.0
 10
12.9863912382
 20
5.070536476
 30
0.0
 10
12.9855876626
 20
5.0969347023
 30
0.0
 10
12.9852422269
 20
5.110697184
 30
0.0
  0
SPLINE
  5
2B3
100
AcDbEntity
  8
0
100
AcDbSpline
 62
7
  6
BYLAYER
 70
0
 71
3
 72
20
 73
16
 74
0
 42
0.0000001
 43
0.0000001
 44
0.0000000001
 40
0.0
 40
0.0
 40
0.0
 40
0.0
 40
0.0086977066
 40
0.0153293065
 40
0.023827496
 40
0.046756254
 40
0.0778106796
 40
0.1170151592
 40
0.1641969162
 40
0.2191020549
 40
0.2814599624
 40
0.4272607271
 40
0.5982371361
 40
0.7905703134
 40
1.0
 40
1.0
 40
1.0
 40
1.0
 10
11.4707863222
 20
4.9157553957
 30
0.0
 10
11.4713580652
 20
4.9157553957
 30
0.0
 10
11.4722672063
 20
4.916489708
 30
0.0
 10
11.4730911471
 20
4.9177822216
 30
0.0
 10
11.4741858662
 20
4.920055205
 30
0.0
 10
11.4754306852
 20
4.9239719334
 30
0.0
 10
11.4768404289
 20
4.9299387255
 30
0.0
 10
11.4782147129
 20
4.9375371547
 30
0.0
 10
11.4795603393
 20
4.9467282687
 30
0.0
 10
11.4808611084
 20
4.9574602861
 30
0.0
 10
11.4826187923
 20
4.9746639819
 30
0.0
 10
11.4845796683
 20
4.999512089
 30
0.0
 10
11.4865522699
 20
5.0329216065
 30
0.0
 10
11.4881786127
 20
5.0705367446
 30
0.0
 10
11.4889828832
 20
5.096935025
 30
0.0
 10
11.4893282008
 20
5.1106975347
 30
0.0
  0
SPLINE
  5
2B4
100
AcDbEntity
  8
0
100
AcDbSpline
 62
7
  6
BYLAYER
 70
0
 71
3
 72
11
 73
7
 74
0
 42
0.0000001
 43
0.0000001
 44
0.0000000001
 40
0.0
 40
0.0
 40
0.0
 40
0.0
 40
0.2538109799
 40
0.5049465333
 40
0.7533326041
 40
1.0
 40
1.0
 40
1.0
 40
1.0
 10
18.2085159114
 20
23.6984662569
 30
0.0
 10
18.2000096713
 20
23.7292612827
 30
0.0
 10
18.1732599993
 20
23.7882932625
 30
0.0
 10
18.1079272394
 20
23.8592078016
 30
0.0
 10
18.0241091465
 20
23.9051544383
 30
0.0
 10
17.9613053872
 20
23.9157553953
 30
0.0
 10
17.9302563443
 20
23.9157553952
 30
0.0
  0
SPLINE
  5
2B5
100
AcDbEntity
  8
0
100
AcDbSpline
 62
7
  6
BYLAYER
 70
0
 71
3
 72
15
 73
11
 74
0
 42
0.0000001
 43
0.0000001
 44
0.0000000001
 40
0.0
 40
0.0
 40
0.0
 40
0.0
 40
0.1176795131
 40
0.2430578497
 40
0.373963499
 40
0.5071734884
 40
0.6393304253
 40
0.7672369508
 40
0.8880071814
 40
1.0
 40
1.0
 40
1.0
 40
1.0
 10
17.3477880372
 20
23.8593041727
 30
0.0
 10
17.3617945013
 20
23.8554745111
 30
0.0
 10
17.3902318743
 20
23.8456725839
 30
0.0
 10
17.431843349
 20
23.8254811451
 30
0.0
 10
17.4723021222
 20
23.7993275794
 30
0.0
 10
17.5100768169
 20
23.7680934955
 30
0.0
 10
17.543450147
 20
23.732698578
 30
0.0
 10
17.5714067581
 20
23.6947725316
 30
0.0
 10
17.5930136527
 20
23.6557290065
 30
0.0
 10
17.6035584961
 20
23.628902818
 30
0.0
 10
17.6076639675
 20
23.6157078562
 30
0.0
  0
SPLINE
  5
2B6
100
AcDbEntity
  8
0
100
AcDbSpline
 62
7
  6
BYLAYER
 70
0
 71
3
 72
14
 73
10
 74
0
 42
0.0000001
 43
0.0000001
 44
0.0000000001
 40
0.0
 40
0.0
 40
0.0
 40
0.0
 40
0.2656190098
 40
0.3957943933
 40
0.5227786193
 40
0.6462798857
 40
0.7664090532
 40
0.8838994625
 40
1.0
 40
1.0
 40
1.0
 40
1.0
 10
17.6076676341
 20
23.615707955
 30
0.0
 10
17.6076703576
 20
23.6545938752
 30
0.0
 10
17.5977741213
 20
23.7132298167
 30
0.0
 10
17.5655608681
 20
23.7829840693
 30
0.0
 10
17.5331791038
 20
23.8287700894
 30
0.0
 10
17.4936150265
 20
23.8664176909
 30
0.0
 10
17.4483494965
 20
23.8944951972
 30
0.0
 10
17.3991289243
 20
23.9118409344
 30
0.0
 10
17.3648080599
 20
23.9157553957
 30
0.0
 10
17.3478112484
 20
23.9157553957
 30
0.0
  0
SPLINE
  5
2B7
100
AcDbEntity
  8
0
100
AcDbSpline
 62
7
  6
BYLAYER
 70
0
 71
3
 72
11
 73
7
 74
0
 42
0.0000001
 43
0.0000001
 44
0.0000000001
 40
0.0
 40
0.0
 40
0.0
 40
0.0
 40
0.2643916728
 40
0.5281539327
 40
0.7768380641
 40
1.0
 40
1.0
 40
1.0
 40
1.0
 10
15.9886721199
 20
21.8284250641
 30
0.0
 10
16.0071204222
 20
21.8196951656
 30
0.0
 10
16.0432398099
 20
21.8006784889
 30
0.0
 10
16.094125556
 20
21.76883858
 30
0.0
 10
16.139716237
 20
21.7348872454
 30
0.0
 10
16.1670938822
 20
21.7107760506
 30
0.0
 10
16.1794167252
 20
21.6987380829
 30
0.0
  0
SPLINE
  5
2B8
100
AcDbEntity
  8
0
100
AcDbSpline
 62
7
  6
BYLAYER
 70
0
 71
3
 72
11
 73
7
 74
0
 42
0.0000001
 43
0.0000001
 44
0.0000000001
 40
0.0
 40
0.0
 40
0.0
 40
0.0
 40
0.2540622193
 40
0.5049986232
 40
0.7534617933
 40
1.0
 40
1.0
 40
1.0
 40
1.0
 10
14.444062562
 20
19.6965110849
 30
0.0
 10
14.6240209563
 20
19.8325600887
 30
0.0
 10
14.9637812913
 20
20.1272781912
 30
0.0
 10
15.4188402687
 20
20.6190752106
 30
0.0
 10
15.8236714583
 20
21.144262934
 30
0.0
 10
16.0652198084
 20
21.5119696226
 30
0.0
 10
16.1794202149
 20
21.6987390045
 30
0.0
  0
SPLINE
  5
2B9
100
AcDbEntity
  8
0
100
AcDbSpline
 62
7
  6
BYLAYER
 70
0
 71
3
 72
9
 73
5
 74
0
 42
0.0000001
 43
0.0000001
 44
0.0000000001
 40
0.0
 40
0.0
 40
0.0
 40
0.0
 40
0.5079162401
 40
1.0
 40
1.0
 40
1.0
 40
1.0
 10
14.4440636836
 20
19.6965110863
 30
0.0
 10
14.427836858
 20
19.7198968948
 30
0.0
 10
14.3938011929
 20
19.7645019048
 30
0.0
 10
14.3565556321
 20
19.8064692648
 30
0.0
 10
14.3372828989
 20
19.8261934717
 30
0.0
  0
SPLINE
  5
2BA
100
AcDbEntity
  8
0
100
AcDbSpline
 62
7
  6
BYLAYER
 70
0
 71
3
 72
18
 73
14
 74
0
 42
0.0000001
 43
0.0000001
 44
0.0000000001
 40
0.0
 40
0.0
 40
0.0
 40
0.0
 40
0.1669407405
 40
0.3290063986
 40
0.4808077469
 40
0.6183555621
 40
0.7386412015
 40
0.79184948
 40
0.8404908554
 40
0.8848796951
 40
0.9256103284
 40
0.9635895087
 40
1.0
 40
1.0
 40
1.0
 40
1.0
 10
14.337282901
 20
19.8261932795
 30
0.0
 10
14.3177726004
 20
19.8261932795
 30
0.0
 10
14.2793013406
 20
19.8245688512
 30
0.0
 10
14.2234991981
 20
19.817390815
 30
0.0
 10
14.1719533374
 20
19.8057042549
 30
0.0
 10
14.1266307922
 20
19.7899674676
 30
0.0
 10
14.0940811431
 20
19.7733626144
 30
0.0
 10
14.0729160176
 20
19.7582504344
 30
0.0
 10
14.0601988296
 20
19.7467658261
 30
0.0
 10
14.0501086721
 20
19.7347474686
 30
0.0
 10
14.0427833912
 20
19.7222730891
 30
0.0
 10
14.0383073891
 20
19.7094886724
 30
0.0
 10
14.037282901
 20
19.7007663651
 30
0.0
 10
14.037282901
 20
19.6965110849
 30
0.0
  0
SPLINE
  5
2BB
100
AcDbEntity
  8
0
100
AcDbSpline
 62
7
  6
BYLAYER
 70
0
 71
3
 72
11
 73
7
 74
0
 42
0.0000001
 43
0.0000001
 44
0.0000000001
 40
0.0
 40
0.0
 40
0.0
 40
0.0
 40
0.253195293
 40
0.5038899176
 40
0.7526565036
 40
1.0
 40
1.0
 40
1.0
 40
1.0
 10
14.3372831323
 20
19.8261930427
 30
0.0
 10
14.509701408
 20
19.9631759268
 30
0.0
 10
14.8344150035
 20
20.259498713
 30
0.0
 10
15.2672489169
 20
20.7518271043
 30
0.0
 10
15.6518547852
 20
21.2761077885
 30
0.0
 10
15.880480011
 20
21.6424872047
 30
0.0
 10
15.9886693071
 20
21.8284223005
 30
0.0
  0
SPLINE
  5
2BC
100
AcDbEntity
  8
0
100
AcDbSpline
 62
7
  6
BYLAYER
 70
0
 71
3
 72
11
 73
7
 74
0
 42
0.0000001
 43
0.0000001
 44
0.0000000001
 40
0.0
 40
0.0
 40
0.0
 40
0.0
 40
0.276467193
 40
0.5379778958
 40
0.7807384861
 40
1.0
 40
1.0
 40
1.0
 40
1.0
 10
15.9886716353
 20
21.828421199
 30
0.0
 10
16.0971602963
 20
22.0259721367
 30
0.0
 10
16.3219279197
 20
22.402937234
 30
0.0
 10
16.673544572
 20
22.9336123469
 30
0.0
 10
17.0149954497
 20
23.4146576285
 30
0.0
 10
17.2398906241
 20
23.7168208134
 30
0.0
 10
17.3477970692
 20
23.8593200288
 30
0.0
  0
SPLINE
  5
2BD
100
AcDbEntity
  8
0
100
AcDbSpline
 62
7
  6
BYLAYER
 70
0
 71
3
 72
18
 73
14
 74
0
 42
0.0000001
 43
0.0000001
 44
0.0000000001
 40
0.0
 40
0.0
 40
0.0
 40
0.0
 40
0.0364104913
 40
0.0743896716
 40
0.1151203049
 40
0.1595091446
 40
0.20815052
 40
0.2613587985
 40
0.3816444379
 40
0.5191922531
 40
0.6709936014
 40
0.8330592595
 40
1.0
 40
1.0
 40
1.0
 40
1.0
 10
14.037282901
 20
21.6987390046
 30
0.0
 10
14.037282901
 20
21.7029942848
 30
0.0
 10
14.0383073891
 20
21.7117165921
 30
0.0
 10
14.0427833912
 20
21.7245010088
 30
0.0
 10
14.0501086721
 20
21.7369753883
 30
0.0
 10
14.0601988296
 20
21.7489937458
 30
0.0
 10
14.0729160176
 20
21.7604783541
 30
0.0
 10
14.0940811431
 20
21.7755905341
 30
0.0
 10
14.1266307922
 20
21.7921953873
 30
0.0
 10
14.1719533374
 20
21.8079321746
 30
0.0
 10
14.2234991981
 20
21.8196187347
 30
0.0
 10
14.2793013406
 20
21.8267967709
 30
0.0
 10
14.3177726004
 20
21.8284211992
 30
0.0
 10
14.337282901
 20
21.8284211992
 30
0.0
  0
ENDSEC
  0
SECTION
  2
OBJECTS
  0
DICTIONARY
  5
C
100
AcDbDictionary
280
0
281
1
  3
ACAD_GROUP
350
D
  3
ACAD_MLINESTYLE
350
17
  3
ACAD_LAYOUT
350
1A
  3
ACAD_PLOTSETTINGS
350
19
  3
ACAD_PLOTSTYLENAME
350
E
  0
DICTIONARY
  5
D
102
{ACAD_REACTORS
330
C
102
}
100
AcDbDictionary
280
0
281
1
  0
ACDBDICTIONARYWDFLT
  5
E
102
{ACAD_REACTORS
330
C
102
}
100
AcDbDictionary
281
1
  3
Normal
350
F
100
AcDbDictionaryWithDefault
340
F
  0
DICTIONARY
  5
17
102
{ACAD_REACTORS
330
C
102
}
100
AcDbDictionary
280
0
281
1
  3
Standard
350
18
  0
DICTIONARY
  5
19
102
{ACAD_REACTORS
330
C
102
}
100
AcDbDictionary
281
1
  0
DICTIONARY
  5
1A
102
{ACAD_REACTORS
330
C
102
}
100
AcDbDictionary
281
1
  3
Model
350
2BE
  3
Layout1
350
2BF
  0
ACDBPLACEHOLDER
  5
F
102
{ACAD_REACTORS
330
E
102
}
  0
MLINESTYLE
  5
18
102
{ACAD_REACTORS
330
17
102
}
100
AcDbMlineStyle
  2
STANDARD
 70
0
  3

 62
256
 51
90.0
 52
90.0
 71
2
 49
0.5
 62
256
  6
BYLAYER
 49
-0.5
 62
256
  6
BYLAYER
  0
LAYOUT
  5
2BE
102
{ACAD_REACTORS
330
1A
102
}
100
AcDbPlotSettings
  1

  2
none_device
  4

  6

 40
0.0
 41
0.0
 42
0.0
 43
0.0
 44
210.0
 45
297.0
 46
0.0
 47
0.0
 48
0.0
 49
0.0
140
0.0
141
0.0
142
1.0
143
1.0
 70
1024
 72
1
 73
0
 74
0
  7

 75
0
147
1.0
148
0.0
149
0.0
100
AcDbLayout
  1
Model
 70
0
 71
0
 10
0.0
 20
0.0
 11
210.0
 21
297.0
 12
0.0
 22
0.0
 32
0.0
 14
0.0
 24
0.0
 34
0.0
 15
0.0
 25
0.0
 35
0.0
146
0.0
 13
0.0
 23
0.0
 33
0.0
 16
1.0
 26
0.0
 36
0.0
 17
0.0
 27
1.0
 37
0.0
 76
0
330
210
345
0
346
0
  0
LAYOUT
  5
2BF
102
{ACAD_REACTORS
330
1A
102
}
100
AcDbPlotSettings
  1

  2
none_device
  4

  6

 40
0.0
 41
0.0
 42
0.0
 43
0.0
 44
210.0
 45
297.0
 46
0.0
 47
0.0
 48
0.0
 49
0.0
140
0.0
141
0.0
142
1.0
143
1.0
 70
0
 72
1
 73
0
 74
0
  7

 75
0
147
1.0
148
0.0
149
0.0
100
AcDbLayout
  1
Layout1
 70
0
 71
1
 10
0.0
 20
0.0
 11
210.0
 21
297.0
 12
0.0
 22
0.0
 32
0.0
 14
0.0
 24
0.0
 34
0.0
 15
0.0
 25
0.0
 35
0.0
146
0.0
 13
0.0
 23
0.0
 33
0.0
 16
1.0
 26
0.0
 36
0.0
 17
0.0
 27
1.0
 37
0.0
 76
0
330
211
345
0
346
0
  0
ENDSEC
  0
EOF
