999
DXF file: C:\Users\sesa63760\Dev\_Creo\CAD\MCADPP0003049_3D-CAD\drw0001_2.dxf
999
Pro/ENGINEER 2019471 by Parametric Technology Corporation
  0
SECTION
  2
HEADER
  9
$ACADVER
  1
AC1024
  9
$DWGCODEPAGE
  3
ANSI_1252
  9
$EXTMAX
 10
264.6757624758
 20
374.3271497872
 30
0.0
  9
$EXTMIN
 10
0.0
 20
0.0
 30
0.0
  9
$LIMMIN
 10
0.0
 20
0.0
  9
$LIMMAX
 10
264.6757624758
 20
374.3271497872
  9
$VIEWCTR
 10
132.3378812379
 20
187.1635748936
  9
$VIEWSIZE
 40
374.3271497872
  9
$CLAYER
  8
0
  9
$LTSCALE
 40
24.4005845787
  9
$CELTYPE
  6
BYLAYER
  9
$DIMSCALE
 40
1.0
  9
$DIMASZ
 40
3.1509019342
  9
$DIMEXO
 40
1.0
  9
$DIMDLI
 40
16.8585857089
  9
$DIMEXE
 40
1.0
  9
$DIMCEN
 40
3.9928229311
  9
$DIMLFAC
 40
1.0
  9
$DIMBLK
  1
_FILLED
  9
$DIMALT
 70
0
  9
$DIMALTF
 40
0.0393700787
  9
$DIMTXT
 40
4.4112627079
  9
$DIMTOL
 70
1
  9
$DIMLIM
 70
0
  9
$DIMTFAC
 40
1.0
  9
$DIMTP
 40
0.01
  9
$DIMTM
 40
0.01
  9
$DIMGAP
 40
0.625
  9
$DIMDSEP
 70
46
  9
$AUNITS
 70
0
  9
$PDMODE
 70
3
  9
$PDSIZE
 40
0.3125
  9
$HANDSEED
  5
382
  9
$TILEMODE
 70
1
  9
$MEASUREMENT
 70
1
  9
$INSUNITS
 70
4
  0
ENDSEC
  0
SECTION
  2
CLASSES
  0
CLASS
  1
ACDBDICTIONARYWDFLT
  2
AcDbDictionaryWithDefault
  3
AutoCAD 2000
 90
0
 91
1
280
0
281
0
  0
CLASS
  1
ACDBPLACEHOLDER
  2
AcDbPlaceHolder
  3
AutoCAD 2000
 90
0
 91
1
280
0
281
0
  0
CLASS
  1
LAYOUT
  2
AcDbLayout
  3
AutoCAD 2000
 90
0
 91
0
280
0
281
0
  0
ENDSEC
  0
SECTION
  2
TABLES
  0
TABLE
  2
VPORT
  5
8
100
AcDbSymbolTable
 70
2
  0
VPORT
  5
1F4
100
AcDbSymbolTableRecord
100
AcDbViewportTableRecord
  2
*ACTIVE
 70
0
 10
0.0
 20
0.0
 11
1.0
 21
1.0
 12
132.3378812379
 22
187.1635748936
 13
0.0
 23
0.0
 14
1.0
 24
1.0
 15
0.0
 25
0.0
 16
0.0
 26
0.0
 36
1.0
 17
0.0
 27
0.0
 37
0.0
 40
374.3271497872
 41
0.7070707071
 42
50.0
 43
0.0
 44
0.0
 50
0.0
 51
0.0
 71
0
 72
100
 73
1
 74
1
 75
0
 76
0
 77
0
 78
0
  0
ENDTAB
  0
TABLE
  2
LTYPE
  5
5
100
AcDbSymbolTable
 70
6
  0
LTYPE
  5
14
100
AcDbSymbolTableRecord
100
AcDbLinetypeTableRecord
  2
BYBLOCK
 70
0
  3

 72
65
 73
0
 40
0.0
  0
LTYPE
  5
15
100
AcDbSymbolTableRecord
100
AcDbLinetypeTableRecord
  2
BYLAYER
 70
0
  3

 72
65
 73
0
 40
0.0
  0
LTYPE
  5
16
100
AcDbSymbolTableRecord
100
AcDbLinetypeTableRecord
  2
CONTINUOUS
 70
64
  3
Solid line
 72
65
 73
0
 40
0.0
  0
LTYPE
  5
1F5
100
AcDbSymbolTableRecord
100
AcDbLinetypeTableRecord
  2
CENTER
 70
64
  3
____ _ ____ _ ____ _ ____ _ ____ _ ____ _ ____
 72
65
 73
4
 40
0.6
 49
0.375
 74
0
 49
-0.075
 74
0
 49
0.075
 74
0
 49
-0.075
 74
0
  0
LTYPE
  5
1F6
100
AcDbSymbolTableRecord
100
AcDbLinetypeTableRecord
  2
HIDDEN
 70
64
  3
- - - - - - - - - - - - - - - - - - - -
 72
65
 73
2
 40
0.2
 49
0.1
 74
0
 49
-0.1
 74
0
  0
LTYPE
  5
1F7
100
AcDbSymbolTableRecord
100
AcDbLinetypeTableRecord
  2
PHANTOM
 70
64
  3
_____ _ _ _____ _ _ _____ _ _ _____
 72
65
 73
6
 40
0.8
 49
0.45
 74
0
 49
-0.05
 74
0
 49
0.1
 74
0
 49
-0.05
 74
0
 49
0.1
 74
0
 49
-0.05
 74
0
  0
LTYPE
  5
1F8
100
AcDbSymbolTableRecord
100
AcDbLinetypeTableRecord
  2
DOT
 70
64
  3
. . . . . . . . . . . . . . . . . . . .
 72
65
 73
2
 40
0.2
 49
0.1
 74
0
 49
-0.1
 74
0
  0
LTYPE
  5
1F9
100
AcDbSymbolTableRecord
100
AcDbLinetypeTableRecord
  2
DASHED
 70
64
  3
- - - - - - - - - - - - - - - - - - - -
 72
65
 73
2
 40
0.2
 49
0.1
 74
0
 49
-0.1
 74
0
  0
ENDTAB
  0
TABLE
  2
LAYER
  5
2
100
AcDbSymbolTable
 70
36
  0
LAYER
  5
10
100
AcDbSymbolTableRecord
100
AcDbLayerTableRecord
  2
0
 70
0
 62
7
  6
CONTINUOUS
370
-3
390
F
  0
LAYER
  5
1FA
100
AcDbSymbolTableRecord
100
AcDbLayerTableRecord
  2
DEFAULT_1
 70
0
 62
7
  6
CENTER
370
-3
390
F
  0
LAYER
  5
1FB
100
AcDbSymbolTableRecord
100
AcDbLayerTableRecord
  2
DEFAULT_2
 70
0
 62
8
  6
HIDDEN
370
-3
390
F
  0
LAYER
  5
1FC
100
AcDbSymbolTableRecord
100
AcDbLayerTableRecord
  2
DEFAULT_3
 70
0
 62
7
  6
PHANTOM
370
-3
390
F
  0
LAYER
  5
1FD
100
AcDbSymbolTableRecord
100
AcDbLayerTableRecord
  2
00_COMPONENTS
 70
0
 62
7
  6
CONTINUOUS
370
-3
390
F
  0
LAYER
  5
1FE
100
AcDbSymbolTableRecord
100
AcDbLayerTableRecord
  2
01_1_DEFAULT_DATUMS
 70
0
 62
7
  6
CONTINUOUS
370
-3
390
F
  0
LAYER
  5
1FF
100
AcDbSymbolTableRecord
100
AcDbLayerTableRecord
  2
01_PLANES
 70
0
 62
7
  6
CONTINUOUS
370
-3
390
F
  0
LAYER
  5
200
100
AcDbSymbolTableRecord
100
AcDbLayerTableRecord
  2
02_COORD_SYS
 70
0
 62
7
  6
CONTINUOUS
370
-3
390
F
  0
LAYER
  5
201
100
AcDbSymbolTableRecord
100
AcDbLayerTableRecord
  2
03_AXES
 70
0
 62
7
  6
CONTINUOUS
370
-3
390
F
  0
LAYER
  5
202
100
AcDbSymbolTableRecord
100
AcDbLayerTableRecord
  2
04_POINTS
 70
0
 62
7
  6
CONTINUOUS
370
-3
390
F
  0
LAYER
  5
203
100
AcDbSymbolTableRecord
100
AcDbLayerTableRecord
  2
05_CURVES
 70
0
 62
7
  6
CONTINUOUS
370
-3
390
F
  0
LAYER
  5
204
100
AcDbSymbolTableRecord
100
AcDbLayerTableRecord
  2
06_SURFS
 70
0
 62
7
  6
CONTINUOUS
370
-3
390
F
  0
LAYER
  5
205
100
AcDbSymbolTableRecord
100
AcDbLayerTableRecord
  2
07_COSMETICS
 70
0
 62
7
  6
CONTINUOUS
370
-3
390
F
  0
LAYER
  5
206
100
AcDbSymbolTableRecord
100
AcDbLayerTableRecord
  2
10_NOTES
 70
0
 62
7
  6
CONTINUOUS
370
-3
390
F
  0
LAYER
  5
207
100
AcDbSymbolTableRecord
100
AcDbLayerTableRecord
  2
11_NOTES_PUB
 70
0
 62
7
  6
CONTINUOUS
370
-3
390
F
  0
LAYER
  5
208
100
AcDbSymbolTableRecord
100
AcDbLayerTableRecord
  2
13_REF_GTOL
 70
0
 62
7
  6
CONTINUOUS
370
-3
390
F
  0
LAYER
  5
209
100
AcDbSymbolTableRecord
100
AcDbLayerTableRecord
  2
16_MISC
 70
0
 62
7
  6
CONTINUOUS
370
-3
390
F
  0
LAYER
  5
20A
100
AcDbSymbolTableRecord
100
AcDbLayerTableRecord
  2
17_NO_PRINT
 70
0
 62
7
  6
CONTINUOUS
370
-3
390
F
  0
LAYER
  5
20B
100
AcDbSymbolTableRecord
100
AcDbLayerTableRecord
  2
18_DATUM_CAMS_JOINTS
 70
0
 62
7
  6
CONTINUOUS
370
-3
390
F
  0
LAYER
  5
20C
100
AcDbSymbolTableRecord
100
AcDbLayerTableRecord
  2
19_DATUM_FUNCTIONAL
 70
0
 62
7
  6
CONTINUOUS
370
-3
390
F
  0
LAYER
  5
20D
100
AcDbSymbolTableRecord
100
AcDbLayerTableRecord
  2
20_DATUM_KINEMATIC_SCHEME
 70
0
 62
7
  6
CONTINUOUS
370
-3
390
F
  0
ENDTAB
  0
TABLE
  2
STYLE
  5
3
100
AcDbSymbolTable
 70
1
  0
STYLE
  5
11
100
AcDbSymbolTableRecord
100
AcDbTextStyleTableRecord
  2
STANDARD
 70
0
 40
0.0
 41
0.8
 50
0.0
 71
0
 42
0.2
  3
txt
  4

  0
STYLE
  5
20E
100
AcDbSymbolTableRecord
100
AcDbTextStyleTableRecord
  2
TEXTSTYLE_1
 70
0
 40
0.0
 41
0.8
 50
0.0
 71
0
 42
0.2
  3
gdt
  4

  0
ENDTAB
  0
TABLE
  2
VIEW
  5
6
100
AcDbSymbolTable
 70
0
  0
ENDTAB
  0
TABLE
  2
UCS
  5
7
100
AcDbSymbolTable
 70
0
  0
ENDTAB
  0
TABLE
  2
APPID
  5
9
100
AcDbSymbolTable
 70
1
  0
APPID
  5
20F
100
AcDbSymbolTableRecord
100
AcDbRegAppTableRecord
  2
ACAD
 70
0
  0
ENDTAB
  0
TABLE
  2
BLOCK_RECORD
  5
1
100
AcDbSymbolTable
 70
0
  0
BLOCK_RECORD
  5
210
100
AcDbSymbolTableRecord
100
AcDbBlockTableRecord
  2
*Model_Space
  0
BLOCK_RECORD
  5
211
100
AcDbSymbolTableRecord
100
AcDbBlockTableRecord
  2
*Paper_Space
  0
BLOCK_RECORD
  5
212
100
AcDbSymbolTableRecord
100
AcDbBlockTableRecord
  2
_FILLED
  0
ENDTAB
  0
TABLE
  2
DIMSTYLE
  5
A
100
AcDbSymbolTable
 70
1
100
AcDbDimStyleTable
 71
0
  0
DIMSTYLE
105
213
100
AcDbSymbolTableRecord
100
AcDbDimStyleTableRecord
  2
STANDARD
 70
0
  3

  4

 40
1.0
 41
3.1509019342
 42
1.0
 43
0.38
 44
1.0
 45
0.0
 46
0.0
 47
0.01
 48
0.01
140
4.4112627079
141
0.09
142
0.0
143
25.4
144
1.0
145
0.0
146
1.0
147
0.625
 71
1
 72
0
 73
0
 74
0
 75
0
 76
0
 77
1
 78
8
 79
2
170
0
171
1
172
0
173
0
174
0
175
0
176
0
177
0
178
0
270
2
179
2
271
2
272
2
273
2
274
2
275
0
280
0
281
0
282
0
283
1
284
8
285
0
286
0
287
3
288
0
340
11
278
46
341
212
342
212
343
212
344
212
  0
ENDTAB
  0
ENDSEC
  0
SECTION
  2
BLOCKS
  0
BLOCK
  5
20
100
AcDbEntity
  8
0
100
AcDbBlockBegin
  2
*Model_Space
 70
0
 10
0.0
 20
0.0
 30
0.0
  3
*Model_Space
  1

  0
ENDBLK
  5
21
100
AcDbEntity
  8
0
100
AcDbBlockEnd
  0
BLOCK
  5
1C
100
AcDbEntity
  8
0
100
AcDbBlockBegin
  2
*Paper_Space
 70
0
 10
0.0
 20
0.0
 30
0.0
  3
*Paper_Space
  1

  0
ENDBLK
  5
1D
100
AcDbEntity
  8
0
100
AcDbBlockEnd
  0
BLOCK
  5
214
100
AcDbEntity
  8
0
100
AcDbBlockBegin
  2
_FILLED
 70
64
 10
0.0
 20
0.0
  3
_FILLED
  1

  0
SOLID
  5
215
100
AcDbEntity
  8
0
  6
BYBLOCK
 62
0
100
AcDbTrace
 10
0.0
 20
0.0
 11
-1.0
 21
0.25
 12
-1.0
 22
-0.25
 13
-1.0
 23
-0.25
  0
ENDBLK
  5
216
100
AcDbEntity
  8
0
  6
BYBLOCK
 62
0
100
AcDbBlockEnd
  0
ENDSEC
  0
SECTION
  2
ENTITIES
  0
LINE
  5
217
100
AcDbEntity
  8
0
100
AcDbLine
 62
7
  6
CONTINUOUS
 10
46.0706928102
 20
24.9704157447
 11
222.2704928102
 21
24.9704157447
  0
LINE
  5
218
100
AcDbEntity
  8
0
100
AcDbLine
 62
7
  6
CONTINUOUS
 10
46.0706928102
 20
26.1388157447
 11
222.2704928102
 21
26.1388157447
  0
LINE
  5
219
100
AcDbEntity
  8
0
100
AcDbLine
 62
7
  6
CONTINUOUS
 10
46.0706928102
 20
26.5452157447
 11
132.6465928102
 21
26.5452157447
  0
LINE
  5
21A
100
AcDbEntity
  8
0
100
AcDbLine
 62
7
  6
CONTINUOUS
 10
135.6945928102
 20
26.5452157447
 11
222.2704928102
 21
26.5452157447
  0
LINE
  5
21B
100
AcDbEntity
  8
0
100
AcDbLine
 62
7
  6
CONTINUOUS
 10
54.0087226271
 20
27.2919757447
 11
104.3401665958
 21
27.2919757447
  0
LINE
  5
21C
100
AcDbEntity
  8
0
100
AcDbLine
 62
7
  6
CONTINUOUS
 10
115.7505203658
 20
27.2919757447
 11
150.8025052545
 21
27.2919757447
  0
LINE
  5
21D
100
AcDbEntity
  8
0
100
AcDbLine
 62
7
  6
CONTINUOUS
 10
162.2127226271
 20
27.2919757447
 11
212.5441665958
 21
27.2919757447
  0
LINE
  5
21E
100
AcDbEntity
  8
0
100
AcDbLine
 62
7
  6
CONTINUOUS
 10
216.3726128102
 20
27.9269757447
 11
50.1804128102
 21
27.9269757447
  0
LINE
  5
21F
100
AcDbEntity
  8
0
100
AcDbLine
 62
7
  6
CONTINUOUS
 10
49.9264128102
 20
27.9269757447
 11
45.1766128102
 21
27.9269757447
  0
LINE
  5
220
100
AcDbEntity
  8
0
100
AcDbLine
 62
7
  6
CONTINUOUS
 10
216.6266128102
 20
27.9269757447
 11
221.3764128102
 21
27.9269757447
  0
LINE
  5
221
100
AcDbEntity
  8
0
100
AcDbLine
 62
7
  6
CONTINUOUS
 10
45.1766128102
 20
29.4458957447
 11
50.1804128102
 21
29.4458957447
  0
LINE
  5
222
100
AcDbEntity
  8
0
100
AcDbLine
 62
7
  6
CONTINUOUS
 10
216.3726128102
 20
29.4458957447
 11
221.3764128102
 21
29.4458957447
  0
LINE
  5
223
100
AcDbEntity
  8
0
100
AcDbLine
 62
7
  6
CONTINUOUS
 10
50.1804128102
 20
30.2396457447
 11
216.3726128102
 21
30.2396457447
  0
LINE
  5
224
100
AcDbEntity
  8
0
100
AcDbLine
 62
7
  6
CONTINUOUS
 10
231.3890928102
 20
35.6638157447
 11
231.7954928102
 21
35.6638157447
  0
LINE
  5
225
100
AcDbEntity
  8
0
100
AcDbLine
 62
7
  6
CONTINUOUS
 10
36.5456928102
 20
36.5578957447
 11
38.8583628102
 21
36.5578957447
  0
LINE
  5
226
100
AcDbEntity
  8
0
100
AcDbLine
 62
7
  6
CONTINUOUS
 10
227.6946628102
 20
36.5578957447
 11
230.0073328102
 21
36.5578957447
  0
LINE
  5
227
100
AcDbEntity
  8
0
100
AcDbLine
 62
7
  6
CONTINUOUS
 10
231.7954928102
 20
41.4795109532
 11
231.3890928102
 21
41.4795109532
  0
LINE
  5
228
100
AcDbEntity
  8
0
100
AcDbLine
 62
7
  6
CONTINUOUS
 10
230.4783629738
 20
45.8064093191
 11
231.4169108934
 21
45.8064091893
  0
LINE
  5
229
100
AcDbEntity
  8
0
100
AcDbLine
 62
7
  6
CONTINUOUS
 10
230.3488288336
 20
45.971322105
 11
231.44558157
 21
45.9713140486
  0
LINE
  5
22A
100
AcDbEntity
  8
0
100
AcDbLine
 62
7
  6
CONTINUOUS
 10
231.6913414153
 20
45.9839043719
 11
231.7954928102
 21
45.9839043719
  0
LINE
  5
22B
100
AcDbEntity
  8
0
100
AcDbLine
 62
7
  6
CONTINUOUS
 10
230.0073328102
 20
46.3273354501
 11
230.3553042745
 21
46.3273354501
  0
LINE
  5
22C
100
AcDbEntity
  8
0
100
AcDbLine
 62
7
  6
CONTINUOUS
 10
208.1468894189
 20
51.5547758418
 11
201.2769862208
 21
51.5547758728
  0
LINE
  5
22D
100
AcDbEntity
  8
0
100
AcDbLine
 62
7
  6
CONTINUOUS
 10
65.2718894266
 20
51.554775865
 11
58.4019862335
 21
51.5547758339
  0
LINE
  5
22E
100
AcDbEntity
  8
0
100
AcDbLine
 62
7
  6
CONTINUOUS
 10
165.8772514962
 20
65.9667166804
 11
100.6757741242
 21
65.9667166804
  0
LINE
  5
22F
100
AcDbEntity
  8
0
100
AcDbLine
 62
7
  6
CONTINUOUS
 10
100.6757741242
 20
67.4907166803
 11
165.8772514961
 21
67.4907166803
  0
LINE
  5
230
100
AcDbEntity
  8
0
100
AcDbLine
 62
7
  6
CONTINUOUS
 10
84.5948912917
 20
315.2758727769
 11
50.5206299777
 21
256.2575209506
  0
LINE
  5
231
100
AcDbEntity
  8
0
100
AcDbLine
 62
7
  6
CONTINUOUS
 10
85.914714007
 20
314.5138727768
 11
51.8404526932
 21
255.4955209516
  0
LINE
  5
232
100
AcDbEntity
  8
0
100
AcDbLine
 62
7
  6
CONTINUOUS
 10
165.8772514951
 20
74.6566753144
 11
100.6757741255
 21
74.6566753143
  0
LINE
  5
233
100
AcDbEntity
  8
0
100
AcDbLine
 62
7
  6
CONTINUOUS
 10
100.6757741242
 20
75.4186753139
 11
165.8772514962
 21
75.4186753139
  0
LINE
  5
234
100
AcDbEntity
  8
0
100
AcDbLine
 62
7
  6
CONTINUOUS
 10
231.4643668274
 20
43.1600265722
 11
230.0073328102
 21
43.5776174141
  0
LINE
  5
235
100
AcDbEntity
  8
0
100
AcDbLine
 62
7
  6
CONTINUOUS
 10
35.3772928102
 20
335.6886157447
 11
35.3772928102
 21
35.6638157447
  0
LINE
  5
236
100
AcDbEntity
  8
0
100
AcDbLine
 62
7
  6
CONTINUOUS
 10
36.5456928102
 20
36.5578957447
 11
36.5456928102
 21
336.5826957447
  0
LINE
  5
237
100
AcDbEntity
  8
0
100
AcDbLine
 62
7
  6
CONTINUOUS
 10
38.8583628102
 20
336.5826957447
 11
38.8583628102
 21
36.5578957447
  0
LINE
  5
238
100
AcDbEntity
  8
0
100
AcDbLine
 62
7
  6
CONTINUOUS
 10
46.0706928102
 20
26.5452157447
 11
46.0706928102
 21
26.1388157447
  0
LINE
  5
239
100
AcDbEntity
  8
0
100
AcDbLine
 62
7
  6
CONTINUOUS
 10
58.0463549127
 20
251.9125416341
 11
92.1206162259
 21
310.9308934587
  0
LINE
  5
23A
100
AcDbEntity
  8
0
100
AcDbLine
 62
7
  6
CONTINUOUS
 10
58.7062662699
 20
251.5315416338
 11
92.7805275839
 21
310.5498934601
  0
LINE
  5
23B
100
AcDbEntity
  8
0
100
AcDbLine
 62
7
  6
CONTINUOUS
 10
181.9581343287
 20
315.2758727768
 11
173.7724980365
 21
310.5498934601
  0
LINE
  5
23C
100
AcDbEntity
  8
0
100
AcDbLine
 62
7
  6
CONTINUOUS
 10
149.8377393314
 20
93.6519661755
 11
116.7152862897
 21
93.6519661755
  0
LINE
  5
23D
100
AcDbEntity
  8
0
100
AcDbLine
 62
7
  6
CONTINUOUS
 10
116.715286291
 20
94.4139661749
 11
149.8377393276
 21
94.4139661732
  0
LINE
  5
23E
100
AcDbEntity
  8
0
100
AcDbLine
 62
7
  6
CONTINUOUS
 10
50.5206299776
 20
134.2693705389
 11
84.5948912918
 21
75.2510187124
  0
LINE
  5
23F
100
AcDbEntity
  8
0
100
AcDbLine
 62
7
  6
CONTINUOUS
 10
51.8404526932
 20
135.0313705382
 11
85.914714007
 21
76.0130187125
  0
LINE
  5
240
100
AcDbEntity
  8
0
100
AcDbLine
 62
7
  6
CONTINUOUS
 10
92.1206162261
 20
79.5959980305
 11
58.0463549127
 21
138.6143498551
  0
LINE
  5
241
100
AcDbEntity
  8
0
100
AcDbLine
 62
7
  6
CONTINUOUS
 10
92.7805275839
 20
79.9769980293
 11
58.7062662699
 21
138.9953498556
  0
LINE
  5
242
100
AcDbEntity
  8
0
100
AcDbLine
 62
7
  6
CONTINUOUS
 10
48.0329087459
 20
143.553672571
 11
48.0329087459
 21
246.9732189184
  0
LINE
  5
243
100
AcDbEntity
  8
0
100
AcDbLine
 62
7
  6
CONTINUOUS
 10
49.5569087457
 20
246.9732189178
 11
49.5569087455
 21
143.5536725719
  0
LINE
  5
244
100
AcDbEntity
  8
0
100
AcDbLine
 62
7
  6
CONTINUOUS
 10
49.9264128102
 20
345.2136157447
 11
49.9264128102
 21
343.6946957447
  0
LINE
  5
245
100
AcDbEntity
  8
0
100
AcDbLine
 62
7
  6
CONTINUOUS
 10
49.9264128102
 20
27.9269757447
 11
49.9264128102
 21
29.4458957447
  0
LINE
  5
246
100
AcDbEntity
  8
0
100
AcDbLine
 62
7
  6
CONTINUOUS
 10
50.1804128102
 20
345.2136157447
 11
50.1804128102
 21
342.9009457447
  0
LINE
  5
247
100
AcDbEntity
  8
0
100
AcDbLine
 62
7
  6
CONTINUOUS
 10
50.1804128102
 20
30.2396457447
 11
50.1804128102
 21
27.9269757447
  0
LINE
  5
248
100
AcDbEntity
  8
0
100
AcDbLine
 62
7
  6
CONTINUOUS
 10
54.0086894873
 20
345.8486157447
 11
54.0086894873
 21
345.2136157447
  0
LINE
  5
249
100
AcDbEntity
  8
0
100
AcDbLine
 62
7
  6
CONTINUOUS
 10
54.0086894873
 20
27.9269757447
 11
54.0086894873
 21
27.2919757447
  0
LINE
  5
24A
100
AcDbEntity
  8
0
100
AcDbLine
 62
7
  6
CONTINUOUS
 10
56.1621128102
 20
345.8486157447
 11
56.1621128102
 21
345.2136157447
  0
LINE
  5
24B
100
AcDbEntity
  8
0
100
AcDbLine
 62
7
  6
CONTINUOUS
 10
56.1621128102
 20
27.9269757447
 11
56.1621128102
 21
27.2919757447
  0
LINE
  5
24C
100
AcDbEntity
  8
0
100
AcDbLine
 62
7
  6
CONTINUOUS
 10
56.7228673797
 20
143.5536725715
 11
56.7228673796
 21
246.9732189177
  0
LINE
  5
24D
100
AcDbEntity
  8
0
100
AcDbLine
 62
7
  6
CONTINUOUS
 10
57.4848673794
 20
246.9732189184
 11
57.4848673794
 21
143.5536725709
  0
LINE
  5
24E
100
AcDbEntity
  8
0
100
AcDbLine
 62
7
  6
CONTINUOUS
 10
149.8377393284
 20
101.5799248094
 11
116.7152862913
 21
101.5799248092
  0
LINE
  5
24F
100
AcDbEntity
  8
0
100
AcDbLine
 62
7
  6
CONTINUOUS
 10
116.7152862904
 20
103.103924809
 11
149.8377393302
 21
103.103924809
  0
LINE
  5
250
100
AcDbEntity
  8
0
100
AcDbLine
 62
7
  6
CONTINUOUS
 10
62.0947273991
 20
345.8486157447
 11
62.0947273991
 21
345.2136157447
  0
LINE
  5
251
100
AcDbEntity
  8
0
100
AcDbLine
 62
7
  6
CONTINUOUS
 10
62.0947273991
 20
27.9269757447
 11
62.0947273991
 21
27.2919757447
  0
LINE
  5
252
100
AcDbEntity
  8
0
100
AcDbLine
 62
7
  6
CONTINUOUS
 10
63.7032885424
 20
27.2919757447
 11
63.7032885424
 21
27.9269757447
  0
LINE
  5
253
100
AcDbEntity
  8
0
100
AcDbLine
 62
7
  6
CONTINUOUS
 10
63.7032885424
 20
345.2136157447
 11
63.7032885424
 21
345.8486157447
  0
LINE
  5
254
100
AcDbEntity
  8
0
100
AcDbLine
 62
7
  6
CONTINUOUS
 10
149.8377393299
 20
121.5292166804
 11
116.7152862902
 21
121.5292166804
  0
LINE
  5
255
100
AcDbEntity
  8
0
100
AcDbLine
 62
7
  6
CONTINUOUS
 10
116.715286292
 20
123.0532166799
 11
149.8377393291
 21
123.0532166802
  0
LINE
  5
256
100
AcDbEntity
  8
0
100
AcDbLine
 62
7
  6
CONTINUOUS
 10
173.7724980364
 20
79.9769980293
 11
181.9581343287
 21
75.2510187125
  0
LINE
  5
257
100
AcDbEntity
  8
0
100
AcDbLine
 62
7
  6
CONTINUOUS
 10
74.9123928102
 20
347.7282157447
 11
74.9123928102
 21
346.3820157447
  0
LINE
  5
258
100
AcDbEntity
  8
0
100
AcDbLine
 62
7
  6
CONTINUOUS
 10
76.7932628102
 20
345.8486157447
 11
76.7932628102
 21
345.2136157447
  0
LINE
  5
259
100
AcDbEntity
  8
0
100
AcDbLine
 62
7
  6
CONTINUOUS
 10
76.7932628102
 20
27.9269757447
 11
76.7932628102
 21
27.2919757447
  0
LINE
  5
25A
100
AcDbEntity
  8
0
100
AcDbLine
 62
7
  6
CONTINUOUS
 10
79.1287928102
 20
347.7282157447
 11
79.1287928102
 21
346.3820157447
  0
LINE
  5
25B
100
AcDbEntity
  8
0
100
AcDbLine
 62
7
  6
CONTINUOUS
 10
81.5557628102
 20
345.8486157447
 11
81.5557628102
 21
345.2136157447
  0
LINE
  5
25C
100
AcDbEntity
  8
0
100
AcDbLine
 62
7
  6
CONTINUOUS
 10
81.5557628102
 20
27.9269757447
 11
81.5557628102
 21
27.2919757447
  0
LINE
  5
25D
100
AcDbEntity
  8
0
100
AcDbLine
 62
7
  6
CONTINUOUS
 10
149.8377393293
 20
130.2191753144
 11
116.7152862927
 21
130.2191753162
  0
LINE
  5
25E
100
AcDbEntity
  8
0
100
AcDbLine
 62
7
  6
CONTINUOUS
 10
116.715286289
 20
130.9811753138
 11
149.8377393306
 21
130.9811753139
  0
LINE
  5
25F
100
AcDbEntity
  8
0
100
AcDbLine
 62
7
  6
CONTINUOUS
 10
230.276358473
 20
44.2656199402
 11
231.4643698666
 21
43.3862191166
  0
LINE
  5
260
100
AcDbEntity
  8
0
100
AcDbLine
 62
7
  6
CONTINUOUS
 10
94.6457370779
 20
345.8486157447
 11
94.6457370779
 21
345.2136157447
  0
LINE
  5
261
100
AcDbEntity
  8
0
100
AcDbLine
 62
7
  6
CONTINUOUS
 10
94.6457370779
 20
27.9269757447
 11
94.6457370779
 21
27.2919757447
  0
LINE
  5
262
100
AcDbEntity
  8
0
100
AcDbLine
 62
7
  6
CONTINUOUS
 10
96.2542982212
 20
27.2919757447
 11
96.2542982212
 21
27.9269757447
  0
LINE
  5
263
100
AcDbEntity
  8
0
100
AcDbLine
 62
7
  6
CONTINUOUS
 10
96.2542982212
 20
345.2136157447
 11
96.2542982212
 21
345.8486157447
  0
LINE
  5
264
100
AcDbEntity
  8
0
100
AcDbLine
 62
7
  6
CONTINUOUS
 10
48.0329087459
 20
143.553672571
 11
57.4848673794
 21
143.553672571
  0
LINE
  5
265
100
AcDbEntity
  8
0
100
AcDbLine
 62
7
  6
CONTINUOUS
 10
209.0681582409
 20
143.553672571
 11
218.5201168745
 21
143.553672571
  0
LINE
  5
266
100
AcDbEntity
  8
0
100
AcDbLine
 62
7
  6
CONTINUOUS
 10
100.6757741242
 20
324.560174809
 11
100.6757741242
 21
315.1082161754
  0
LINE
  5
267
100
AcDbEntity
  8
0
100
AcDbLine
 62
7
  6
CONTINUOUS
 10
100.6757741242
 20
75.4186753139
 11
100.6757741242
 21
65.9667166804
  0
LINE
  5
268
100
AcDbEntity
  8
0
100
AcDbLine
 62
7
  6
CONTINUOUS
 10
102.1869128102
 20
345.8486157447
 11
102.1869128102
 21
345.2136157447
  0
LINE
  5
269
100
AcDbEntity
  8
0
100
AcDbLine
 62
7
  6
CONTINUOUS
 10
102.1869128102
 20
27.9269757447
 11
102.1869128102
 21
27.2919757447
  0
LINE
  5
26A
100
AcDbEntity
  8
0
100
AcDbLine
 62
7
  6
CONTINUOUS
 10
104.278528405
 20
80.1046599935
 11
104.2785284532
 21
83.5657871308
  0
LINE
  5
26B
100
AcDbEntity
  8
0
100
AcDbLine
 62
7
  6
CONTINUOUS
 10
104.2785294023
 20
151.7326595782
 11
104.2785294505
 21
155.1937875379
  0
LINE
  5
26C
100
AcDbEntity
  8
0
100
AcDbLine
 62
7
  6
CONTINUOUS
 10
104.3403361331
 20
345.8486157447
 11
104.3403361331
 21
345.2136157447
  0
LINE
  5
26D
100
AcDbEntity
  8
0
100
AcDbLine
 62
7
  6
CONTINUOUS
 10
104.3403361331
 20
27.9269757447
 11
104.3403361331
 21
27.2919757447
  0
LINE
  5
26E
100
AcDbEntity
  8
0
100
AcDbLine
 62
7
  6
CONTINUOUS
 10
104.8532675982
 20
79.9966290314
 11
104.8532675982
 21
83.6814172466
  0
LINE
  5
26F
100
AcDbEntity
  8
0
100
AcDbLine
 62
7
  6
CONTINUOUS
 10
104.8532675982
 20
151.6246290314
 11
104.8532675982
 21
155.3094172466
  0
LINE
  5
270
100
AcDbEntity
  8
0
100
AcDbLine
 62
7
  6
CONTINUOUS
 10
106.4337928102
 20
153.8814265526
 11
106.4337928102
 21
153.0512978695
  0
LINE
  5
271
100
AcDbEntity
  8
0
100
AcDbLine
 62
7
  6
CONTINUOUS
 10
106.4337928102
 20
82.2534265526
 11
106.4337928102
 21
81.4232978695
  0
LINE
  5
272
100
AcDbEntity
  8
0
100
AcDbLine
 62
7
  6
CONTINUOUS
 10
110.643158241
 20
187.7228207437
 11
110.643158241
 21
214.7103207451
  0
LINE
  5
273
100
AcDbEntity
  8
0
100
AcDbLine
 62
7
  6
CONTINUOUS
 10
111.4051582405
 20
214.7103207439
 11
111.4051582391
 21
187.7228207467
  0
LINE
  5
274
100
AcDbEntity
  8
0
100
AcDbLine
 62
7
  6
CONTINUOUS
 10
115.7505128102
 20
27.2919757447
 11
115.7505128102
 21
27.9269757447
  0
LINE
  5
275
100
AcDbEntity
  8
0
100
AcDbLine
 62
7
  6
CONTINUOUS
 10
115.7505128102
 20
345.2136157447
 11
115.7505128102
 21
345.8486157447
  0
LINE
  5
276
100
AcDbEntity
  8
0
100
AcDbLine
 62
7
  6
CONTINUOUS
 10
116.7152862901
 20
130.9811753139
 11
116.7152862901
 21
121.5292166804
  0
LINE
  5
277
100
AcDbEntity
  8
0
100
AcDbLine
 62
7
  6
CONTINUOUS
 10
116.7152862901
 20
103.103924809
 11
116.7152862901
 21
93.6519661754
  0
LINE
  5
278
100
AcDbEntity
  8
0
100
AcDbLine
 62
7
  6
CONTINUOUS
 10
118.5711168748
 20
187.7228207461
 11
118.5711168746
 21
214.7103207438
  0
LINE
  5
279
100
AcDbEntity
  8
0
100
AcDbLine
 62
7
  6
CONTINUOUS
 10
120.0951168745
 20
214.7103207447
 11
120.0951168745
 21
187.7228207447
  0
LINE
  5
27A
100
AcDbEntity
  8
0
100
AcDbLine
 62
7
  6
CONTINUOUS
 10
207.8467593505
 20
251.5315416338
 11
216.0323956427
 21
256.2575209506
  0
LINE
  5
27B
100
AcDbEntity
  8
0
100
AcDbLine
 62
7
  6
CONTINUOUS
 10
137.2452628112
 20
169.0582161755
 11
129.3077628097
 21
169.0582161755
  0
LINE
  5
27C
100
AcDbEntity
  8
0
100
AcDbLine
 62
7
  6
CONTINUOUS
 10
129.3077628109
 20
169.820216175
 11
137.2452628081
 21
169.8202161736
  0
LINE
  5
27D
100
AcDbEntity
  8
0
100
AcDbLine
 62
7
  6
CONTINUOUS
 10
129.3077628102
 20
233.3749253139
 11
129.3077628102
 21
223.9229666804
  0
LINE
  5
27E
100
AcDbEntity
  8
0
100
AcDbLine
 62
7
  6
CONTINUOUS
 10
129.3077628102
 20
178.510174809
 11
129.3077628102
 21
169.0582161754
  0
LINE
  5
27F
100
AcDbEntity
  8
0
100
AcDbLine
 62
7
  6
CONTINUOUS
 10
131.6262440118
 20
345.8486157447
 11
131.6262440118
 21
345.2136157447
  0
LINE
  5
280
100
AcDbEntity
  8
0
100
AcDbLine
 62
7
  6
CONTINUOUS
 10
131.6262440118
 20
27.2919757447
 11
131.6262440118
 21
27.9269757447
  0
LINE
  5
281
100
AcDbEntity
  8
0
100
AcDbLine
 62
7
  6
CONTINUOUS
 10
132.6465928102
 20
26.1388157447
 11
132.6465928102
 21
27.2919757447
  0
LINE
  5
282
100
AcDbEntity
  8
0
100
AcDbLine
 62
7
  6
CONTINUOUS
 10
134.9267816085
 20
345.8486157447
 11
134.9267816085
 21
345.2136157447
  0
LINE
  5
283
100
AcDbEntity
  8
0
100
AcDbLine
 62
7
  6
CONTINUOUS
 10
134.9267816085
 20
27.2919757447
 11
134.9267816085
 21
27.9269757447
  0
LINE
  5
284
100
AcDbEntity
  8
0
100
AcDbLine
 62
7
  6
CONTINUOUS
 10
135.6945928102
 20
27.2919757447
 11
135.6945928102
 21
26.1388157447
  0
LINE
  5
285
100
AcDbEntity
  8
0
100
AcDbLine
 62
7
  6
CONTINUOUS
 10
137.2452628088
 20
176.9861748094
 11
129.3077628111
 21
176.9861748091
  0
LINE
  5
286
100
AcDbEntity
  8
0
100
AcDbLine
 62
7
  6
CONTINUOUS
 10
129.3077628102
 20
178.510174809
 11
137.2452628102
 21
178.510174809
  0
LINE
  5
287
100
AcDbEntity
  8
0
100
AcDbLine
 62
7
  6
CONTINUOUS
 10
110.6431582409
 20
187.7228207447
 11
120.0951168745
 21
187.7228207447
  0
LINE
  5
288
100
AcDbEntity
  8
0
100
AcDbLine
 62
7
  6
CONTINUOUS
 10
146.4579087459
 20
187.7228207447
 11
155.9098673794
 21
187.7228207447
  0
LINE
  5
289
100
AcDbEntity
  8
0
100
AcDbLine
 62
7
  6
CONTINUOUS
 10
216.0323956427
 20
134.2693705388
 11
207.8467593505
 21
138.9953498556
  0
LINE
  5
28A
100
AcDbEntity
  8
0
100
AcDbLine
 62
7
  6
CONTINUOUS
 10
137.2452628102
 20
169.0582161754
 11
137.2452628102
 21
178.510174809
  0
LINE
  5
28B
100
AcDbEntity
  8
0
100
AcDbLine
 62
7
  6
CONTINUOUS
 10
137.2452628102
 20
223.9229666804
 11
137.2452628102
 21
233.3749253139
  0
LINE
  5
28C
100
AcDbEntity
  8
0
100
AcDbLine
 62
7
  6
CONTINUOUS
 10
146.4579087459
 20
187.7228207447
 11
146.4579087459
 21
214.7103207447
  0
LINE
  5
28D
100
AcDbEntity
  8
0
100
AcDbLine
 62
7
  6
CONTINUOUS
 10
147.9819087455
 20
214.7103207433
 11
147.9819087457
 21
187.7228207456
  0
LINE
  5
28E
100
AcDbEntity
  8
0
100
AcDbLine
 62
7
  6
CONTINUOUS
 10
58.7062662699
 20
138.9953498556
 11
50.5206299777
 21
134.2693705388
  0
LINE
  5
28F
100
AcDbEntity
  8
0
100
AcDbLine
 62
7
  6
CONTINUOUS
 10
149.8377393302
 20
93.6519661754
 11
149.8377393302
 21
103.103924809
  0
LINE
  5
290
100
AcDbEntity
  8
0
100
AcDbLine
 62
7
  6
CONTINUOUS
 10
149.8377393302
 20
121.5292166804
 11
149.8377393302
 21
130.9811753139
  0
LINE
  5
291
100
AcDbEntity
  8
0
100
AcDbLine
 62
7
  6
CONTINUOUS
 10
150.8025128102
 20
27.2919757447
 11
150.8025128102
 21
27.9269757447
  0
LINE
  5
292
100
AcDbEntity
  8
0
100
AcDbLine
 62
7
  6
CONTINUOUS
 10
150.8025128102
 20
345.2136157447
 11
150.8025128102
 21
345.8486157447
  0
LINE
  5
293
100
AcDbEntity
  8
0
100
AcDbLine
 62
7
  6
CONTINUOUS
 10
155.1478673798
 20
187.7228207454
 11
155.1478673812
 21
214.7103207426
  0
LINE
  5
294
100
AcDbEntity
  8
0
100
AcDbLine
 62
7
  6
CONTINUOUS
 10
155.9098673793
 20
214.7103207457
 11
155.9098673794
 21
187.7228207443
  0
LINE
  5
295
100
AcDbEntity
  8
0
100
AcDbLine
 62
7
  6
CONTINUOUS
 10
160.4341928102
 20
152.2875661106
 11
160.4341928102
 21
154.6314588628
  0
LINE
  5
296
100
AcDbEntity
  8
0
100
AcDbLine
 62
7
  6
CONTINUOUS
 10
50.5206299777
 20
256.2575209506
 11
58.7062662699
 21
251.5315416338
  0
LINE
  5
297
100
AcDbEntity
  8
0
100
AcDbLine
 62
7
  6
CONTINUOUS
 10
161.9073928102
 20
79.9574896141
 11
161.9073928102
 21
83.7213380019
  0
LINE
  5
298
100
AcDbEntity
  8
0
100
AcDbLine
 62
7
  6
CONTINUOUS
 10
161.9073928102
 20
151.5854896141
 11
161.9073928102
 21
155.3493380019
  0
LINE
  5
299
100
AcDbEntity
  8
0
100
AcDbLine
 62
7
  6
CONTINUOUS
 10
162.2126894873
 20
345.8486157447
 11
162.2126894873
 21
345.2136157447
  0
LINE
  5
29A
100
AcDbEntity
  8
0
100
AcDbLine
 62
7
  6
CONTINUOUS
 10
162.2126894873
 20
27.9269757447
 11
162.2126894873
 21
27.2919757447
  0
LINE
  5
29B
100
AcDbEntity
  8
0
100
AcDbLine
 62
7
  6
CONTINUOUS
 10
163.4879180221
 20
154.112818182
 11
163.4879180221
 21
152.8218950828
  0
LINE
  5
29C
100
AcDbEntity
  8
0
100
AcDbLine
 62
7
  6
CONTINUOUS
 10
163.4879180221
 20
82.484818182
 11
163.4879180221
 21
81.1938950828
  0
LINE
  5
29D
100
AcDbEntity
  8
0
100
AcDbLine
 62
7
  6
CONTINUOUS
 10
164.3661128102
 20
345.8486157447
 11
164.3661128102
 21
345.2136157447
  0
LINE
  5
29E
100
AcDbEntity
  8
0
100
AcDbLine
 62
7
  6
CONTINUOUS
 10
164.3661128102
 20
27.9269757447
 11
164.3661128102
 21
27.2919757447
  0
LINE
  5
29F
100
AcDbEntity
  8
0
100
AcDbLine
 62
7
  6
CONTINUOUS
 10
165.8772514961
 20
65.9667166804
 11
165.8772514961
 21
75.4186753139
  0
LINE
  5
2A0
100
AcDbEntity
  8
0
100
AcDbLine
 62
7
  6
CONTINUOUS
 10
165.8772514961
 20
315.1082161754
 11
165.8772514961
 21
324.560174809
  0
LINE
  5
2A1
100
AcDbEntity
  8
0
100
AcDbLine
 62
7
  6
CONTINUOUS
 10
170.2987273991
 20
345.8486157447
 11
170.2987273991
 21
345.2136157447
  0
LINE
  5
2A2
100
AcDbEntity
  8
0
100
AcDbLine
 62
7
  6
CONTINUOUS
 10
170.2987273991
 20
27.9269757447
 11
170.2987273991
 21
27.2919757447
  0
LINE
  5
2A3
100
AcDbEntity
  8
0
100
AcDbLine
 62
7
  6
CONTINUOUS
 10
171.9072885424
 20
27.2919757447
 11
171.9072885424
 21
27.9269757447
  0
LINE
  5
2A4
100
AcDbEntity
  8
0
100
AcDbLine
 62
7
  6
CONTINUOUS
 10
171.9072885424
 20
345.2136157447
 11
171.9072885424
 21
345.8486157447
  0
LINE
  5
2A5
100
AcDbEntity
  8
0
100
AcDbLine
 62
7
  6
CONTINUOUS
 10
155.9098673794
 20
214.7103207447
 11
146.4579087459
 21
214.7103207447
  0
LINE
  5
2A6
100
AcDbEntity
  8
0
100
AcDbLine
 62
7
  6
CONTINUOUS
 10
120.0951168745
 20
214.7103207447
 11
110.6431582409
 21
214.7103207447
  0
LINE
  5
2A7
100
AcDbEntity
  8
0
100
AcDbLine
 62
7
  6
CONTINUOUS
 10
137.2452628102
 20
223.9229666804
 11
129.3077628102
 21
223.9229666804
  0
LINE
  5
2A8
100
AcDbEntity
  8
0
100
AcDbLine
 62
7
  6
CONTINUOUS
 10
129.3077628116
 20
225.44696668
 11
137.2452628093
 21
225.4469666802
  0
LINE
  5
2A9
100
AcDbEntity
  8
0
100
AcDbLine
 62
7
  6
CONTINUOUS
 10
184.9972628102
 20
345.8486157447
 11
184.9972628102
 21
345.2136157447
  0
LINE
  5
2AA
100
AcDbEntity
  8
0
100
AcDbLine
 62
7
  6
CONTINUOUS
 10
184.9972628102
 20
27.9269757447
 11
184.9972628102
 21
27.2919757447
  0
LINE
  5
2AB
100
AcDbEntity
  8
0
100
AcDbLine
 62
7
  6
CONTINUOUS
 10
137.2452628094
 20
232.6129253143
 11
129.3077628122
 21
232.6129253157
  0
LINE
  5
2AC
100
AcDbEntity
  8
0
100
AcDbLine
 62
7
  6
CONTINUOUS
 10
129.3077628091
 20
233.3749253138
 11
137.2452628106
 21
233.3749253139
  0
LINE
  5
2AD
100
AcDbEntity
  8
0
100
AcDbLine
 62
7
  6
CONTINUOUS
 10
189.2123928102
 20
347.7282157447
 11
189.2123928102
 21
346.3820157447
  0
LINE
  5
2AE
100
AcDbEntity
  8
0
100
AcDbLine
 62
7
  6
CONTINUOUS
 10
189.7597628102
 20
345.8486157447
 11
189.7597628102
 21
345.2136157447
  0
LINE
  5
2AF
100
AcDbEntity
  8
0
100
AcDbLine
 62
7
  6
CONTINUOUS
 10
189.7597628102
 20
27.9269757447
 11
189.7597628102
 21
27.2919757447
  0
LINE
  5
2B0
100
AcDbEntity
  8
0
100
AcDbLine
 62
7
  6
CONTINUOUS
 10
193.4287928102
 20
347.7282157447
 11
193.4287928102
 21
346.3820157447
  0
LINE
  5
2B1
100
AcDbEntity
  8
0
100
AcDbLine
 62
7
  6
CONTINUOUS
 10
218.5201168745
 20
246.9732189184
 11
209.0681582409
 21
246.9732189184
  0
LINE
  5
2B2
100
AcDbEntity
  8
0
100
AcDbLine
 62
7
  6
CONTINUOUS
 10
57.4848673794
 20
246.9732189184
 11
48.0329087459
 21
246.9732189184
  0
LINE
  5
2B3
100
AcDbEntity
  8
0
100
AcDbLine
 62
7
  6
CONTINUOUS
 10
202.8497370779
 20
345.8486157447
 11
202.8497370779
 21
345.2136157447
  0
LINE
  5
2B4
100
AcDbEntity
  8
0
100
AcDbLine
 62
7
  6
CONTINUOUS
 10
202.8497370779
 20
27.9269757447
 11
202.8497370779
 21
27.2919757447
  0
LINE
  5
2B5
100
AcDbEntity
  8
0
100
AcDbLine
 62
7
  6
CONTINUOUS
 10
204.4582982212
 20
27.2919757447
 11
204.4582982212
 21
27.9269757447
  0
LINE
  5
2B6
100
AcDbEntity
  8
0
100
AcDbLine
 62
7
  6
CONTINUOUS
 10
204.4582982212
 20
345.2136157447
 11
204.4582982212
 21
345.8486157447
  0
LINE
  5
2B7
100
AcDbEntity
  8
0
100
AcDbLine
 62
7
  6
CONTINUOUS
 10
209.0681582409
 20
143.5536725709
 11
209.0681582409
 21
246.9732189184
  0
LINE
  5
2B8
100
AcDbEntity
  8
0
100
AcDbLine
 62
7
  6
CONTINUOUS
 10
209.8301582407
 20
246.9732189178
 11
209.8301582407
 21
143.5536725716
  0
LINE
  5
2B9
100
AcDbEntity
  8
0
100
AcDbLine
 62
7
  6
CONTINUOUS
 10
210.3909128102
 20
345.8486157447
 11
210.3909128102
 21
345.2136157447
  0
LINE
  5
2BA
100
AcDbEntity
  8
0
100
AcDbLine
 62
7
  6
CONTINUOUS
 10
210.3909128102
 20
27.9269757447
 11
210.3909128102
 21
27.2919757447
  0
LINE
  5
2BB
100
AcDbEntity
  8
0
100
AcDbLine
 62
7
  6
CONTINUOUS
 10
84.5948912917
 20
75.2510187125
 11
92.7805275839
 21
79.9769980293
  0
LINE
  5
2BC
100
AcDbEntity
  8
0
100
AcDbLine
 62
7
  6
CONTINUOUS
 10
212.5443361331
 20
345.8486157447
 11
212.5443361331
 21
345.2136157447
  0
LINE
  5
2BD
100
AcDbEntity
  8
0
100
AcDbLine
 62
7
  6
CONTINUOUS
 10
212.5443361331
 20
27.9269757447
 11
212.5443361331
 21
27.2919757447
  0
LINE
  5
2BE
100
AcDbEntity
  8
0
100
AcDbLine
 62
7
  6
CONTINUOUS
 10
216.3726128102
 20
27.9269757447
 11
216.3726128102
 21
30.2396457447
  0
LINE
  5
2BF
100
AcDbEntity
  8
0
100
AcDbLine
 62
7
  6
CONTINUOUS
 10
216.3726128102
 20
342.9009457447
 11
216.3726128102
 21
345.2136157447
  0
LINE
  5
2C0
100
AcDbEntity
  8
0
100
AcDbLine
 62
7
  6
CONTINUOUS
 10
216.6266128102
 20
345.2136157447
 11
216.6266128102
 21
343.6946957447
  0
LINE
  5
2C1
100
AcDbEntity
  8
0
100
AcDbLine
 62
7
  6
CONTINUOUS
 10
216.6266128102
 20
27.9269757447
 11
216.6266128102
 21
29.4458957447
  0
LINE
  5
2C2
100
AcDbEntity
  8
0
100
AcDbLine
 62
7
  6
CONTINUOUS
 10
216.9961168746
 20
143.5536725716
 11
216.9961168749
 21
246.9732189174
  0
LINE
  5
2C3
100
AcDbEntity
  8
0
100
AcDbLine
 62
7
  6
CONTINUOUS
 10
218.5201168745
 20
246.9732189184
 11
218.5201168745
 21
143.553672571
  0
LINE
  5
2C4
100
AcDbEntity
  8
0
100
AcDbLine
 62
7
  6
CONTINUOUS
 10
222.1377804451
 20
343.4904344756
 11
222.1377804451
 21
343.7258022871
  0
LINE
  5
2C5
100
AcDbEntity
  8
0
100
AcDbLine
 62
7
  6
CONTINUOUS
 10
222.2704928102
 20
26.1388157447
 11
222.2704928102
 21
26.5452157447
  0
LINE
  5
2C6
100
AcDbEntity
  8
0
100
AcDbLine
 62
7
  6
CONTINUOUS
 10
207.8467593505
 20
138.9953498556
 11
173.7724980364
 21
79.9769980293
  0
LINE
  5
2C7
100
AcDbEntity
  8
0
100
AcDbLine
 62
7
  6
CONTINUOUS
 10
208.5066707077
 20
138.6143498552
 11
174.4324093945
 21
79.5959980307
  0
LINE
  5
2C8
100
AcDbEntity
  8
0
100
AcDbLine
 62
7
  6
CONTINUOUS
 10
92.7805275839
 20
310.54989346
 11
84.5948912917
 21
315.2758727769
  0
LINE
  5
2C9
100
AcDbEntity
  8
0
100
AcDbLine
 62
7
  6
CONTINUOUS
 10
227.6946628102
 20
36.5578957447
 11
227.6946628102
 21
336.5826957447
  0
LINE
  5
2CA
100
AcDbEntity
  8
0
100
AcDbLine
 62
7
  6
CONTINUOUS
 10
230.0073328102
 20
336.5826957447
 11
230.0073328102
 21
36.5578957447
  0
LINE
  5
2CB
100
AcDbEntity
  8
0
100
AcDbLine
 62
7
  6
CONTINUOUS
 10
230.3553049601
 20
335.5082783379
 11
230.3553044557
 21
46.327335445
  0
LINE
  5
2CC
100
AcDbEntity
  8
0
100
AcDbLine
 62
7
  6
CONTINUOUS
 10
231.3890928102
 20
35.6638157447
 11
231.3890995718
 21
41.4795238156
  0
LINE
  5
2CD
100
AcDbEntity
  8
0
100
AcDbLine
 62
7
  6
CONTINUOUS
 10
231.4643668586
 20
43.3862213228
 11
231.4643668274
 21
43.1600265722
  0
LINE
  5
2CE
100
AcDbEntity
  8
0
100
AcDbLine
 62
7
  6
CONTINUOUS
 10
231.6913399994
 20
335.688615751
 11
231.6913428313
 21
45.9839174811
  0
LINE
  5
2CF
100
AcDbEntity
  8
0
100
AcDbLine
 62
7
  6
CONTINUOUS
 10
231.7954928102
 20
335.6886157447
 11
231.7954928102
 21
35.6638157447
  0
LINE
  5
2D0
100
AcDbEntity
  8
0
100
AcDbLine
 62
7
  6
CONTINUOUS
 10
232.9638928102
 20
335.6886157447
 11
232.9638928102
 21
35.6638157447
  0
LINE
  5
2D1
100
AcDbEntity
  8
0
100
AcDbLine
 62
7
  6
CONTINUOUS
 10
180.6383116133
 20
76.0130187125
 11
214.7125729272
 21
135.0313705378
  0
LINE
  5
2D2
100
AcDbEntity
  8
0
100
AcDbLine
 62
7
  6
CONTINUOUS
 10
181.9581343286
 20
75.2510187125
 11
216.0323956427
 21
134.2693705387
  0
LINE
  5
2D3
100
AcDbEntity
  8
0
100
AcDbLine
 62
7
  6
CONTINUOUS
 10
173.7724980365
 20
310.54989346
 11
207.8467593505
 21
251.5315416338
  0
LINE
  5
2D4
100
AcDbEntity
  8
0
100
AcDbLine
 62
7
  6
CONTINUOUS
 10
174.4324093943
 20
310.9308934589
 11
208.5066707077
 21
251.9125416343
  0
LINE
  5
2D5
100
AcDbEntity
  8
0
100
AcDbLine
 62
7
  6
CONTINUOUS
 10
231.6223679186
 20
45.7884530362
 11
231.4643743098
 21
43.3862189672
  0
LINE
  5
2D6
100
AcDbEntity
  8
0
100
AcDbLine
 62
7
  6
CONTINUOUS
 10
231.5239630196
 20
44.2921863435
 11
231.4643698666
 21
43.3862191166
  0
LINE
  5
2D7
100
AcDbEntity
  8
0
100
AcDbLine
 62
7
  6
CONTINUOUS
 10
214.7125729271
 20
255.4955209511
 11
180.6383116133
 21
314.5138727768
  0
LINE
  5
2D8
100
AcDbEntity
  8
0
100
AcDbLine
 62
7
  6
CONTINUOUS
 10
216.0323956427
 20
256.2575209505
 11
181.9581343286
 21
315.2758727769
  0
LINE
  5
2D9
100
AcDbEntity
  8
0
100
AcDbLine
 62
7
  6
CONTINUOUS
 10
165.8772514961
 20
315.1082161754
 11
100.6757741242
 21
315.1082161754
  0
LINE
  5
2DA
100
AcDbEntity
  8
0
100
AcDbLine
 62
7
  6
CONTINUOUS
 10
100.6757741252
 20
315.8702161749
 11
165.8772514948
 21
315.870216175
  0
LINE
  5
2DB
100
AcDbEntity
  8
0
100
AcDbLine
 62
7
  6
CONTINUOUS
 10
165.8772514961
 20
323.036174809
 11
100.6757741242
 21
323.036174809
  0
LINE
  5
2DC
100
AcDbEntity
  8
0
100
AcDbLine
 62
7
  6
CONTINUOUS
 10
100.6757741242
 20
324.560174809
 11
165.8772514961
 21
324.560174809
  0
LINE
  5
2DD
100
AcDbEntity
  8
0
100
AcDbLine
 62
7
  6
CONTINUOUS
 10
230.3553042745
 20
335.5082783554
 11
230.0073328102
 21
335.5082783554
  0
LINE
  5
2DE
100
AcDbEntity
  8
0
100
AcDbLine
 62
7
  6
CONTINUOUS
 10
231.7481513902
 20
335.6886157495
 11
231.6913414153
 21
335.6886157495
  0
LINE
  5
2DF
100
AcDbEntity
  8
0
100
AcDbLine
 62
7
  6
CONTINUOUS
 10
230.3522460765
 20
335.7468818373
 11
231.6911513873
 21
335.7468797812
  0
LINE
  5
2E0
100
AcDbEntity
  8
0
100
AcDbLine
 62
7
  6
CONTINUOUS
 10
230.0073328102
 20
336.5826957447
 11
227.6946628102
 21
336.5826957447
  0
LINE
  5
2E1
100
AcDbEntity
  8
0
100
AcDbLine
 62
7
  6
CONTINUOUS
 10
38.8583628102
 20
336.5826957447
 11
36.5456928102
 21
336.5826957447
  0
LINE
  5
2E2
100
AcDbEntity
  8
0
100
AcDbLine
 62
7
  6
CONTINUOUS
 10
231.4169108934
 20
45.8064091893
 11
230.2763624804
 21
44.2656457499
  0
LINE
  5
2E3
100
AcDbEntity
  8
0
100
AcDbLine
 62
7
  6
CONTINUOUS
 10
216.3726128102
 20
342.9009457447
 11
50.1804128102
 21
342.9009457447
  0
LINE
  5
2E4
100
AcDbEntity
  8
0
100
AcDbLine
 62
7
  6
CONTINUOUS
 10
50.1804128102
 20
343.6946957447
 11
45.1766128102
 21
343.6946957447
  0
LINE
  5
2E5
100
AcDbEntity
  8
0
100
AcDbLine
 62
7
  6
CONTINUOUS
 10
216.3726128102
 20
343.6946957447
 11
221.3764128102
 21
343.6946957447
  0
LINE
  5
2E6
100
AcDbEntity
  8
0
100
AcDbLine
 62
7
  6
CONTINUOUS
 10
216.6266128102
 20
345.1094629009
 11
216.3726128102
 21
345.1094629009
  0
LINE
  5
2E7
100
AcDbEntity
  8
0
100
AcDbLine
 62
7
  6
CONTINUOUS
 10
50.1804128102
 20
345.1094629076
 11
49.9264128102
 21
345.1094629076
  0
LINE
  5
2E8
100
AcDbEntity
  8
0
100
AcDbLine
 62
7
  6
CONTINUOUS
 10
45.1766128102
 20
345.2136157447
 11
221.3764128102
 21
345.2136157447
  0
LINE
  5
2E9
100
AcDbEntity
  8
0
100
AcDbLine
 62
7
  6
CONTINUOUS
 10
212.5441925743
 20
345.8486157447
 11
162.2127219173
 21
345.8486157447
  0
LINE
  5
2EA
100
AcDbEntity
  8
0
100
AcDbLine
 62
7
  6
CONTINUOUS
 10
150.8025052545
 20
345.8486157447
 11
115.7505203658
 21
345.8486157447
  0
LINE
  5
2EB
100
AcDbEntity
  8
0
100
AcDbLine
 62
7
  6
CONTINUOUS
 10
104.3401925743
 20
345.8486157447
 11
54.0087219173
 21
345.8486157447
  0
LINE
  5
2EC
100
AcDbEntity
  8
0
100
AcDbLine
 62
7
  6
CONTINUOUS
 10
46.0706928102
 20
346.3820157447
 11
222.2704928102
 21
346.3820157447
  0
LINE
  5
2ED
100
AcDbEntity
  8
0
100
AcDbLine
 62
7
  6
CONTINUOUS
 10
193.4287928102
 20
347.7282157447
 11
189.2123928102
 21
347.7282157447
  0
LINE
  5
2EE
100
AcDbEntity
  8
0
100
AcDbLine
 62
7
  6
CONTINUOUS
 10
79.1287928102
 20
347.7282157447
 11
74.9123928102
 21
347.7282157447
  0
LINE
  5
2EF
100
AcDbEntity
  8
0
100
AcDbLine
 62
7
  6
CONTINUOUS
 10
193.1747928102
 20
347.9822157447
 11
189.4663928102
 21
347.9822157447
  0
LINE
  5
2F0
100
AcDbEntity
  8
0
100
AcDbLine
 62
7
  6
CONTINUOUS
 10
78.8747928102
 20
347.9822157447
 11
75.1663928102
 21
347.9822157447
  0
ARC
  5
2F1
100
AcDbEntity
  8
0
100
AcDbCircle
 62
7
  6
CONTINUOUS
 10
90.4191078026
 20
48.7350407523
 40
141.1565820594
100
AcDbArc
 50
357.0536707692
 51
357.2761258509
  0
ARC
  5
2F2
100
AcDbEntity
  8
0
100
AcDbCircle
 62
7
  6
CONTINUOUS
 10
46.0706928102
 20
35.6638157447
 40
10.6934
100
AcDbArc
 50
180.0
 51
270.0
  0
ARC
  5
2F3
100
AcDbEntity
  8
0
100
AcDbCircle
 62
7
  6
CONTINUOUS
 10
46.0706928102
 20
35.6638157447
 40
9.525
100
AcDbArc
 50
180.0
 51
270.0
  0
ARC
  5
2F4
100
AcDbEntity
  8
0
100
AcDbCircle
 62
7
  6
CONTINUOUS
 10
46.0706928102
 20
35.6638157447
 40
9.1186
100
AcDbArc
 50
204.0644667143
 51
270.0
  0
ARC
  5
2F5
100
AcDbEntity
  8
0
100
AcDbCircle
 62
7
  6
CONTINUOUS
 10
45.1766128102
 20
36.5578957447
 40
8.63092
100
AcDbArc
 50
180.0
 51
270.0
  0
ARC
  5
2F6
100
AcDbEntity
  8
0
100
AcDbCircle
 62
7
  6
CONTINUOUS
 10
46.6498128102
 20
37.3706957447
 40
7.9248
100
AcDbArc
 50
185.8868421387
 51
270.0
  0
ARC
  5
2F7
100
AcDbEntity
  8
0
100
AcDbCircle
 62
7
  6
CONTINUOUS
 10
45.1766128102
 20
36.5578957447
 40
7.112
100
AcDbArc
 50
180.0
 51
270.0
  0
CIRCLE
  5
2F8
100
AcDbEntity
  8
0
100
AcDbCircle
 62
7
  6
CONTINUOUS
 10
61.8390128102
 20
53.1821957447
 40
3.96875
  0
ARC
  5
2F9
100
AcDbEntity
  8
0
100
AcDbCircle
 62
7
  6
CONTINUOUS
 10
47.5465914172
 20
30.9698957447
 40
3.04292
100
AcDbArc
 50
322.7360702764
 51
328.8976540255
  0
ARC
  5
2FA
100
AcDbEntity
  8
0
100
AcDbCircle
 62
7
  6
CONTINUOUS
 10
66.6015128102
 20
143.553672571
 40
18.5686040643
100
AcDbArc
 50
179.9999999999
 51
209.9999999997
  0
ARC
  5
2FB
100
AcDbEntity
  8
0
100
AcDbCircle
 62
7
  6
CONTINUOUS
 10
66.6015128102
 20
143.553672571
 40
17.0446040643
100
AcDbArc
 50
179.9999999968
 51
210.0
  0
ARC
  5
2FC
100
AcDbEntity
  8
0
100
AcDbCircle
 62
7
  6
CONTINUOUS
 10
66.6015128102
 20
143.553672571
 40
9.8786454307
100
AcDbArc
 50
179.9999999968
 51
210.0
  0
ARC
  5
2FD
100
AcDbEntity
  8
0
100
AcDbCircle
 62
7
  6
CONTINUOUS
 10
66.6015128102
 20
143.553672571
 40
9.1166454307
100
AcDbArc
 50
180.0000000002
 51
210.0000000002
  0
CIRCLE
  5
2FE
100
AcDbEntity
  8
0
100
AcDbCircle
 62
7
  6
CONTINUOUS
 10
63.4265128102
 20
160.8305707447
 40
3.42392
  0
CIRCLE
  5
2FF
100
AcDbEntity
  8
0
100
AcDbCircle
 62
7
  6
CONTINUOUS
 10
63.4265128102
 20
160.8305707447
 40
1.905
  0
ARC
  5
300
100
AcDbEntity
  8
0
100
AcDbCircle
 62
7
  6
CONTINUOUS
 10
114.7125467234
 20
47.5796797692
 40
116.8356850083
100
AcDbArc
 50
357.2759133194
 51
357.5511701306
  0
ARC
  5
301
100
AcDbEntity
  8
0
100
AcDbCircle
 62
7
  6
CONTINUOUS
 10
132.2909695315
 20
46.8282508741
 40
99.2412087821
100
AcDbArc
 50
357.5509779161
 51
357.8817106565
  0
ARC
  5
302
100
AcDbEntity
  8
0
100
AcDbCircle
 62
7
  6
CONTINUOUS
 10
100.6757741242
 20
84.5353207447
 40
18.5686040643
100
AcDbArc
 50
210.0000000005
 51
269.9999999999
  0
ARC
  5
303
100
AcDbEntity
  8
0
100
AcDbCircle
 62
7
  6
CONTINUOUS
 10
100.6757741242
 20
84.5353207447
 40
17.0446040643
100
AcDbArc
 50
209.9999999976
 51
270.0
  0
ARC
  5
304
100
AcDbEntity
  8
0
100
AcDbCircle
 62
7
  6
CONTINUOUS
 10
100.6757741242
 20
84.5353207447
 40
9.8786454307
100
AcDbArc
 50
209.9999999976
 51
270.0
  0
ARC
  5
305
100
AcDbEntity
  8
0
100
AcDbCircle
 62
7
  6
CONTINUOUS
 10
100.6757741242
 20
84.5353207447
 40
9.1166454307
100
AcDbArc
 50
210.0
 51
269.9999999999
  0
CIRCLE
  5
306
100
AcDbEntity
  8
0
100
AcDbCircle
 62
7
  6
CONTINUOUS
 10
104.7015128102
 20
81.8365707447
 40
3.42392
  0
CIRCLE
  5
307
100
AcDbEntity
  8
0
100
AcDbCircle
 62
7
  6
CONTINUOUS
 10
104.7015128102
 20
81.8365707447
 40
1.905
  0
ARC
  5
308
100
AcDbEntity
  8
0
100
AcDbCircle
 62
7
  6
CONTINUOUS
 10
116.7152862901
 20
112.3165707447
 40
18.6646045693
100
AcDbArc
 50
90.0000000036
 51
269.9999999987
  0
ARC
  5
309
100
AcDbEntity
  8
0
100
AcDbCircle
 62
7
  6
CONTINUOUS
 10
129.3077628102
 20
187.7228207447
 40
18.6646045693
100
AcDbArc
 50
180.0000000032
 51
269.9999999987
  0
ARC
  5
30A
100
AcDbEntity
  8
0
100
AcDbCircle
 62
7
  6
CONTINUOUS
 10
137.2452628102
 20
187.7228207447
 40
18.6646045693
100
AcDbArc
 50
270.0000000032
 51
359.9999999987
  0
ARC
  5
30B
100
AcDbEntity
  8
0
100
AcDbCircle
 62
7
  6
CONTINUOUS
 10
129.3077628102
 20
187.7228207447
 40
17.9026045693
100
AcDbArc
 50
179.9999999931
 51
270.0000000032
  0
ARC
  5
30C
100
AcDbEntity
  8
0
100
AcDbCircle
 62
7
  6
CONTINUOUS
 10
137.2452628102
 20
187.7228207447
 40
17.9026045693
100
AcDbArc
 50
269.999999993
 51
360.0
  0
ARC
  5
30D
100
AcDbEntity
  8
0
100
AcDbCircle
 62
7
  6
CONTINUOUS
 10
116.7152862901
 20
112.3165707447
 40
17.9026045693
100
AcDbArc
 50
90.0
 51
270.0000000041
  0
ARC
  5
30E
100
AcDbEntity
  8
0
100
AcDbCircle
 62
7
  6
CONTINUOUS
 10
116.7152862901
 20
112.3165707447
 40
10.7366459357
100
AcDbArc
 50
90.0
 51
270.0000000041
  0
ARC
  5
30F
100
AcDbEntity
  8
0
100
AcDbCircle
 62
7
  6
CONTINUOUS
 10
137.2452628102
 20
187.7228207447
 40
10.7366459357
100
AcDbArc
 50
269.999999993
 51
360.0
  0
ARC
  5
310
100
AcDbEntity
  8
0
100
AcDbCircle
 62
7
  6
CONTINUOUS
 10
129.3077628102
 20
187.7228207447
 40
10.7366459357
100
AcDbArc
 50
179.9999999931
 51
270.0000000032
  0
ARC
  5
311
100
AcDbEntity
  8
0
100
AcDbCircle
 62
7
  6
CONTINUOUS
 10
116.7152862901
 20
112.3165707447
 40
9.2126459357
100
AcDbArc
 50
89.9999999999
 51
270.0000000018
  0
ARC
  5
312
100
AcDbEntity
  8
0
100
AcDbCircle
 62
7
  6
CONTINUOUS
 10
129.3077628102
 20
187.7228207447
 40
9.2126459357
100
AcDbArc
 50
180.0
 51
270.0000000001
  0
ARC
  5
313
100
AcDbEntity
  8
0
100
AcDbCircle
 62
7
  6
CONTINUOUS
 10
137.2452628102
 20
187.7228207447
 40
9.2126459357
100
AcDbArc
 50
269.9999999999
 51
360.0
  0
CIRCLE
  5
314
100
AcDbEntity
  8
0
100
AcDbCircle
 62
7
  6
CONTINUOUS
 10
104.7015128102
 20
153.4645707447
 40
3.42392
  0
CIRCLE
  5
315
100
AcDbEntity
  8
0
100
AcDbCircle
 62
7
  6
CONTINUOUS
 10
104.7015128102
 20
153.4645707447
 40
1.905
  0
ARC
  5
316
100
AcDbEntity
  8
0
100
AcDbCircle
 62
7
  6
CONTINUOUS
 10
137.2452628102
 20
214.7103207447
 40
18.6646045693
100
AcDbArc
 50
0.0000000032
 51
89.9999999987
  0
ARC
  5
317
100
AcDbEntity
  8
0
100
AcDbCircle
 62
7
  6
CONTINUOUS
 10
129.3077628102
 20
214.7103207447
 40
18.6646045693
100
AcDbArc
 50
90.0000000032
 51
179.9999999987
  0
ARC
  5
318
100
AcDbEntity
  8
0
100
AcDbCircle
 62
7
  6
CONTINUOUS
 10
100.6757741242
 20
305.9915707447
 40
18.5686040643
100
AcDbArc
 50
90.0
 51
149.9999999999
  0
ARC
  5
319
100
AcDbEntity
  8
0
100
AcDbCircle
 62
7
  6
CONTINUOUS
 10
66.6015128102
 20
246.9732189184
 40
18.5686040643
100
AcDbArc
 50
149.9999999998
 51
180.0000000001
  0
ARC
  5
31A
100
AcDbEntity
  8
0
100
AcDbCircle
 62
7
  6
CONTINUOUS
 10
137.2452628102
 20
214.7103207447
 40
17.9026045693
100
AcDbArc
 50
0.0
 51
90.0000000032
  0
ARC
  5
31B
100
AcDbEntity
  8
0
100
AcDbCircle
 62
7
  6
CONTINUOUS
 10
129.3077628102
 20
214.7103207447
 40
17.9026045693
100
AcDbArc
 50
89.999999993
 51
180.0000000033
  0
ARC
  5
31C
100
AcDbEntity
  8
0
100
AcDbCircle
 62
7
  6
CONTINUOUS
 10
66.6015128102
 20
246.9732189184
 40
17.0446040643
100
AcDbArc
 50
149.9999999968
 51
180.0
  0
ARC
  5
31D
100
AcDbEntity
  8
0
100
AcDbCircle
 62
7
  6
CONTINUOUS
 10
100.6757741242
 20
305.9915707447
 40
17.0446040643
100
AcDbArc
 50
89.9999999977
 51
150.0
  0
ARC
  5
31E
100
AcDbEntity
  8
0
100
AcDbCircle
 62
7
  6
CONTINUOUS
 10
129.3077628102
 20
214.7103207447
 40
10.7366459357
100
AcDbArc
 50
89.999999993
 51
180.0000000033
  0
ARC
  5
31F
100
AcDbEntity
  8
0
100
AcDbCircle
 62
7
  6
CONTINUOUS
 10
137.2452628102
 20
214.7103207447
 40
10.7366459357
100
AcDbArc
 50
0.0
 51
90.0000000032
  0
ARC
  5
320
100
AcDbEntity
  8
0
100
AcDbCircle
 62
7
  6
CONTINUOUS
 10
46.0706928102
 20
335.6886157447
 40
10.6934
100
AcDbArc
 50
90.0
 51
180.0
  0
ARC
  5
321
100
AcDbEntity
  8
0
100
AcDbCircle
 62
7
  6
CONTINUOUS
 10
100.6757741242
 20
305.9915707447
 40
9.8786454307
100
AcDbArc
 50
89.9999999977
 51
150.0
  0
ARC
  5
322
100
AcDbEntity
  8
0
100
AcDbCircle
 62
7
  6
CONTINUOUS
 10
66.6015128102
 20
246.9732189184
 40
9.8786454307
100
AcDbArc
 50
149.9999999968
 51
180.0
  0
ARC
  5
323
100
AcDbEntity
  8
0
100
AcDbCircle
 62
7
  6
CONTINUOUS
 10
137.2452628102
 20
214.7103207447
 40
9.2126459357
100
AcDbArc
 50
0.0
 51
90.0000000001
  0
ARC
  5
324
100
AcDbEntity
  8
0
100
AcDbCircle
 62
7
  6
CONTINUOUS
 10
129.3077628102
 20
214.7103207447
 40
9.2126459357
100
AcDbArc
 50
89.9999999999
 51
180.0
  0
ARC
  5
325
100
AcDbEntity
  8
0
100
AcDbCircle
 62
7
  6
CONTINUOUS
 10
100.6757741242
 20
305.9915707447
 40
9.1166454307
100
AcDbArc
 50
90.0
 51
149.9999999998
  0
ARC
  5
326
100
AcDbEntity
  8
0
100
AcDbCircle
 62
7
  6
CONTINUOUS
 10
66.6015128102
 20
246.9732189184
 40
9.1166454307
100
AcDbArc
 50
150.0000000001
 51
179.9999999998
  0
ARC
  5
327
100
AcDbEntity
  8
0
100
AcDbCircle
 62
7
  6
CONTINUOUS
 10
45.1766128102
 20
336.5826957447
 40
8.63092
100
AcDbArc
 50
90.0
 51
180.0
  0
ARC
  5
328
100
AcDbEntity
  8
0
100
AcDbCircle
 62
7
  6
CONTINUOUS
 10
46.6498128102
 20
335.7698957447
 40
7.9248
100
AcDbArc
 50
90.0
 51
174.1131578613
  0
ARC
  5
329
100
AcDbEntity
  8
0
100
AcDbCircle
 62
7
  6
CONTINUOUS
 10
45.1766128102
 20
336.5826957447
 40
7.112
100
AcDbArc
 50
90.0
 51
180.0
  0
CIRCLE
  5
32A
100
AcDbEntity
  8
0
100
AcDbCircle
 62
7
  6
CONTINUOUS
 10
61.8390128102
 20
319.8821957447
 40
3.96875
  0
CIRCLE
  5
32B
100
AcDbEntity
  8
0
100
AcDbCircle
 62
7
  6
CONTINUOUS
 10
98.3515128102
 20
305.9915707447
 40
3.42392
  0
CIRCLE
  5
32C
100
AcDbEntity
  8
0
100
AcDbCircle
 62
7
  6
CONTINUOUS
 10
133.2765128102
 20
271.0665707447
 40
3.42392
  0
ARC
  5
32D
100
AcDbEntity
  8
0
100
AcDbCircle
 62
7
  6
CONTINUOUS
 10
47.5495043077
 20
342.1757757447
 40
3.03784
100
AcDbArc
 50
31.0484766042
 51
38.4902962334
  0
CIRCLE
  5
32E
100
AcDbEntity
  8
0
100
AcDbCircle
 62
7
  6
CONTINUOUS
 10
98.3515128102
 20
305.9915707447
 40
1.905
  0
CIRCLE
  5
32F
100
AcDbEntity
  8
0
100
AcDbCircle
 62
7
  6
CONTINUOUS
 10
133.2765128102
 20
271.0665707447
 40
1.905
  0
CIRCLE
  5
330
100
AcDbEntity
  8
0
100
AcDbCircle
 62
7
  6
CONTINUOUS
 10
104.4475128102
 20
297.3555707447
 40
0.762
  0
ARC
  5
331
100
AcDbEntity
  8
0
100
AcDbCircle
 62
7
  6
CONTINUOUS
 10
78.8747928102
 20
347.7282157447
 40
0.254
100
AcDbArc
 50
0.0
 51
90.0
  0
ARC
  5
332
100
AcDbEntity
  8
0
100
AcDbCircle
 62
7
  6
CONTINUOUS
 10
75.1663928102
 20
347.7282157447
 40
0.254
100
AcDbArc
 50
90.0
 51
180.0
  0
ARC
  5
333
100
AcDbEntity
  8
0
100
AcDbCircle
 62
7
  6
CONTINUOUS
 10
165.8772514961
 20
84.5353207447
 40
18.5686040643
100
AcDbArc
 50
270.0000000001
 51
329.9999999999
  0
ARC
  5
334
100
AcDbEntity
  8
0
100
AcDbCircle
 62
7
  6
CONTINUOUS
 10
165.8772514961
 20
84.5353207447
 40
17.0446040643
100
AcDbArc
 50
269.9999999977
 51
330.0
  0
ARC
  5
335
100
AcDbEntity
  8
0
100
AcDbCircle
 62
7
  6
CONTINUOUS
 10
165.8772514961
 20
84.5353207447
 40
9.8786454307
100
AcDbArc
 50
269.9999999977
 51
330.0
  0
ARC
  5
336
100
AcDbEntity
  8
0
100
AcDbCircle
 62
7
  6
CONTINUOUS
 10
165.8772514961
 20
84.5353207447
 40
9.1166454307
100
AcDbArc
 50
270.0000000001
 51
329.9999999998
  0
CIRCLE
  5
337
100
AcDbEntity
  8
0
100
AcDbCircle
 62
7
  6
CONTINUOUS
 10
161.8515128102
 20
81.8365707447
 40
3.42392
  0
CIRCLE
  5
338
100
AcDbEntity
  8
0
100
AcDbCircle
 62
7
  6
CONTINUOUS
 10
161.8515128102
 20
81.8365707447
 40
1.905
  0
ARC
  5
339
100
AcDbEntity
  8
0
100
AcDbCircle
 62
7
  6
CONTINUOUS
 10
149.8377393302
 20
112.3165707447
 40
18.6646045693
100
AcDbArc
 50
270.0000000036
 51
89.9999999987
  0
ARC
  5
33A
100
AcDbEntity
  8
0
100
AcDbCircle
 62
7
  6
CONTINUOUS
 10
149.8377393302
 20
112.3165707447
 40
17.9026045693
100
AcDbArc
 50
270.0
 51
90.0000000041
  0
ARC
  5
33B
100
AcDbEntity
  8
0
100
AcDbCircle
 62
7
  6
CONTINUOUS
 10
149.8377393302
 20
112.3165707447
 40
10.7366459357
100
AcDbArc
 50
270.0
 51
90.0000000041
  0
ARC
  5
33C
100
AcDbEntity
  8
0
100
AcDbCircle
 62
7
  6
CONTINUOUS
 10
149.8377393302
 20
112.3165707447
 40
9.2126459357
100
AcDbArc
 50
269.9999999999
 51
90.0000000018
  0
CIRCLE
  5
33D
100
AcDbEntity
  8
0
100
AcDbCircle
 62
7
  6
CONTINUOUS
 10
161.8515128102
 20
153.4645707447
 40
3.42392
  0
CIRCLE
  5
33E
100
AcDbEntity
  8
0
100
AcDbCircle
 62
7
  6
CONTINUOUS
 10
161.8515128102
 20
153.4645707447
 40
1.905
  0
ARC
  5
33F
100
AcDbEntity
  8
0
100
AcDbCircle
 62
7
  6
CONTINUOUS
 10
218.6415800013
 20
46.5520293844
 40
11.8573063323
100
AcDbArc
 50
348.882313111
 51
350.3806081717
  0
ARC
  5
340
100
AcDbEntity
  8
0
100
AcDbCircle
 62
7
  6
CONTINUOUS
 10
222.2704928102
 20
35.6638157447
 40
10.6934
100
AcDbArc
 50
270.0
 51
360.0
  0
ARC
  5
341
100
AcDbEntity
  8
0
100
AcDbCircle
 62
7
  6
CONTINUOUS
 10
222.0520355709
 20
45.8296692377
 40
10.3007052841
100
AcDbArc
 50
322.375518348
 51
335.0191515384
  0
ARC
  5
342
100
AcDbEntity
  8
0
100
AcDbCircle
 62
7
  6
CONTINUOUS
 10
220.6161712681
 20
46.3264175855
 40
9.7391332308
100
AcDbArc
 50
357.9104934302
 51
0.005399811
  0
ARC
  5
343
100
AcDbEntity
  8
0
100
AcDbCircle
 62
7
  6
CONTINUOUS
 10
222.2704928102
 20
35.6638157447
 40
9.525
100
AcDbArc
 50
270.0
 51
360.0
  0
ARC
  5
344
100
AcDbEntity
  8
0
100
AcDbCircle
 62
7
  6
CONTINUOUS
 10
222.2704928102
 20
35.6638157447
 40
9.1186
100
AcDbArc
 50
270.0
 51
360.0
  0
ARC
  5
345
100
AcDbEntity
  8
0
100
AcDbCircle
 62
7
  6
CONTINUOUS
 10
221.3764128102
 20
36.5578957447
 40
8.63092
100
AcDbArc
 50
270.0
 51
360.0
  0
ARC
  5
346
100
AcDbEntity
  8
0
100
AcDbCircle
 62
7
  6
CONTINUOUS
 10
219.9032128102
 20
37.3706957447
 40
7.9248
100
AcDbArc
 50
270.0
 51
354.1131578613
  0
ARC
  5
347
100
AcDbEntity
  8
0
100
AcDbCircle
 62
7
  6
CONTINUOUS
 10
221.3764128102
 20
36.5578957447
 40
7.112
100
AcDbArc
 50
270.0
 51
360.0
  0
ARC
  5
348
100
AcDbEntity
  8
0
100
AcDbCircle
 62
7
  6
CONTINUOUS
 10
231.4147731804
 20
48.7470951935
 40
5.5873045861
100
AcDbArc
 50
270.5085729445
 51
272.2494670911
  0
CIRCLE
  5
349
100
AcDbEntity
  8
0
100
AcDbCircle
 62
7
  6
CONTINUOUS
 10
204.7140128102
 20
53.1821957447
 40
3.96875
  0
ARC
  5
34A
100
AcDbEntity
  8
0
100
AcDbCircle
 62
7
  6
CONTINUOUS
 10
219.0064342031
 20
30.9698957447
 40
3.04292
100
AcDbArc
 50
211.1023459745
 51
218.5225644085
  0
ARC
  5
34B
100
AcDbEntity
  8
0
100
AcDbCircle
 62
7
  6
CONTINUOUS
 10
231.4460058925
 20
45.1428687661
 40
0.8284453912
100
AcDbArc
 50
84.6841930163
 51
90.029346396
  0
ARC
  5
34C
100
AcDbEntity
  8
0
100
AcDbCircle
 62
7
  6
CONTINUOUS
 10
231.4515997895
 20
45.2005340166
 40
0.7705099341
100
AcDbArc
 50
73.5568529947
 51
84.7011045254
  0
ARC
  5
34D
100
AcDbEntity
  8
0
100
AcDbCircle
 62
7
  6
CONTINUOUS
 10
231.1775675861
 20
46.0087260292
 40
0.4963536387
100
AcDbArc
 50
333.6545273035
 51
339.7486395075
  0
ARC
  5
34E
100
AcDbEntity
  8
0
100
AcDbCircle
 62
7
  6
CONTINUOUS
 10
230.9507406919
 20
45.9715055512
 40
0.4948408952
100
AcDbArc
 50
346.8577971711
 51
359.9782930389
  0
ARC
  5
34F
100
AcDbEntity
  8
0
100
AcDbCircle
 62
7
  6
CONTINUOUS
 10
199.9515128102
 20
143.553672571
 40
18.5686040643
100
AcDbArc
 50
329.9999999998
 51
360.0
  0
ARC
  5
350
100
AcDbEntity
  8
0
100
AcDbCircle
 62
7
  6
CONTINUOUS
 10
199.9515128102
 20
143.553672571
 40
17.0446040643
100
AcDbArc
 50
329.9999999968
 51
360.0
  0
ARC
  5
351
100
AcDbEntity
  8
0
100
AcDbCircle
 62
7
  6
CONTINUOUS
 10
199.9515128102
 20
143.553672571
 40
9.8786454307
100
AcDbArc
 50
329.9999999968
 51
360.0
  0
ARC
  5
352
100
AcDbEntity
  8
0
100
AcDbCircle
 62
7
  6
CONTINUOUS
 10
199.9515128102
 20
143.553672571
 40
9.1166454307
100
AcDbArc
 50
330.0000000001
 51
359.9999999998
  0
CIRCLE
  5
353
100
AcDbEntity
  8
0
100
AcDbCircle
 62
7
  6
CONTINUOUS
 10
203.1265128102
 20
160.8305707447
 40
3.42392
  0
CIRCLE
  5
354
100
AcDbEntity
  8
0
100
AcDbCircle
 62
7
  6
CONTINUOUS
 10
203.1265128102
 20
160.8305707447
 40
1.905
  0
ARC
  5
355
100
AcDbEntity
  8
0
100
AcDbCircle
 62
7
  6
CONTINUOUS
 10
231.7704748762
 20
308.0283379242
 40
27.7548151014
100
AcDbArc
 50
92.9291397206
 51
93.6529141502
  0
ARC
  5
356
100
AcDbEntity
  8
0
100
AcDbCircle
 62
7
  6
CONTINUOUS
 10
199.9515128102
 20
246.9732189184
 40
18.5686040643
100
AcDbArc
 50
0.0
 51
30.0
  0
ARC
  5
357
100
AcDbEntity
  8
0
100
AcDbCircle
 62
7
  6
CONTINUOUS
 10
165.8772514961
 20
305.9915707447
 40
18.5686040643
100
AcDbArc
 50
30.0000000003
 51
90.0
  0
ARC
  5
358
100
AcDbEntity
  8
0
100
AcDbCircle
 62
7
  6
CONTINUOUS
 10
165.8772514961
 20
305.9915707447
 40
17.0446040643
100
AcDbArc
 50
29.9999999976
 51
90.0
  0
ARC
  5
359
100
AcDbEntity
  8
0
100
AcDbCircle
 62
7
  6
CONTINUOUS
 10
199.9515128102
 20
246.9732189184
 40
17.0446040643
100
AcDbArc
 50
0.0
 51
30.0
  0
ARC
  5
35A
100
AcDbEntity
  8
0
100
AcDbCircle
 62
7
  6
CONTINUOUS
 10
222.2704928102
 20
335.6886157447
 40
10.6934
100
AcDbArc
 50
0.0
 51
90.0
  0
ARC
  5
35B
100
AcDbEntity
  8
0
100
AcDbCircle
 62
7
  6
CONTINUOUS
 10
199.9515128102
 20
246.9732189184
 40
9.8786454307
100
AcDbArc
 50
0.0
 51
30.0
  0
ARC
  5
35C
100
AcDbEntity
  8
0
100
AcDbCircle
 62
7
  6
CONTINUOUS
 10
165.8772514961
 20
305.9915707447
 40
9.8786454307
100
AcDbArc
 50
29.9999999976
 51
90.0
  0
ARC
  5
35D
100
AcDbEntity
  8
0
100
AcDbCircle
 62
7
  6
CONTINUOUS
 10
222.2704928102
 20
335.6886157447
 40
9.525
100
AcDbArc
 50
0.0
 51
90.0
  0
ARC
  5
35E
100
AcDbEntity
  8
0
100
AcDbCircle
 62
7
  6
CONTINUOUS
 10
222.270537412
 20
335.6888255048
 40
9.4206101358
100
AcDbArc
 50
0.3530861059
 51
89.3562167223
  0
ARC
  5
35F
100
AcDbEntity
  8
0
100
AcDbCircle
 62
7
  6
CONTINUOUS
 10
221.076728174
 20
335.5086488561
 40
9.2785767935
100
AcDbArc
 50
359.9977120273
 51
1.4712649199
  0
ARC
  5
360
100
AcDbEntity
  8
0
100
AcDbCircle
 62
7
  6
CONTINUOUS
 10
222.5259404929
 20
335.6886143763
 40
9.165399557
100
AcDbArc
 50
0.0000085941
 51
0.3642379999
  0
ARC
  5
361
100
AcDbEntity
  8
0
100
AcDbCircle
 62
7
  6
CONTINUOUS
 10
165.8772514961
 20
305.9915707447
 40
9.1166454307
100
AcDbArc
 50
30.0
 51
90.0
  0
ARC
  5
362
100
AcDbEntity
  8
0
100
AcDbCircle
 62
7
  6
CONTINUOUS
 10
199.9515128102
 20
246.9732189184
 40
9.1166454307
100
AcDbArc
 50
0.0000000002
 51
30.0000000003
  0
ARC
  5
363
100
AcDbEntity
  8
0
100
AcDbCircle
 62
7
  6
CONTINUOUS
 10
221.3764128102
 20
336.5826957447
 40
8.63092
100
AcDbArc
 50
0.0
 51
90.0
  0
ARC
  5
364
100
AcDbEntity
  8
0
100
AcDbCircle
 62
7
  6
CONTINUOUS
 10
222.0151694943
 20
335.4705733874
 40
8.3416025025
100
AcDbArc
 50
8.0195900945
 51
9.8985226933
  0
ARC
  5
365
100
AcDbEntity
  8
0
100
AcDbCircle
 62
7
  6
CONTINUOUS
 10
222.0234742966
 20
335.4714291666
 40
8.3332595322
100
AcDbArc
 50
1.894299864
 51
8.0217298137
  0
ARC
  5
366
100
AcDbEntity
  8
0
100
AcDbCircle
 62
7
  6
CONTINUOUS
 10
219.9032128102
 20
335.7698957447
 40
7.9248
100
AcDbArc
 50
5.8868421387
 51
90.0
  0
ARC
  5
367
100
AcDbEntity
  8
0
100
AcDbCircle
 62
7
  6
CONTINUOUS
 10
222.1425026711
 20
335.5004246174
 40
7.4457044096
100
AcDbArc
 50
61.292898683
 51
75.5328477444
  0
ARC
  5
368
100
AcDbEntity
  8
0
100
AcDbCircle
 62
7
  6
CONTINUOUS
 10
221.3764128102
 20
336.5826957447
 40
7.112
100
AcDbArc
 50
0.0
 51
90.0
  0
CIRCLE
  5
369
100
AcDbEntity
  8
0
100
AcDbCircle
 62
7
  6
CONTINUOUS
 10
204.7140128102
 20
319.8821957447
 40
3.96875
  0
CIRCLE
  5
36A
100
AcDbEntity
  8
0
100
AcDbCircle
 62
7
  6
CONTINUOUS
 10
168.2015128102
 20
305.9915707447
 40
3.42392
  0
ARC
  5
36B
100
AcDbEntity
  8
0
100
AcDbCircle
 62
7
  6
CONTINUOUS
 10
219.0064342031
 20
342.1706957447
 40
3.04292
100
AcDbArc
 50
142.7360702759
 51
148.897654024
  0
CIRCLE
  5
36C
100
AcDbEntity
  8
0
100
AcDbCircle
 62
7
  6
CONTINUOUS
 10
168.2015128102
 20
305.9915707447
 40
1.905
  0
CIRCLE
  5
36D
100
AcDbEntity
  8
0
100
AcDbCircle
 62
7
  6
CONTINUOUS
 10
174.2975128102
 20
297.3555707447
 40
0.762
  0
ARC
  5
36E
100
AcDbEntity
  8
0
100
AcDbCircle
 62
7
  6
CONTINUOUS
 10
193.1747928102
 20
347.7282157447
 40
0.254
100
AcDbArc
 50
0.0
 51
90.0
  0
ARC
  5
36F
100
AcDbEntity
  8
0
100
AcDbCircle
 62
7
  6
CONTINUOUS
 10
189.4663928102
 20
347.7282157447
 40
0.254
100
AcDbArc
 50
90.0
 51
180.0
  0
SPLINE
  5
370
100
AcDbEntity
  8
0
100
AcDbSpline
 62
7
  6
CONTINUOUS
 70
0
 71
3
 72
9
 73
5
 74
0
 42
0.0000001
 43
0.0000001
 44
0.0000000001
 40
0.0
 40
0.0
 40
0.0
 40
0.0
 40
0.7493549743
 40
1.0
 40
1.0
 40
1.0
 40
1.0
 10
229.1770003953
 20
339.735241463
 30
0.0
 10
229.5671996686
 20
339.0864946005
 30
0.0
 10
229.970527499
 20
338.1409078434
 30
0.0
 10
230.1890661011
 20
337.1539755773
 30
0.0
 10
230.2325968902
 20
336.9045257239
 30
0.0
  0
SPLINE
  5
371
100
AcDbEntity
  8
0
100
AcDbSpline
 62
7
  6
CONTINUOUS
 70
0
 71
3
 72
11
 73
7
 74
0
 42
0.0000001
 43
0.0000001
 44
0.0000000001
 40
0.0
 40
0.0
 40
0.0
 40
0.0
 40
0.0728816333
 40
0.2688824047
 40
0.5823837083
 40
1.0
 40
1.0
 40
1.0
 40
1.0
 10
231.7954934221
 20
43.1815836962
 30
0.0
 10
231.7954934852
 20
43.17762158
 30
0.0
 10
231.7741579513
 20
43.1761383656
 30
0.0
 10
231.7491233976
 20
43.1701848281
 30
0.0
 10
231.6953630591
 20
43.1672319173
 30
0.0
 10
231.6567625561
 20
43.1650104722
 30
0.0
 10
231.6340778015
 20
43.1640961767
 30
0.0
  0
SPLINE
  5
372
100
AcDbEntity
  8
0
100
AcDbSpline
 62
7
  6
CONTINUOUS
 70
0
 71
3
 72
9
 73
5
 74
0
 42
0.0000001
 43
0.0000001
 44
0.0000000001
 40
0.0
 40
0.0
 40
0.0
 40
0.0
 40
0.2417059561
 40
1.0
 40
1.0
 40
1.0
 40
1.0
 10
230.0000106987
 20
44.1792867816
 30
0.0
 10
230.0217724903
 20
44.187701501
 30
0.0
 10
230.1124040512
 20
44.2209602762
 30
0.0
 10
230.2052325488
 20
44.2481470002
 30
0.0
 10
230.2763050175
 20
44.26566085
 30
0.0
  0
SPLINE
  5
373
100
AcDbEntity
  8
0
100
AcDbSpline
 62
7
  6
CONTINUOUS
 70
0
 71
3
 72
9
 73
5
 74
0
 42
0.0000001
 43
0.0000001
 44
0.0000000001
 40
0.0
 40
0.0
 40
0.0
 40
0.0
 40
0.2390918753
 40
1.0
 40
1.0
 40
1.0
 40
1.0
 10
230.0020147806
 20
45.5516169532
 30
0.0
 10
230.0372146356
 20
45.5765061981
 30
0.0
 10
230.1880354054
 20
45.6754922981
 30
0.0
 10
230.3510669721
 20
45.7552623085
 30
0.0
 10
230.4783722285
 20
45.8064168293
 30
0.0
  0
SPLINE
  5
374
100
AcDbEntity
  8
0
100
AcDbSpline
 62
7
  6
CONTINUOUS
 70
0
 71
3
 72
9
 73
5
 74
0
 42
0.0000001
 43
0.0000001
 44
0.0000000001
 40
0.0
 40
0.0
 40
0.0
 40
0.0
 40
0.2456620417
 40
1.0
 40
1.0
 40
1.0
 40
1.0
 10
230.4783629738
 20
45.8064093191
 30
0.0
 10
230.4712896203
 20
45.7047334571
 30
0.0
 10
230.4377565282
 20
45.29119915
 30
0.0
 10
230.3844764758
 20
44.8792057876
 30
0.0
 10
230.3321671227
 20
44.5706444607
 30
0.0
  0
SPLINE
  5
375
100
AcDbEntity
  8
0
100
AcDbSpline
 62
7
  6
CONTINUOUS
 70
0
 71
3
 72
9
 73
5
 74
0
 42
0.0000001
 43
0.0000001
 44
0.0000000001
 40
0.0
 40
0.0
 40
0.0
 40
0.0
 40
0.2596884791
 40
1.0
 40
1.0
 40
1.0
 40
1.0
 10
230.3320744409
 20
44.5708294709
 30
0.0
 10
230.3028370865
 20
44.5625796523
 30
0.0
 10
230.1908430061
 20
44.528779344
 30
0.0
 10
230.0812554989
 20
44.4867790883
 30
0.0
 10
230.0025834494
 20
44.4505732912
 30
0.0
  0
SPLINE
  5
376
100
AcDbEntity
  8
0
100
AcDbSpline
 62
7
  6
CONTINUOUS
 70
0
 71
3
 72
9
 73
5
 74
0
 42
0.0000001
 43
0.0000001
 44
0.0000000001
 40
0.0
 40
0.0
 40
0.0
 40
0.0
 40
0.2257782457
 40
1.0
 40
1.0
 40
1.0
 40
1.0
 10
230.0016989353
 20
45.9997157828
 30
0.0
 10
230.0277990244
 20
45.9972960805
 30
0.0
 10
230.1434341999
 20
45.9869525319
 30
0.0
 10
230.2591822672
 20
45.9779005968
 30
0.0
 10
230.3488272013
 20
45.9713457542
 30
0.0
  0
SPLINE
  5
377
100
AcDbEntity
  8
0
100
AcDbSpline
 62
7
  6
CONTINUOUS
 70
0
 71
3
 72
11
 73
7
 74
0
 42
0.0000001
 43
0.0000001
 44
0.0000000001
 40
0.0
 40
0.0
 40
0.0
 40
0.0
 40
0.2500212201
 40
0.5000028012
 40
0.7499757665
 40
1.0
 40
1.0
 40
1.0
 40
1.0
 10
38.0839053833
 20
336.7555666246
 30
0.0
 10
38.2200904666
 20
337.629013956
 30
0.0
 10
38.7790470058
 20
339.3445394768
 30
0.0
 10
40.389290885
 20
341.5078931658
 30
0.0
 10
42.6020763483
 20
343.0496667045
 30
0.0
 10
44.3342263366
 20
343.5543524697
 30
0.0
 10
45.211475612
 20
343.6634815853
 30
0.0
  0
SPLINE
  5
378
100
AcDbEntity
  8
0
100
AcDbSpline
 62
7
  6
CONTINUOUS
 70
0
 71
3
 72
9
 73
5
 74
0
 42
0.0000001
 43
0.0000001
 44
0.0000000001
 40
0.0
 40
0.0
 40
0.0
 40
0.0
 40
0.3214124291
 40
1.0
 40
1.0
 40
1.0
 40
1.0
 10
231.6911513893
 20
335.7468794989
 30
0.0
 10
231.7006381149
 20
335.7470000591
 30
0.0
 10
231.7301531455
 20
335.7474108268
 30
0.0
 10
231.7596692488
 20
335.7478533115
 30
0.0
 10
231.7796924907
 20
335.7483973532
 30
0.0
  0
SPLINE
  5
379
100
AcDbEntity
  8
0
100
AcDbSpline
 62
7
  6
CONTINUOUS
 70
0
 71
3
 72
10
 73
6
 74
0
 42
0.0000001
 43
0.0000001
 44
0.0000000001
 40
0.0
 40
0.0
 40
0.0
 40
0.0
 40
0.0944039291
 40
0.288874153
 40
1.0
 40
1.0
 40
1.0
 40
1.0
 10
231.7954929123
 20
43.4419456695
 30
0.0
 10
231.7954933859
 20
43.4365577878
 30
0.0
 10
231.7793298715
 20
43.4247349908
 30
0.0
 10
231.7278861344
 20
43.4085292581
 30
0.0
 10
231.6744850893
 20
43.4010165992
 30
0.0
 10
231.6341175102
 20
43.396813234
 30
0.0
  0
SPLINE
  5
37A
100
AcDbEntity
  8
0
100
AcDbSpline
 62
7
  6
CONTINUOUS
 70
0
 71
3
 72
9
 73
5
 74
0
 42
0.0000001
 43
0.0000001
 44
0.0000000001
 40
0.0
 40
0.0
 40
0.0
 40
0.0
 40
0.2384547848
 40
1.0
 40
1.0
 40
1.0
 40
1.0
 10
231.6341175102
 20
43.396813234
 30
0.0
 10
231.6206695551
 20
43.3954129353
 30
0.0
 10
231.5641992332
 20
43.3902654585
 30
0.0
 10
231.507533271
 20
43.3873561817
 30
0.0
 10
231.4643676984
 20
43.3862209542
 30
0.0
  0
SPLINE
  5
37B
100
AcDbEntity
  8
0
100
AcDbSpline
 62
7
  6
CONTINUOUS
 70
0
 71
3
 72
8
 73
4
 74
0
 42
0.0000001
 43
0.0000001
 44
0.0000000001
 40
0.0
 40
0.0
 40
0.0
 40
0.0
 40
1.0
 40
1.0
 40
1.0
 40
1.0
 10
231.4168954126
 20
45.806408514
 30
0.0
 10
231.4855210499
 20
45.810550971
 30
0.0
 10
231.5556913023
 20
45.8052207432
 30
0.0
 10
231.6223630784
 20
45.7884424144
 30
0.0
  0
SPLINE
  5
37C
100
AcDbEntity
  8
0
100
AcDbSpline
 62
7
  6
CONTINUOUS
 70
0
 71
3
 72
8
 73
4
 74
0
 42
0.0000001
 43
0.0000001
 44
0.0000000001
 40
0.0
 40
0.0
 40
0.0
 40
0.0
 40
1.0
 40
1.0
 40
1.0
 40
1.0
 10
231.6696987668
 20
45.9395322489
 30
0.0
 10
231.6645171546
 20
45.9045908704
 30
0.0
 10
231.6554950552
 20
45.8700473247
 30
0.0
 10
231.64323819
 20
45.8369185111
 30
0.0
  0
SPLINE
  5
37D
100
AcDbEntity
  8
0
100
AcDbSpline
 62
7
  6
CONTINUOUS
 70
0
 71
3
 72
8
 73
4
 74
0
 42
0.0000001
 43
0.0000001
 44
0.0000000001
 40
0.0
 40
0.0
 40
0.0
 40
0.0
 40
1.0
 40
1.0
 40
1.0
 40
1.0
 10
231.4326210888
 20
45.8589942422
 30
0.0
 10
231.4284550127
 20
45.8411808988
 30
0.0
 10
231.4232594504
 20
45.8235658006
 30
0.0
 10
231.41690951
 20
45.8064091795
 30
0.0
  0
SPLINE
  5
37E
100
AcDbEntity
  8
0
100
AcDbSpline
 62
7
  6
CONTINUOUS
 70
0
 71
3
 72
10
 73
6
 74
0
 42
0.0000001
 43
0.0000001
 44
0.0000000001
 40
0.0
 40
0.0
 40
0.0
 40
0.0
 40
0.4382493736
 40
0.6848397913
 40
1.0
 40
1.0
 40
1.0
 40
1.0
 10
230.478363273
 20
45.806409167
 30
0.0
 10
230.448105474
 20
45.8202692914
 30
0.0
 10
230.4022622832
 20
45.8453530552
 30
0.0
 10
230.3465934738
 20
45.9003325963
 30
0.0
 10
230.3425035654
 20
45.9482350666
 30
0.0
 10
230.3488276563
 20
45.9713180768
 30
0.0
  0
SPLINE
  5
37F
100
AcDbEntity
  8
0
100
AcDbSpline
 62
7
  6
CONTINUOUS
 70
0
 71
3
 72
8
 73
4
 74
0
 42
0.0000001
 43
0.0000001
 44
0.0000000001
 40
0.0
 40
0.0
 40
0.0
 40
0.0
 40
1.0
 40
1.0
 40
1.0
 40
1.0
 10
231.6913428313
 20
45.9839174811
 30
0.0
 10
231.6913399363
 20
45.967457303
 30
0.0
 10
231.6854849107
 20
45.9348536614
 30
0.0
 10
231.6697032556
 20
45.939530929
 30
0.0
  0
ENDSEC
  0
SECTION
  2
OBJECTS
  0
DICTIONARY
  5
C
100
AcDbDictionary
280
0
281
1
  3
ACAD_GROUP
350
D
  3
ACAD_MLINESTYLE
350
17
  3
ACAD_LAYOUT
350
1A
  3
ACAD_PLOTSETTINGS
350
19
  3
ACAD_PLOTSTYLENAME
350
E
  0
DICTIONARY
  5
D
102
{ACAD_REACTORS
330
C
102
}
100
AcDbDictionary
280
0
281
1
  0
ACDBDICTIONARYWDFLT
  5
E
102
{ACAD_REACTORS
330
C
102
}
100
AcDbDictionary
281
1
  3
Normal
350
F
100
AcDbDictionaryWithDefault
340
F
  0
DICTIONARY
  5
17
102
{ACAD_REACTORS
330
C
102
}
100
AcDbDictionary
280
0
281
1
  3
Standard
350
18
  0
DICTIONARY
  5
19
102
{ACAD_REACTORS
330
C
102
}
100
AcDbDictionary
281
1
  0
DICTIONARY
  5
1A
102
{ACAD_REACTORS
330
C
102
}
100
AcDbDictionary
281
1
  3
Model
350
380
  3
Layout1
350
381
  0
ACDBPLACEHOLDER
  5
F
102
{ACAD_REACTORS
330
E
102
}
  0
MLINESTYLE
  5
18
102
{ACAD_REACTORS
330
17
102
}
100
AcDbMlineStyle
  2
STANDARD
 70
0
  3

 62
256
 51
90.0
 52
90.0
 71
2
 49
0.5
 62
256
  6
BYLAYER
 49
-0.5
 62
256
  6
BYLAYER
  0
LAYOUT
  5
380
102
{ACAD_REACTORS
330
1A
102
}
100
AcDbPlotSettings
  1

  2
none_device
  4

  6

 40
0.0
 41
0.0
 42
0.0
 43
0.0
 44
210.0
 45
297.0
 46
0.0
 47
0.0
 48
0.0
 49
0.0
140
0.0
141
0.0
142
1.0
143
1.0
 70
1024
 72
1
 73
0
 74
0
  7

 75
0
147
1.0
148
0.0
149
0.0
100
AcDbLayout
  1
Model
 70
0
 71
0
 10
0.0
 20
0.0
 11
210.0
 21
297.0
 12
0.0
 22
0.0
 32
0.0
 14
0.0
 24
0.0
 34
0.0
 15
0.0
 25
0.0
 35
0.0
146
0.0
 13
0.0
 23
0.0
 33
0.0
 16
1.0
 26
0.0
 36
0.0
 17
0.0
 27
1.0
 37
0.0
 76
0
330
210
345
0
346
0
  0
LAYOUT
  5
381
102
{ACAD_REACTORS
330
1A
102
}
100
AcDbPlotSettings
  1

  2
none_device
  4

  6

 40
0.0
 41
0.0
 42
0.0
 43
0.0
 44
210.0
 45
297.0
 46
0.0
 47
0.0
 48
0.0
 49
0.0
140
0.0
141
0.0
142
1.0
143
1.0
 70
0
 72
1
 73
0
 74
0
  7

 75
0
147
1.0
148
0.0
149
0.0
100
AcDbLayout
  1
Layout1
 70
0
 71
1
 10
0.0
 20
0.0
 11
210.0
 21
297.0
 12
0.0
 22
0.0
 32
0.0
 14
0.0
 24
0.0
 34
0.0
 15
0.0
 25
0.0
 35
0.0
146
0.0
 13
0.0
 23
0.0
 33
0.0
 16
1.0
 26
0.0
 36
0.0
 17
0.0
 27
1.0
 37
0.0
 76
0
330
211
345
0
346
0
  0
ENDSEC
  0
EOF
