999
DXF file: C:\Users\sesa63760\Dev\_Creo\CAD\MCADID0005514_3D-CAD\drw0001_4.dxf
999
Pro/ENGINEER 2019471 by Parametric Technology Corporation
  0
SECTION
  2
HEADER
  9
$ACADVER
  1
AC1024
  9
$DWGCODEPAGE
  3
ANSI_1252
  9
$EXTMAX
 10
92.6274817137
 20
131.0017241379
 30
0.0
  9
$EXTMIN
 10
0.0
 20
0.0
 30
0.0
  9
$LIMMIN
 10
0.0
 20
0.0
  9
$LIMMAX
 10
92.6274817137
 20
131.0017241379
  9
$VIEWCTR
 10
46.3137408568
 20
65.500862069
  9
$VIEWSIZE
 40
131.0017241379
  9
$CLAYER
  8
0
  9
$LTSCALE
 40
8.5393716475
  9
$CELTYPE
  6
BYLAYER
  9
$DIMSCALE
 40
1.0
  9
$DIMASZ
 40
1.1027081156
  9
$DIMEXO
 40
1.0
  9
$DIMDLI
 40
5.8999295019
  9
$DIMEXE
 40
1.0
  9
$DIMCEN
 40
1.3973517241
  9
$DIMLFAC
 40
1.0
  9
$DIMBLK
  1
_FILLED
  9
$DIMALT
 70
0
  9
$DIMALTF
 40
0.0393700787
  9
$DIMTXT
 40
1.5437913619
  9
$DIMTOL
 70
1
  9
$DIMLIM
 70
0
  9
$DIMTFAC
 40
1.0
  9
$DIMTP
 40
0.01
  9
$DIMTM
 40
0.01
  9
$DIMGAP
 40
0.625
  9
$DIMDSEP
 70
46
  9
$AUNITS
 70
0
  9
$PDMODE
 70
3
  9
$PDSIZE
 40
0.3125
  9
$HANDSEED
  5
262
  9
$TILEMODE
 70
1
  9
$MEASUREMENT
 70
1
  9
$INSUNITS
 70
4
  0
ENDSEC
  0
SECTION
  2
CLASSES
  0
CLASS
  1
ACDBDICTIONARYWDFLT
  2
AcDbDictionaryWithDefault
  3
AutoCAD 2000
 90
0
 91
1
280
0
281
0
  0
CLASS
  1
ACDBPLACEHOLDER
  2
AcDbPlaceHolder
  3
AutoCAD 2000
 90
0
 91
1
280
0
281
0
  0
CLASS
  1
LAYOUT
  2
AcDbLayout
  3
AutoCAD 2000
 90
0
 91
0
280
0
281
0
  0
ENDSEC
  0
SECTION
  2
TABLES
  0
TABLE
  2
VPORT
  5
8
100
AcDbSymbolTable
 70
2
  0
VPORT
  5
1F4
100
AcDbSymbolTableRecord
100
AcDbViewportTableRecord
  2
*ACTIVE
 70
0
 10
0.0
 20
0.0
 11
1.0
 21
1.0
 12
46.3137408568
 22
65.500862069
 13
0.0
 23
0.0
 14
1.0
 24
1.0
 15
0.0
 25
0.0
 16
0.0
 26
0.0
 36
1.0
 17
0.0
 27
0.0
 37
0.0
 40
131.0017241379
 41
0.7070707071
 42
50.0
 43
0.0
 44
0.0
 50
0.0
 51
0.0
 71
0
 72
100
 73
1
 74
1
 75
0
 76
0
 77
0
 78
0
  0
ENDTAB
  0
TABLE
  2
LTYPE
  5
5
100
AcDbSymbolTable
 70
6
  0
LTYPE
  5
14
100
AcDbSymbolTableRecord
100
AcDbLinetypeTableRecord
  2
BYBLOCK
 70
0
  3

 72
65
 73
0
 40
0.0
  0
LTYPE
  5
15
100
AcDbSymbolTableRecord
100
AcDbLinetypeTableRecord
  2
BYLAYER
 70
0
  3

 72
65
 73
0
 40
0.0
  0
LTYPE
  5
16
100
AcDbSymbolTableRecord
100
AcDbLinetypeTableRecord
  2
CONTINUOUS
 70
64
  3
Solid line
 72
65
 73
0
 40
0.0
  0
LTYPE
  5
1F5
100
AcDbSymbolTableRecord
100
AcDbLinetypeTableRecord
  2
CENTER
 70
64
  3
____ _ ____ _ ____ _ ____ _ ____ _ ____ _ ____
 72
65
 73
4
 40
0.6
 49
0.375
 74
0
 49
-0.075
 74
0
 49
0.075
 74
0
 49
-0.075
 74
0
  0
LTYPE
  5
1F6
100
AcDbSymbolTableRecord
100
AcDbLinetypeTableRecord
  2
HIDDEN
 70
64
  3
- - - - - - - - - - - - - - - - - - - -
 72
65
 73
2
 40
0.2
 49
0.1
 74
0
 49
-0.1
 74
0
  0
LTYPE
  5
1F7
100
AcDbSymbolTableRecord
100
AcDbLinetypeTableRecord
  2
PHANTOM
 70
64
  3
_____ _ _ _____ _ _ _____ _ _ _____
 72
65
 73
6
 40
0.8
 49
0.45
 74
0
 49
-0.05
 74
0
 49
0.1
 74
0
 49
-0.05
 74
0
 49
0.1
 74
0
 49
-0.05
 74
0
  0
LTYPE
  5
1F8
100
AcDbSymbolTableRecord
100
AcDbLinetypeTableRecord
  2
DOT
 70
64
  3
. . . . . . . . . . . . . . . . . . . .
 72
65
 73
2
 40
0.2
 49
0.1
 74
0
 49
-0.1
 74
0
  0
LTYPE
  5
1F9
100
AcDbSymbolTableRecord
100
AcDbLinetypeTableRecord
  2
DASHED
 70
64
  3
- - - - - - - - - - - - - - - - - - - -
 72
65
 73
2
 40
0.2
 49
0.1
 74
0
 49
-0.1
 74
0
  0
ENDTAB
  0
TABLE
  2
LAYER
  5
2
100
AcDbSymbolTable
 70
36
  0
LAYER
  5
10
100
AcDbSymbolTableRecord
100
AcDbLayerTableRecord
  2
0
 70
0
 62
7
  6
CONTINUOUS
370
-3
390
F
  0
LAYER
  5
1FA
100
AcDbSymbolTableRecord
100
AcDbLayerTableRecord
  2
DEFAULT_1
 70
0
 62
7
  6
CENTER
370
-3
390
F
  0
LAYER
  5
1FB
100
AcDbSymbolTableRecord
100
AcDbLayerTableRecord
  2
DEFAULT_2
 70
0
 62
7
  6
HIDDEN
370
-3
390
F
  0
LAYER
  5
1FC
100
AcDbSymbolTableRecord
100
AcDbLayerTableRecord
  2
DEFAULT_3
 70
0
 62
7
  6
PHANTOM
370
-3
390
F
  0
LAYER
  5
1FD
100
AcDbSymbolTableRecord
100
AcDbLayerTableRecord
  2
00_COMPONENTS
 70
0
 62
7
  6
CONTINUOUS
370
-3
390
F
  0
LAYER
  5
1FE
100
AcDbSymbolTableRecord
100
AcDbLayerTableRecord
  2
01_1_DEFAULT_DATUMS
 70
0
 62
7
  6
CONTINUOUS
370
-3
390
F
  0
LAYER
  5
1FF
100
AcDbSymbolTableRecord
100
AcDbLayerTableRecord
  2
01_PLANES
 70
0
 62
7
  6
CONTINUOUS
370
-3
390
F
  0
LAYER
  5
200
100
AcDbSymbolTableRecord
100
AcDbLayerTableRecord
  2
02_COORD_SYS
 70
0
 62
7
  6
CONTINUOUS
370
-3
390
F
  0
LAYER
  5
201
100
AcDbSymbolTableRecord
100
AcDbLayerTableRecord
  2
03_AXES
 70
0
 62
7
  6
CONTINUOUS
370
-3
390
F
  0
LAYER
  5
202
100
AcDbSymbolTableRecord
100
AcDbLayerTableRecord
  2
04_POINTS
 70
0
 62
7
  6
CONTINUOUS
370
-3
390
F
  0
LAYER
  5
203
100
AcDbSymbolTableRecord
100
AcDbLayerTableRecord
  2
05_CURVES
 70
0
 62
7
  6
CONTINUOUS
370
-3
390
F
  0
LAYER
  5
204
100
AcDbSymbolTableRecord
100
AcDbLayerTableRecord
  2
06_SURFS
 70
0
 62
7
  6
CONTINUOUS
370
-3
390
F
  0
LAYER
  5
205
100
AcDbSymbolTableRecord
100
AcDbLayerTableRecord
  2
07_COSMETICS
 70
0
 62
7
  6
CONTINUOUS
370
-3
390
F
  0
LAYER
  5
206
100
AcDbSymbolTableRecord
100
AcDbLayerTableRecord
  2
10_NOTES
 70
0
 62
7
  6
CONTINUOUS
370
-3
390
F
  0
LAYER
  5
207
100
AcDbSymbolTableRecord
100
AcDbLayerTableRecord
  2
11_NOTES_PUB
 70
0
 62
7
  6
CONTINUOUS
370
-3
390
F
  0
LAYER
  5
208
100
AcDbSymbolTableRecord
100
AcDbLayerTableRecord
  2
13_REF_GTOL
 70
0
 62
7
  6
CONTINUOUS
370
-3
390
F
  0
LAYER
  5
209
100
AcDbSymbolTableRecord
100
AcDbLayerTableRecord
  2
16_MISC
 70
0
 62
7
  6
CONTINUOUS
370
-3
390
F
  0
LAYER
  5
20A
100
AcDbSymbolTableRecord
100
AcDbLayerTableRecord
  2
17_NO_PRINT
 70
0
 62
7
  6
CONTINUOUS
370
-3
390
F
  0
LAYER
  5
20B
100
AcDbSymbolTableRecord
100
AcDbLayerTableRecord
  2
18_DATUM_CAMS_JOINTS
 70
0
 62
7
  6
CONTINUOUS
370
-3
390
F
  0
LAYER
  5
20C
100
AcDbSymbolTableRecord
100
AcDbLayerTableRecord
  2
19_DATUM_FUNCTIONAL
 70
0
 62
7
  6
CONTINUOUS
370
-3
390
F
  0
LAYER
  5
20D
100
AcDbSymbolTableRecord
100
AcDbLayerTableRecord
  2
20_DATUM_KINEMATIC_SCHEME
 70
0
 62
7
  6
CONTINUOUS
370
-3
390
F
  0
LAYER
  5
20E
100
AcDbSymbolTableRecord
100
AcDbLayerTableRecord
  2
64
 70
0
 62
7
  6
CONTINUOUS
370
-3
390
F
  0
ENDTAB
  0
TABLE
  2
STYLE
  5
3
100
AcDbSymbolTable
 70
1
  0
STYLE
  5
11
100
AcDbSymbolTableRecord
100
AcDbTextStyleTableRecord
  2
STANDARD
 70
0
 40
0.0
 41
1.0
 50
0.0
 71
0
 42
0.2
  3
ARIAL.TTF
  4

  0
STYLE
  5
20F
100
AcDbSymbolTableRecord
100
AcDbTextStyleTableRecord
  2
TEXTSTYLE_1
 70
0
 40
0.0
 41
0.8
 50
0.0
 71
0
 42
0.2
  3
gdt
  4

  0
ENDTAB
  0
TABLE
  2
VIEW
  5
6
100
AcDbSymbolTable
 70
0
  0
ENDTAB
  0
TABLE
  2
UCS
  5
7
100
AcDbSymbolTable
 70
0
  0
ENDTAB
  0
TABLE
  2
APPID
  5
9
100
AcDbSymbolTable
 70
1
  0
APPID
  5
210
100
AcDbSymbolTableRecord
100
AcDbRegAppTableRecord
  2
ACAD
 70
0
  0
ENDTAB
  0
TABLE
  2
BLOCK_RECORD
  5
1
100
AcDbSymbolTable
 70
0
  0
BLOCK_RECORD
  5
211
100
AcDbSymbolTableRecord
100
AcDbBlockTableRecord
  2
*Model_Space
  0
BLOCK_RECORD
  5
212
100
AcDbSymbolTableRecord
100
AcDbBlockTableRecord
  2
*Paper_Space
  0
BLOCK_RECORD
  5
213
100
AcDbSymbolTableRecord
100
AcDbBlockTableRecord
  2
_FILLED
  0
ENDTAB
  0
TABLE
  2
DIMSTYLE
  5
A
100
AcDbSymbolTable
 70
1
100
AcDbDimStyleTable
 71
0
  0
DIMSTYLE
105
214
100
AcDbSymbolTableRecord
100
AcDbDimStyleTableRecord
  2
STANDARD
 70
0
  3

  4

 40
1.0
 41
1.1027081156
 42
1.0
 43
0.38
 44
1.0
 45
0.0
 46
0.0
 47
0.01
 48
0.01
140
1.5437913619
141
0.09
142
0.0
143
25.4
144
1.0
145
0.0
146
1.0
147
0.625
 71
1
 72
0
 73
0
 74
0
 75
0
 76
0
 77
1
 78
8
 79
2
170
0
171
1
172
0
173
0
174
0
175
0
176
0
177
0
178
0
270
2
179
2
271
2
272
2
273
2
274
2
275
0
280
0
281
0
282
0
283
1
284
8
285
0
286
0
287
3
288
0
340
11
278
46
341
213
342
213
343
213
344
213
  0
ENDTAB
  0
ENDSEC
  0
SECTION
  2
BLOCKS
  0
BLOCK
  5
20
100
AcDbEntity
  8
0
100
AcDbBlockBegin
  2
*Model_Space
 70
0
 10
0.0
 20
0.0
 30
0.0
  3
*Model_Space
  1

  0
ENDBLK
  5
21
100
AcDbEntity
  8
0
100
AcDbBlockEnd
  0
BLOCK
  5
1C
100
AcDbEntity
  8
0
100
AcDbBlockBegin
  2
*Paper_Space
 70
0
 10
0.0
 20
0.0
 30
0.0
  3
*Paper_Space
  1

  0
ENDBLK
  5
1D
100
AcDbEntity
  8
0
100
AcDbBlockEnd
  0
BLOCK
  5
215
100
AcDbEntity
  8
0
100
AcDbBlockBegin
  2
_FILLED
 70
64
 10
0.0
 20
0.0
  3
_FILLED
  1

  0
SOLID
  5
216
100
AcDbEntity
  8
0
  6
BYBLOCK
 62
0
100
AcDbTrace
 10
0.0
 20
0.0
 11
-1.0
 21
0.25
 12
-1.0
 22
-0.25
 13
-1.0
 23
-0.25
  0
ENDBLK
  5
217
100
AcDbEntity
  8
0
  6
BYBLOCK
 62
0
100
AcDbBlockEnd
  0
ENDSEC
  0
SECTION
  2
ENTITIES
  0
LINE
  5
218
100
AcDbEntity
  8
64
100
AcDbLine
 62
7
  6
BYLAYER
 10
10.3163270637
 20
69.9297958971
 11
10.3163270637
 21
59.9297958971
  0
LINE
  5
219
100
AcDbEntity
  8
64
100
AcDbLine
 62
7
  6
BYLAYER
 10
10.5163270637
 20
71.05
 11
10.5163270637
 21
58.95
  0
LINE
  5
21A
100
AcDbEntity
  8
64
100
AcDbLine
 62
7
  6
BYLAYER
 10
11.4961229609
 20
71.25
 11
11.4961229609
 21
71.05
  0
LINE
  5
21B
100
AcDbEntity
  8
64
100
AcDbLine
 62
7
  6
BYLAYER
 10
11.9961229609
 20
71.25
 11
11.9961229609
 21
71.05
  0
LINE
  5
21C
100
AcDbEntity
  8
64
100
AcDbLine
 62
7
  6
BYLAYER
 10
14.8663270637
 20
71.05
 11
14.8663270637
 21
58.95
  0
LINE
  5
21D
100
AcDbEntity
  8
64
100
AcDbLine
 62
7
  6
BYLAYER
 10
19.1663270637
 20
71.05
 11
19.1663270637
 21
58.95
  0
LINE
  5
21E
100
AcDbEntity
  8
64
100
AcDbLine
 62
7
  6
BYLAYER
 10
21.1163270637
 20
61.5794737247
 11
21.1163270637
 21
68.4200386645
  0
LINE
  5
21F
100
AcDbEntity
  8
64
100
AcDbLine
 62
7
  6
BYLAYER
 10
22.1163270637
 20
66.7320508076
 11
22.1163270637
 21
63.2679491924
  0
LINE
  5
220
100
AcDbEntity
  8
64
100
AcDbLine
 62
7
  6
BYLAYER
 10
22.8663270637
 20
71.05
 11
22.8663270637
 21
58.95
  0
LINE
  5
221
100
AcDbEntity
  8
64
100
AcDbLine
 62
7
  6
BYLAYER
 10
27.1663270637
 20
71.05
 11
27.1663270637
 21
58.95
  0
LINE
  5
222
100
AcDbEntity
  8
64
100
AcDbLine
 62
7
  6
BYLAYER
 10
10.5163270637
 20
58.95
 11
84.5163270637
 21
58.95
  0
LINE
  5
223
100
AcDbEntity
  8
64
100
AcDbLine
 62
7
  6
BYLAYER
 10
10.5163270637
 20
59.9297958971
 11
10.3163270637
 21
59.9297958971
  0
LINE
  5
224
100
AcDbEntity
  8
64
100
AcDbLine
 62
7
  6
BYLAYER
 10
84.7163270637
 20
60.0702041029
 11
84.5163270637
 21
60.0702041029
  0
LINE
  5
225
100
AcDbEntity
  8
64
100
AcDbLine
 62
7
  6
BYLAYER
 10
10.5163270637
 20
60.4297958971
 11
10.3163270637
 21
60.4297958971
  0
LINE
  5
226
100
AcDbEntity
  8
64
100
AcDbLine
 62
7
  6
BYLAYER
 10
84.7163270637
 20
60.5702041029
 11
84.5163270637
 21
60.5702041029
  0
LINE
  5
227
100
AcDbEntity
  8
64
100
AcDbLine
 62
7
  6
BYLAYER
 10
45.9961229609
 20
71.25
 11
45.9961229609
 21
71.05
  0
LINE
  5
228
100
AcDbEntity
  8
64
100
AcDbLine
 62
7
  6
BYLAYER
 10
46.4961229609
 20
71.25
 11
46.4961229609
 21
71.05
  0
LINE
  5
229
100
AcDbEntity
  8
64
100
AcDbLine
 62
7
  6
BYLAYER
 10
79.4135650408
 20
61.1909178209
 11
75.2911841201
 21
61.6689089763
  0
LINE
  5
22A
100
AcDbEntity
  8
64
100
AcDbLine
 62
7
  6
BYLAYER
 10
79.3540263187
 20
61.32859549
 11
75.380647118
 21
61.7893098566
  0
LINE
  5
22B
100
AcDbEntity
  8
64
100
AcDbLine
 62
7
  6
BYLAYER
 10
10.5163270637
 20
69.4297958971
 11
10.3163270637
 21
69.4297958971
  0
LINE
  5
22C
100
AcDbEntity
  8
64
100
AcDbLine
 62
7
  6
BYLAYER
 10
84.7163270637
 20
69.5702041029
 11
84.5163270637
 21
69.5702041029
  0
LINE
  5
22D
100
AcDbEntity
  8
64
100
AcDbLine
 62
7
  6
BYLAYER
 10
10.5163270637
 20
69.9297958971
 11
10.3163270637
 21
69.9297958971
  0
LINE
  5
22E
100
AcDbEntity
  8
64
100
AcDbLine
 62
7
  6
BYLAYER
 10
84.7163270637
 20
70.0702041029
 11
84.5163270637
 21
70.0702041029
  0
LINE
  5
22F
100
AcDbEntity
  8
64
100
AcDbLine
 62
7
  6
BYLAYER
 10
54.8663270637
 20
71.05
 11
54.8663270637
 21
58.95
  0
LINE
  5
230
100
AcDbEntity
  8
64
100
AcDbLine
 62
7
  6
BYLAYER
 10
10.5163270637
 20
71.05
 11
84.5163270637
 21
71.05
  0
LINE
  5
231
100
AcDbEntity
  8
64
100
AcDbLine
 62
7
  6
BYLAYER
 10
46.4961229609
 20
71.25
 11
11.4961229609
 21
71.25
  0
LINE
  5
232
100
AcDbEntity
  8
64
100
AcDbLine
 62
7
  6
BYLAYER
 10
80.1520070094
 20
68.2106901434
 11
76.1786278088
 21
68.67140451
  0
LINE
  5
233
100
AcDbEntity
  8
64
100
AcDbLine
 62
7
  6
BYLAYER
 10
80.2414700074
 20
68.3310910237
 11
76.1190890867
 21
68.8090821791
  0
LINE
  5
234
100
AcDbEntity
  8
64
100
AcDbLine
 62
7
  6
BYLAYER
 10
59.1663270637
 20
71.05
 11
59.1663270637
 21
58.95
  0
LINE
  5
235
100
AcDbEntity
  8
64
100
AcDbLine
 62
7
  6
BYLAYER
 10
62.8663270637
 20
71.05
 11
62.8663270637
 21
58.95
  0
LINE
  5
236
100
AcDbEntity
  8
64
100
AcDbLine
 62
7
  6
BYLAYER
 10
67.1663270637
 20
71.05
 11
67.1663270637
 21
58.95
  0
LINE
  5
237
100
AcDbEntity
  8
64
100
AcDbLine
 62
7
  6
BYLAYER
 10
76.1190890867
 20
68.8090821791
 11
73.643946143
 21
65.4779911553
  0
LINE
  5
238
100
AcDbEntity
  8
64
100
AcDbLine
 62
7
  6
BYLAYER
 10
76.1786278088
 20
68.67140451
 11
73.7929478631
 21
65.4607143666
  0
LINE
  5
239
100
AcDbEntity
  8
64
100
AcDbLine
 62
7
  6
BYLAYER
 10
72.9163270637
 20
63.2679491924
 11
72.9163270637
 21
66.7320508076
  0
LINE
  5
23A
100
AcDbEntity
  8
64
100
AcDbLine
 62
7
  6
BYLAYER
 10
75.2911841201
 20
61.6689089763
 11
73.643946143
 21
65.4779911553
  0
LINE
  5
23B
100
AcDbEntity
  8
64
100
AcDbLine
 62
7
  6
BYLAYER
 10
73.7929478631
 20
65.4607143666
 11
75.380647118
 21
61.7893098566
  0
LINE
  5
23C
100
AcDbEntity
  8
64
100
AcDbLine
 62
7
  6
BYLAYER
 10
73.9163270637
 20
68.4205262753
 11
73.9163270637
 21
61.5794737247
  0
LINE
  5
23D
100
AcDbEntity
  8
64
100
AcDbLine
 62
7
  6
BYLAYER
 10
81.7397062644
 20
64.5392856334
 11
79.3540263187
 21
61.32859549
  0
LINE
  5
23E
100
AcDbEntity
  8
64
100
AcDbLine
 62
7
  6
BYLAYER
 10
81.8887079844
 20
64.5220088447
 11
79.4135650408
 21
61.1909178209
  0
LINE
  5
23F
100
AcDbEntity
  8
64
100
AcDbLine
 62
7
  6
BYLAYER
 10
81.7397062644
 20
64.5392856334
 11
80.1520070094
 21
68.2106901434
  0
LINE
  5
240
100
AcDbEntity
  8
64
100
AcDbLine
 62
7
  6
BYLAYER
 10
80.2414700074
 20
68.3310910237
 11
81.8887079844
 21
64.5220088447
  0
LINE
  5
241
100
AcDbEntity
  8
64
100
AcDbLine
 62
7
  6
BYLAYER
 10
84.5163270637
 20
71.05
 11
84.5163270637
 21
58.95
  0
LINE
  5
242
100
AcDbEntity
  8
64
100
AcDbLine
 62
7
  6
BYLAYER
 10
84.7163270637
 20
70.0702041029
 11
84.7163270637
 21
60.0702041029
  0
CIRCLE
  5
243
100
AcDbEntity
  8
64
100
AcDbCircle
 62
7
  6
BYLAYER
 10
17.2663270637
 20
65.0
 40
5.25
  0
CIRCLE
  5
244
100
AcDbEntity
  8
64
100
AcDbCircle
 62
7
  6
BYLAYER
 10
17.2663270637
 20
65.0
 40
5.15
  0
ARC
  5
245
100
AcDbEntity
  8
64
100
AcDbCircle
 62
7
  6
BYLAYER
 10
17.2663270637
 20
65.0
 40
4.65
100
AcDbArc
 50
34.1105601788
 51
325.8894398212
  0
ARC
  5
246
100
AcDbEntity
  8
64
100
AcDbCircle
 62
7
  6
BYLAYER
 10
77.7662221915
 20
64.9999801747
 40
3.9999073153
100
AcDbArc
 50
21.4203711323
 51
293.3875654449
  0
CIRCLE
  5
247
100
AcDbEntity
  8
64
100
AcDbCircle
 62
7
  6
BYLAYER
 10
77.7663270637
 20
63.25
 40
0.5
  0
CIRCLE
  5
248
100
AcDbEntity
  8
64
100
AcDbCircle
 62
7
  6
BYLAYER
 10
76.0163270637
 20
65.0
 40
0.5
  0
CIRCLE
  5
249
100
AcDbEntity
  8
64
100
AcDbCircle
 62
7
  6
BYLAYER
 10
77.7663270637
 20
65.0
 40
5.9
  0
CIRCLE
  5
24A
100
AcDbEntity
  8
64
100
AcDbCircle
 62
7
  6
BYLAYER
 10
77.7663270637
 20
65.0
 40
5.4
  0
CIRCLE
  5
24B
100
AcDbEntity
  8
64
100
AcDbCircle
 62
7
  6
BYLAYER
 10
77.7663270637
 20
65.0
 40
5.25
  0
CIRCLE
  5
24C
100
AcDbEntity
  8
64
100
AcDbCircle
 62
7
  6
BYLAYER
 10
77.7663270637
 20
65.0
 40
5.15
  0
ARC
  5
24D
100
AcDbEntity
  8
64
100
AcDbCircle
 62
7
  6
BYLAYER
 10
77.7663270637
 20
65.0
 40
4.65
100
AcDbArc
 50
214.1105601788
 51
145.8894398212
  0
CIRCLE
  5
24E
100
AcDbEntity
  8
0
100
AcDbCircle
 62
7
  6
BYLAYER
 10
77.7663270637
 20
65.0
 40
4.0
  0
ARC
  5
24F
100
AcDbEntity
  8
64
100
AcDbCircle
 62
7
  6
BYLAYER
 10
77.7664321784
 20
65.0000194347
 40
3.9999075559
100
AcDbArc
 50
201.4203711323
 51
113.3875664114
  0
CIRCLE
  5
250
100
AcDbEntity
  8
64
100
AcDbCircle
 62
7
  6
BYLAYER
 10
77.7663270637
 20
65.0
 40
3.45
  0
CIRCLE
  5
251
100
AcDbEntity
  8
64
100
AcDbCircle
 62
7
  6
BYLAYER
 10
77.7663270637
 20
65.0
 40
3.3
  0
CIRCLE
  5
252
100
AcDbEntity
  8
64
100
AcDbCircle
 62
7
  6
BYLAYER
 10
77.7663270637
 20
65.0
 40
3.0
  0
CIRCLE
  5
253
100
AcDbEntity
  8
64
100
AcDbCircle
 62
7
  6
BYLAYER
 10
77.7663270637
 20
65.0
 40
2.925
  0
CIRCLE
  5
254
100
AcDbEntity
  8
64
100
AcDbCircle
 62
7
  6
BYLAYER
 10
77.7663270637
 20
65.0
 40
2.8
  0
CIRCLE
  5
255
100
AcDbEntity
  8
64
100
AcDbCircle
 62
7
  6
BYLAYER
 10
77.7663270637
 20
66.75
 40
0.5
  0
SPLINE
  5
256
100
AcDbEntity
  8
64
100
AcDbSpline
 62
7
  6
BYLAYER
 70
0
 71
3
 72
75
 73
71
 74
0
 42
0.0000001
 43
0.0000001
 44
0.0000000001
 40
0.0
 40
0.0
 40
0.0
 40
0.0
 40
0.0148713086
 40
0.0301326903
 40
0.0449747152
 40
0.059528404
 40
0.0742296075
 40
0.0889456715
 40
0.1035611549
 40
0.1179623042
 40
0.1322854454
 40
0.1469622477
 40
0.1617703283
 40
0.1761250262
 40
0.1906797849
 40
0.205277045
 40
0.2199483653
 40
0.234550847
 40
0.2491536292
 40
0.2640979597
 40
0.2789315737
 40
0.2934817538
 40
0.308155427
 40
0.3226335805
 40
0.3373975643
 40
0.3520466373
 40
0.3665722655
 40
0.3813508746
 40
0.3961499006
 40
0.4107219616
 40
0.4252653173
 40
0.440319731
 40
0.4554189928
 40
0.4702084846
 40
0.484689919
 40
0.4997224648
 40
0.514848889
 40
0.5295791184
 40
0.5437132629
 40
0.5583237464
 40
0.5732378744
 40
0.5880751974
 40
0.6024158679
 40
0.6170221558
 40
0.6319262507
 40
0.6467390157
 40
0.6612420668
 40
0.675885233
 40
0.6910555597
 40
0.7061962368
 40
0.7207411364
 40
0.7350533432
 40
0.7491684182
 40
0.76383319
 40
0.7787570958
 40
0.793468662
 40
0.8085105148
 40
0.8236126764
 40
0.8383290813
 40
0.8528057665
 40
0.8673658822
 40
0.8821861789
 40
0.8973965157
 40
0.9121163771
 40
0.9269269839
 40
0.9416191989
 40
0.9564843918
 40
0.9711438084
 40
0.9857094346
 40
1.0
 40
1.0
 40
1.0
 40
1.0
 10
81.5047854873
 20
65.3234320069
 30
0.0
 10
81.5315788352
 20
65.0099748233
 30
0.0
 10
81.5060815688
 20
64.3651760086
 30
0.0
 10
81.2267215689
 20
63.4448375761
 30
0.0
 10
80.726827046
 20
62.6312793322
 30
0.0
 10
80.0510064599
 20
61.9746603703
 30
0.0
 10
79.2367876735
 20
61.5050831727
 30
0.0
 10
78.3305423672
 20
61.2508787914
 30
0.0
 10
77.3961519124
 20
61.227507792
 30
0.0
 10
76.4927032179
 20
61.4305993661
 30
0.0
 10
75.6637682025
 20
61.8460535331
 30
0.0
 10
74.9542668633
 20
62.4570336174
 30
0.0
 10
74.4163640396
 20
63.2245914658
 30
0.0
 10
74.0849917479
 20
64.0978311405
 30
0.0
 10
73.9756001738
 20
65.0211784156
 30
0.0
 10
74.0965782478
 20
65.9498301226
 30
0.0
 10
74.4409948833
 20
66.8220264048
 30
0.0
 10
74.9905473924
 20
67.5819493112
 30
0.0
 10
75.7135868156
 20
68.1880881346
 30
0.0
 10
76.5692840476
 20
68.598348104
 30
0.0
 10
77.4989478303
 20
68.7825059828
 30
0.0
 10
78.4390738081
 20
68.7308623963
 30
0.0
 10
79.330843039
 20
68.4528532371
 30
0.0
 10
80.1312128785
 20
67.963063722
 30
0.0
 10
80.7869867817
 20
67.2919357733
 30
0.0
 10
81.2569155284
 20
66.4788324662
 30
0.0
 10
81.5137338523
 20
65.5754148107
 30
0.0
 10
81.5406468951
 20
64.6329231041
 30
0.0
 10
81.3322184986
 20
63.7124077335
 30
0.0
 10
80.9064983663
 20
62.8760303855
 30
0.0
 10
80.2852705354
 20
62.1653854982
 30
0.0
 10
79.4972127965
 20
61.6242532135
 30
0.0
 10
78.5928456432
 20
61.2987387343
 30
0.0
 10
77.6484397495
 20
61.2101818575
 30
0.0
 10
76.7132658798
 20
61.357287797
 30
0.0
 10
75.8361270977
 20
61.734229815
 30
0.0
 10
75.0788944409
 20
62.3243784005
 30
0.0
 10
74.5044193429
 20
63.0689008382
 30
0.0
 10
74.1336665895
 20
63.9201918174
 30
0.0
 10
73.9779638031
 20
64.8402036898
 30
0.0
 10
74.0564308258
 20
65.7854375152
 30
0.0
 10
74.3654860843
 20
66.6760610852
 30
0.0
 10
74.8803067217
 20
67.457051626
 30
0.0
 10
75.5703777448
 20
68.0911379274
 30
0.0
 10
76.4052210846
 20
68.539653516
 30
0.0
 10
77.32322391
 20
68.7655593275
 30
0.0
 10
78.2625444006
 20
68.7582126403
 30
0.0
 10
79.1791535239
 20
68.5197154867
 30
0.0
 10
80.0196490403
 20
68.0525186414
 30
0.0
 10
80.7120146068
 20
67.3883226342
 30
0.0
 10
81.2073060522
 20
66.5891596508
 30
0.0
 10
81.4873315241
 20
65.7148460132
 30
0.0
 10
81.5507850238
 20
64.7967168806
 30
0.0
 10
81.3877885488
 20
63.8769665562
 30
0.0
 10
80.9973696409
 20
63.0138951199
 30
0.0
 10
80.3987014071
 20
62.2698415142
 30
0.0
 10
79.6300532169
 20
61.6958904437
 30
0.0
 10
78.7410121923
 20
61.3352473974
 30
0.0
 10
77.8026864723
 20
61.208629536
 30
0.0
 10
76.8738869912
 20
61.316022023
 30
0.0
 10
75.9969857032
 20
61.646852491
 30
0.0
 10
75.2156582534
 20
62.192854062
 30
0.0
 10
74.5935570756
 20
62.9205564226
 30
0.0
 10
74.1758229166
 20
63.7808380043
 30
0.0
 10
73.9859161818
 20
64.7069965473
 30
0.0
 10
74.0314926367
 20
65.6541814126
 30
0.0
 10
74.3088621667
 20
66.5579711059
 30
0.0
 10
74.8009487401
 20
67.3618155242
 30
0.0
 10
75.4654421408
 20
68.0117831277
 30
0.0
 10
75.9983387923
 20
68.3238078082
 30
0.0
 10
76.2758162832
 20
68.4438094962
 30
0.0
  0
SPLINE
  5
257
100
AcDbEntity
  8
64
100
AcDbSpline
 62
7
  6
BYLAYER
 70
0
 71
3
 72
14
 73
10
 74
0
 42
0.0000001
 43
0.0000001
 44
0.0000000001
 40
0.0
 40
0.0
 40
0.0
 40
0.0
 40
0.1369134983
 40
0.2769875523
 40
0.4191673043
 40
0.5631341613
 40
0.7082869664
 40
0.8537529687
 40
1.0
 40
1.0
 40
1.0
 40
1.0
 10
76.2769808925
 20
68.4442122416
 30
0.0
 10
76.0232105688
 20
68.3476997465
 30
0.0
 10
75.5295678353
 20
68.0953910531
 30
0.0
 10
74.8846011808
 20
67.5606806373
 30
0.0
 10
74.3650298145
 20
66.885076465
 30
0.0
 10
74.0013797421
 20
66.1035119076
 30
0.0
 10
73.8131884265
 20
65.2553383519
 30
0.0
 10
73.8158304799
 20
64.3821497326
 30
0.0
 10
73.9468915634
 20
63.8129250353
 30
0.0
 10
74.0426229373
 20
63.5391688739
 30
0.0
  0
SPLINE
  5
258
100
AcDbEntity
  8
64
100
AcDbSpline
 62
7
  6
BYLAYER
 70
0
 71
3
 72
14
 73
10
 74
0
 42
0.0000001
 43
0.0000001
 44
0.0000000001
 40
0.0
 40
0.0
 40
0.0
 40
0.0
 40
0.144203662
 40
0.2888694413
 40
0.4337254027
 40
0.5783399149
 40
0.7216991426
 40
0.8625118166
 40
1.0
 40
1.0
 40
1.0
 40
1.0
 10
81.3811109959
 20
66.7126987837
 30
0.0
 10
81.2490954809
 20
66.9663238259
 30
0.0
 10
80.9270908599
 20
67.4466251185
 30
0.0
 10
80.2994940772
 20
68.0441268436
 30
0.0
 10
79.5563197564
 20
68.4921615439
 30
0.0
 10
78.7359599267
 20
68.766891735
 30
0.0
 10
77.8830051616
 20
68.8539899069
 30
0.0
 10
77.0465473695
 20
68.7511479262
 30
0.0
 10
76.5221020575
 20
68.5635111316
 30
0.0
 10
76.2769808925
 20
68.4442122416
 30
0.0
  0
SPLINE
  5
259
100
AcDbEntity
  8
64
100
AcDbSpline
 62
7
  6
BYLAYER
 70
0
 71
3
 72
14
 73
10
 74
0
 42
0.0000001
 43
0.0000001
 44
0.0000000001
 40
0.0
 40
0.0
 40
0.0
 40
0.0
 40
0.1453423322
 40
0.2901842162
 40
0.4348444531
 40
0.5786867611
 40
0.7212464601
 40
0.8617780275
 40
1.0
 40
1.0
 40
1.0
 40
1.0
 10
78.3037804622
 20
61.0362714719
 30
0.0
 10
78.5847209073
 20
61.0862405875
 30
0.0
 10
79.1365283074
 20
61.2483069424
 30
0.0
 10
79.8902595665
 20
61.661960304
 30
0.0
 10
80.5391299797
 20
62.2226264775
 30
0.0
 10
81.0455330392
 20
62.9095387002
 30
0.0
 10
81.3856974428
 20
63.6829155224
 30
0.0
 10
81.550708131
 20
64.49976461
 30
0.0
 10
81.5398938004
 20
65.0520920618
 30
0.0
 10
81.5050234146
 20
65.321212693
 30
0.0
  0
SPLINE
  5
25A
100
AcDbEntity
  8
64
100
AcDbSpline
 62
7
  6
BYLAYER
 70
0
 71
3
 72
14
 73
10
 74
0
 42
0.0000001
 43
0.0000001
 44
0.0000000001
 40
0.0
 40
0.0
 40
0.0
 40
0.0
 40
0.1389213591
 40
0.279179981
 40
0.4205221984
 40
0.5631245937
 40
0.7071583211
 40
0.8523635423
 40
1.0
 40
1.0
 40
1.0
 40
1.0
 10
81.5050234146
 20
65.321212693
 30
0.0
 10
81.4933901723
 20
65.6001008174
 30
0.0
 10
81.4049456261
 20
66.1597827747
 30
0.0
 10
81.0889567664
 20
66.9504882772
 30
0.0
 10
80.6036820024
 20
67.6596888818
 30
0.0
 10
79.9691793252
 20
68.2504591887
 30
0.0
 10
79.21291661
 20
68.6906725452
 30
0.0
 10
78.3680940271
 20
68.954105902
 30
0.0
 10
77.7756112582
 20
68.9995125366
 30
0.0
 10
77.4791327295
 20
68.9896766052
 30
0.0
  0
SPLINE
  5
25B
100
AcDbEntity
  8
64
100
AcDbSpline
 62
7
  6
BYLAYER
 70
0
 71
3
 72
14
 73
10
 74
0
 42
0.0000001
 43
0.0000001
 44
0.0000000001
 40
0.0
 40
0.0
 40
0.0
 40
0.0
 40
0.1453423322
 40
0.2901842162
 40
0.4348444531
 40
0.5786867611
 40
0.7212464601
 40
0.8617780275
 40
1.0
 40
1.0
 40
1.0
 40
1.0
 10
77.2288736653
 20
68.9637285281
 30
0.0
 10
76.9479332202
 20
68.9137594125
 30
0.0
 10
76.3961258201
 20
68.7516930576
 30
0.0
 10
75.642394561
 20
68.338039696
 30
0.0
 10
74.9935241478
 20
67.7773735225
 30
0.0
 10
74.4871210885
 20
67.0904612998
 30
0.0
 10
74.1469566841
 20
66.3170844775
 30
0.0
 10
73.9819459987
 20
65.5002353903
 30
0.0
 10
73.9927603224
 20
64.9479079376
 30
0.0
 10
74.0276307129
 20
64.6787873071
 30
0.0
  0
SPLINE
  5
25C
100
AcDbEntity
  8
64
100
AcDbSpline
 62
7
  6
BYLAYER
 70
0
 71
3
 72
14
 73
10
 74
0
 42
0.0000001
 43
0.0000001
 44
0.0000000001
 40
0.0
 40
0.0
 40
0.0
 40
0.0
 40
0.1389213592
 40
0.279179981
 40
0.4205221984
 40
0.5631245937
 40
0.7071583211
 40
0.8523635423
 40
1.0
 40
1.0
 40
1.0
 40
1.0
 10
74.0276307129
 20
64.6787873071
 30
0.0
 10
74.0392634497
 20
64.3998991615
 30
0.0
 10
74.1277087383
 20
63.8402172353
 30
0.0
 10
74.4436972968
 20
63.0495117202
 30
0.0
 10
74.9289721425
 20
62.3403111189
 30
0.0
 10
75.5634747975
 20
61.7495408111
 30
0.0
 10
76.3197375188
 20
61.3093274549
 30
0.0
 10
77.1645601
 20
61.045894098
 30
0.0
 10
77.7570428693
 20
61.0004874634
 30
0.0
 10
78.0535213979
 20
61.0103233948
 30
0.0
  0
SPLINE
  5
25D
100
AcDbEntity
  8
64
100
AcDbSpline
 62
7
  6
BYLAYER
 70
0
 71
3
 72
75
 73
71
 74
0
 42
0.0000001
 43
0.0000001
 44
0.0000000001
 40
0.0
 40
0.0
 40
0.0
 40
0.0
 40
0.0144409329
 40
0.0288230485
 40
0.0432313816
 40
0.0579676277
 40
0.073172004
 40
0.0880249567
 40
0.1025366317
 40
0.1174251872
 40
0.1320406321
 40
0.1468035826
 40
0.1613054357
 40
0.1760265923
 40
0.1909678268
 40
0.2058278515
 40
0.2203465258
 40
0.2351244252
 40
0.2497933384
 40
0.2650116028
 40
0.2797369919
 40
0.2944420286
 40
0.3092686072
 40
0.3237370934
 40
0.3385171064
 40
0.3530001647
 40
0.3678304078
 40
0.3827735224
 40
0.3974528973
 40
0.4119201671
 40
0.4268293743
 40
0.4417846081
 40
0.4563153984
 40
0.4703884647
 40
0.4850608118
 40
0.5001888749
 40
0.5152928627
 40
0.5299258543
 40
0.5449313635
 40
0.5601617671
 40
0.5750850957
 40
0.5893360766
 40
0.6037043057
 40
0.6183101986
 40
0.6330205875
 40
0.6476550808
 40
0.6621520339
 40
0.6767831629
 40
0.6915869885
 40
0.7063195621
 40
0.7208053956
 40
0.7351436929
 40
0.7497517679
 40
0.7645479138
 40
0.7792403312
 40
0.7942210098
 40
0.8094210067
 40
0.8243320618
 40
0.8386927584
 40
0.8532504704
 40
0.8682318995
 40
0.8830619027
 40
0.8976424343
 40
0.9120785179
 40
0.9265816706
 40
0.9413785962
 40
0.9561465823
 40
0.970628524
 40
0.985451561
 40
1.0
 40
1.0
 40
1.0
 40
1.0
 10
79.2548897145
 20
61.5553480823
 30
0.0
 10
79.535289802
 20
61.6766136642
 30
0.0
 10
80.0675476142
 20
61.9886066387
 30
0.0
 10
80.7273836261
 20
62.6343501899
 30
0.0
 10
81.2153762187
 20
63.4261883668
 30
0.0
 10
81.4996087884
 20
64.3305794523
 30
0.0
 10
81.5484304143
 20
65.2874952306
 30
0.0
 10
81.3562810023
 20
66.2208289209
 30
0.0
 10
80.9423150898
 20
67.0710426333
 30
0.0
 10
80.3344611934
 20
67.7896318617
 30
0.0
 10
79.5635659978
 20
68.3378638502
 30
0.0
 10
78.6891885618
 20
68.6777341779
 30
0.0
 10
77.7560653511
 20
68.7910011641
 30
0.0
 10
76.8195641632
 20
68.6720141325
 30
0.0
 10
75.9348131485
 20
68.3206530802
 30
0.0
 10
75.1688935683
 20
67.7626698476
 30
0.0
 10
74.5677531153
 20
67.0353235746
 30
0.0
 10
74.1650690059
 20
66.1860526252
 30
0.0
 10
73.981760168
 20
65.249253155
 30
0.0
 10
74.0388191482
 20
64.2964932041
 30
0.0
 10
74.3340563089
 20
63.388931984
 30
0.0
 10
74.839432139
 20
62.5892828323
 30
0.0
 10
75.5233620542
 20
61.9433098194
 30
0.0
 10
76.3460448398
 20
61.4850293351
 30
0.0
 10
77.2494337717
 20
61.2441071708
 30
0.0
 10
78.1915060028
 20
61.2325500149
 30
0.0
 10
79.1114830804
 20
61.453924879
 30
0.0
 10
79.9505220226
 20
61.9005127698
 30
0.0
 10
80.6470831969
 20
62.5352770915
 30
0.0
 10
81.1657631449
 20
63.3208822931
 30
0.0
 10
81.4772120144
 20
64.2161988164
 30
0.0
 10
81.5541070469
 20
65.1623327306
 30
0.0
 10
81.3991007061
 20
66.0802291926
 30
0.0
 10
81.0294240733
 20
66.9272936469
 30
0.0
 10
80.4584583671
 20
67.6712149817
 30
0.0
 10
79.7017020086
 20
68.2625501678
 30
0.0
 10
78.8208918722
 20
68.6434213321
 30
0.0
 10
77.8760081938
 20
68.7905559464
 30
0.0
 10
76.9209547031
 20
68.6983095056
 30
0.0
 10
76.0144267076
 20
68.3645542161
 30
0.0
 10
75.234882204
 20
67.8224185545
 30
0.0
 10
74.6253438352
 20
67.1198555304
 30
0.0
 10
74.2050011708
 20
66.2975925459
 30
0.0
 10
73.9948391491
 20
65.3878842821
 30
0.0
 10
74.0152397491
 20
64.4486224265
 30
0.0
 10
74.2655144294
 20
63.5456131591
 30
0.0
 10
74.7280766216
 20
62.7328868062
 30
0.0
 10
75.3779136106
 20
62.0550657318
 30
0.0
 10
76.1796875697
 20
61.5564035188
 30
0.0
 10
77.0766551243
 20
61.2718054704
 30
0.0
 10
78.0058761615
 20
61.217517518
 30
0.0
 10
78.9177973316
 20
61.3888893499
 30
0.0
 10
79.7669429231
 20
61.7798245444
 30
0.0
 10
80.500486201
 20
62.3720181196
 30
0.0
 10
81.0680178116
 20
63.1345682278
 30
0.0
 10
81.431760678
 20
64.0224968231
 30
0.0
 10
81.5593037347
 20
64.978538485
 30
0.0
 10
81.4441391393
 20
65.9224659652
 30
0.0
 10
81.1044773086
 20
66.7951215394
 30
0.0
 10
80.5626270496
 20
67.5609413205
 30
0.0
 10
79.8397480549
 20
68.175493677
 30
0.0
 10
78.98613769
 20
68.5903526713
 30
0.0
 10
78.0680994023
 20
68.7784351944
 30
0.0
 10
77.1391315356
 20
68.7380187246
 30
0.0
 10
76.2431905074
 20
68.4719563192
 30
0.0
 10
75.4338525251
 20
67.9897031919
 30
0.0
 10
74.7696107014
 20
67.3223289178
 30
0.0
 10
74.2895140969
 20
66.5120431533
 30
0.0
 10
74.0248852885
 20
65.6129623949
 30
0.0
 10
74.0016041156
 20
64.9846632279
 30
0.0
 10
74.0278157532
 20
64.6780082689
 30
0.0
  0
SPLINE
  5
25E
100
AcDbEntity
  8
64
100
AcDbSpline
 62
7
  6
BYLAYER
 70
0
 71
3
 72
14
 73
10
 74
0
 42
0.0000001
 43
0.0000001
 44
0.0000000001
 40
0.0
 40
0.0
 40
0.0
 40
0.0
 40
0.144203662
 40
0.2888694413
 40
0.4337254027
 40
0.5783399149
 40
0.7216991426
 40
0.8625118166
 40
1.0
 40
1.0
 40
1.0
 40
1.0
 10
74.1515431316
 20
63.2873012163
 30
0.0
 10
74.2835586466
 20
63.0336761741
 30
0.0
 10
74.6055632676
 20
62.5533748815
 30
0.0
 10
75.2331600503
 20
61.9558731565
 30
0.0
 10
75.9763343713
 20
61.5078384557
 30
0.0
 10
76.7966942
 20
61.2331082666
 30
0.0
 10
77.6496489688
 20
61.1460100871
 30
0.0
 10
78.4861067474
 20
61.2488520956
 30
0.0
 10
79.0105520922
 20
61.4364888226
 30
0.0
 10
79.255673235
 20
61.5557877584
 30
0.0
  0
SPLINE
  5
25F
100
AcDbEntity
  8
64
100
AcDbSpline
 62
7
  6
BYLAYER
 70
0
 71
3
 72
14
 73
10
 74
0
 42
0.0000001
 43
0.0000001
 44
0.0000000001
 40
0.0
 40
0.0
 40
0.0
 40
0.0
 40
0.1369134983
 40
0.2769875523
 40
0.4191673043
 40
0.5631341613
 40
0.7082869664
 40
0.8537529687
 40
1.0
 40
1.0
 40
1.0
 40
1.0
 10
79.255673235
 20
61.5557877584
 30
0.0
 10
79.5094436068
 20
61.652300127
 30
0.0
 10
80.0030862693
 20
61.904609007
 30
0.0
 10
80.6480529529
 20
62.4393193461
 30
0.0
 10
81.1676243112
 20
63.1149235396
 30
0.0
 10
81.5312743859
 20
63.8964880912
 30
0.0
 10
81.7194657009
 20
64.7446616484
 30
0.0
 10
81.7168236477
 20
65.6178502673
 30
0.0
 10
81.5857625641
 20
66.1870749647
 30
0.0
 10
81.4900311902
 20
66.4608311261
 30
0.0
  0
ENDSEC
  0
SECTION
  2
OBJECTS
  0
DICTIONARY
  5
C
100
AcDbDictionary
280
0
281
1
  3
ACAD_GROUP
350
D
  3
ACAD_MLINESTYLE
350
17
  3
ACAD_LAYOUT
350
1A
  3
ACAD_PLOTSETTINGS
350
19
  3
ACAD_PLOTSTYLENAME
350
E
  0
DICTIONARY
  5
D
102
{ACAD_REACTORS
330
C
102
}
100
AcDbDictionary
280
0
281
1
  0
ACDBDICTIONARYWDFLT
  5
E
102
{ACAD_REACTORS
330
C
102
}
100
AcDbDictionary
281
1
  3
Normal
350
F
100
AcDbDictionaryWithDefault
340
F
  0
DICTIONARY
  5
17
102
{ACAD_REACTORS
330
C
102
}
100
AcDbDictionary
280
0
281
1
  3
Standard
350
18
  0
DICTIONARY
  5
19
102
{ACAD_REACTORS
330
C
102
}
100
AcDbDictionary
281
1
  0
DICTIONARY
  5
1A
102
{ACAD_REACTORS
330
C
102
}
100
AcDbDictionary
281
1
  3
Model
350
260
  3
Layout1
350
261
  0
ACDBPLACEHOLDER
  5
F
102
{ACAD_REACTORS
330
E
102
}
  0
MLINESTYLE
  5
18
102
{ACAD_REACTORS
330
17
102
}
100
AcDbMlineStyle
  2
STANDARD
 70
0
  3

 62
256
 51
90.0
 52
90.0
 71
2
 49
0.5
 62
256
  6
BYLAYER
 49
-0.5
 62
256
  6
BYLAYER
  0
LAYOUT
  5
260
102
{ACAD_REACTORS
330
1A
102
}
100
AcDbPlotSettings
  1

  2
none_device
  4

  6

 40
0.0
 41
0.0
 42
0.0
 43
0.0
 44
210.0
 45
297.0
 46
0.0
 47
0.0
 48
0.0
 49
0.0
140
0.0
141
0.0
142
1.0
143
1.0
 70
1024
 72
1
 73
0
 74
0
  7

 75
0
147
1.0
148
0.0
149
0.0
100
AcDbLayout
  1
Model
 70
0
 71
0
 10
0.0
 20
0.0
 11
210.0
 21
297.0
 12
0.0
 22
0.0
 32
0.0
 14
0.0
 24
0.0
 34
0.0
 15
0.0
 25
0.0
 35
0.0
146
0.0
 13
0.0
 23
0.0
 33
0.0
 16
1.0
 26
0.0
 36
0.0
 17
0.0
 27
1.0
 37
0.0
 76
0
330
211
345
0
346
0
  0
LAYOUT
  5
261
102
{ACAD_REACTORS
330
1A
102
}
100
AcDbPlotSettings
  1

  2
none_device
  4

  6

 40
0.0
 41
0.0
 42
0.0
 43
0.0
 44
210.0
 45
297.0
 46
0.0
 47
0.0
 48
0.0
 49
0.0
140
0.0
141
0.0
142
1.0
143
1.0
 70
0
 72
1
 73
0
 74
0
  7

 75
0
147
1.0
148
0.0
149
0.0
100
AcDbLayout
  1
Layout1
 70
0
 71
1
 10
0.0
 20
0.0
 11
210.0
 21
297.0
 12
0.0
 22
0.0
 32
0.0
 14
0.0
 24
0.0
 34
0.0
 15
0.0
 25
0.0
 35
0.0
146
0.0
 13
0.0
 23
0.0
 33
0.0
 16
1.0
 26
0.0
 36
0.0
 17
0.0
 27
1.0
 37
0.0
 76
0
330
212
345
0
346
0
  0
ENDSEC
  0
EOF
