999
DXF file: C:\Users\sesa63760\Dev\_Creo\CAD\MCADPD0004666_3D-CAD\drw0001_1.dxf
999
Pro/ENGINEER 2019471 by Parametric Technology Corporation
  0
SECTION
  2
HEADER
  9
$ACADVER
  1
AC1024
  9
$DWGCODEPAGE
  3
ANSI_1252
  9
$EXTMAX
 10
210.6193393658
 20
297.8759228174
 30
0.0
  9
$EXTMIN
 10
0.0
 20
0.0
 30
0.0
  9
$LIMMIN
 10
0.0
 20
0.0
  9
$LIMMAX
 10
210.6193393658
 20
297.8759228174
  9
$VIEWCTR
 10
105.3096696829
 20
148.9379614087
  9
$VIEWSIZE
 40
297.8759228174
  9
$CLAYER
  8
0
  9
$LTSCALE
 40
19.4170971911
  9
$CELTYPE
  6
BYLAYER
  9
$DIMSCALE
 40
1.0
  9
$DIMASZ
 40
2.5073730877
  9
$DIMEXO
 40
1.0
  9
$DIMDLI
 40
13.4154489684
  9
$DIMEXE
 40
1.0
  9
$DIMCEN
 40
3.1773431767
  9
$DIMLFAC
 40
1.0
  9
$DIMBLK
  1
_FILLED
  9
$DIMALT
 70
0
  9
$DIMALTF
 40
0.0393700787
  9
$DIMTXT
 40
3.5103223228
  9
$DIMTOL
 70
1
  9
$DIMLIM
 70
0
  9
$DIMTFAC
 40
1.0
  9
$DIMTP
 40
0.01
  9
$DIMTM
 40
0.01
  9
$DIMGAP
 40
0.625
  9
$DIMDSEP
 70
46
  9
$AUNITS
 70
0
  9
$PDMODE
 70
3
  9
$PDSIZE
 40
0.3125
  9
$HANDSEED
  5
336
  9
$TILEMODE
 70
1
  9
$MEASUREMENT
 70
1
  9
$INSUNITS
 70
4
  0
ENDSEC
  0
SECTION
  2
CLASSES
  0
CLASS
  1
ACDBDICTIONARYWDFLT
  2
AcDbDictionaryWithDefault
  3
AutoCAD 2000
 90
0
 91
1
280
0
281
0
  0
CLASS
  1
ACDBPLACEHOLDER
  2
AcDbPlaceHolder
  3
AutoCAD 2000
 90
0
 91
1
280
0
281
0
  0
CLASS
  1
LAYOUT
  2
AcDbLayout
  3
AutoCAD 2000
 90
0
 91
0
280
0
281
0
  0
ENDSEC
  0
SECTION
  2
TABLES
  0
TABLE
  2
VPORT
  5
8
100
AcDbSymbolTable
 70
2
  0
VPORT
  5
1F4
100
AcDbSymbolTableRecord
100
AcDbViewportTableRecord
  2
*ACTIVE
 70
0
 10
0.0
 20
0.0
 11
1.0
 21
1.0
 12
105.3096696829
 22
148.9379614087
 13
0.0
 23
0.0
 14
1.0
 24
1.0
 15
0.0
 25
0.0
 16
0.0
 26
0.0
 36
1.0
 17
0.0
 27
0.0
 37
0.0
 40
297.8759228174
 41
0.7070707071
 42
50.0
 43
0.0
 44
0.0
 50
0.0
 51
0.0
 71
0
 72
100
 73
1
 74
1
 75
0
 76
0
 77
0
 78
0
  0
ENDTAB
  0
TABLE
  2
LTYPE
  5
5
100
AcDbSymbolTable
 70
6
  0
LTYPE
  5
14
100
AcDbSymbolTableRecord
100
AcDbLinetypeTableRecord
  2
BYBLOCK
 70
0
  3

 72
65
 73
0
 40
0.0
  0
LTYPE
  5
15
100
AcDbSymbolTableRecord
100
AcDbLinetypeTableRecord
  2
BYLAYER
 70
0
  3

 72
65
 73
0
 40
0.0
  0
LTYPE
  5
16
100
AcDbSymbolTableRecord
100
AcDbLinetypeTableRecord
  2
CONTINUOUS
 70
64
  3
Solid line
 72
65
 73
0
 40
0.0
  0
LTYPE
  5
1F5
100
AcDbSymbolTableRecord
100
AcDbLinetypeTableRecord
  2
CENTER
 70
64
  3
____ _ ____ _ ____ _ ____ _ ____ _ ____ _ ____
 72
65
 73
4
 40
0.6
 49
0.375
 74
0
 49
-0.075
 74
0
 49
0.075
 74
0
 49
-0.075
 74
0
  0
LTYPE
  5
1F6
100
AcDbSymbolTableRecord
100
AcDbLinetypeTableRecord
  2
HIDDEN
 70
64
  3
- - - - - - - - - - - - - - - - - - - -
 72
65
 73
2
 40
0.2
 49
0.1
 74
0
 49
-0.1
 74
0
  0
LTYPE
  5
1F7
100
AcDbSymbolTableRecord
100
AcDbLinetypeTableRecord
  2
PHANTOM
 70
64
  3
_____ _ _ _____ _ _ _____ _ _ _____
 72
65
 73
6
 40
0.8
 49
0.45
 74
0
 49
-0.05
 74
0
 49
0.1
 74
0
 49
-0.05
 74
0
 49
0.1
 74
0
 49
-0.05
 74
0
  0
LTYPE
  5
1F8
100
AcDbSymbolTableRecord
100
AcDbLinetypeTableRecord
  2
DOT
 70
64
  3
. . . . . . . . . . . . . . . . . . . .
 72
65
 73
2
 40
0.2
 49
0.1
 74
0
 49
-0.1
 74
0
  0
LTYPE
  5
1F9
100
AcDbSymbolTableRecord
100
AcDbLinetypeTableRecord
  2
DASHED
 70
64
  3
- - - - - - - - - - - - - - - - - - - -
 72
65
 73
2
 40
0.2
 49
0.1
 74
0
 49
-0.1
 74
0
  0
ENDTAB
  0
TABLE
  2
LAYER
  5
2
100
AcDbSymbolTable
 70
36
  0
LAYER
  5
10
100
AcDbSymbolTableRecord
100
AcDbLayerTableRecord
  2
0
 70
0
 62
7
  6
CONTINUOUS
370
-3
390
F
  0
LAYER
  5
1FA
100
AcDbSymbolTableRecord
100
AcDbLayerTableRecord
  2
DEFAULT_1
 70
0
 62
7
  6
CENTER
370
-3
390
F
  0
LAYER
  5
1FB
100
AcDbSymbolTableRecord
100
AcDbLayerTableRecord
  2
DEFAULT_2
 70
0
 62
7
  6
HIDDEN
370
-3
390
F
  0
LAYER
  5
1FC
100
AcDbSymbolTableRecord
100
AcDbLayerTableRecord
  2
DEFAULT_3
 70
0
 62
7
  6
PHANTOM
370
-3
390
F
  0
LAYER
  5
1FD
100
AcDbSymbolTableRecord
100
AcDbLayerTableRecord
  2
00_COMPONENTS
 70
0
 62
7
  6
CONTINUOUS
370
-3
390
F
  0
LAYER
  5
1FE
100
AcDbSymbolTableRecord
100
AcDbLayerTableRecord
  2
01_1_DEFAULT_DATUMS
 70
0
 62
7
  6
CONTINUOUS
370
-3
390
F
  0
LAYER
  5
1FF
100
AcDbSymbolTableRecord
100
AcDbLayerTableRecord
  2
01_PLANES
 70
0
 62
7
  6
CONTINUOUS
370
-3
390
F
  0
LAYER
  5
200
100
AcDbSymbolTableRecord
100
AcDbLayerTableRecord
  2
02_COORD_SYS
 70
0
 62
7
  6
CONTINUOUS
370
-3
390
F
  0
LAYER
  5
201
100
AcDbSymbolTableRecord
100
AcDbLayerTableRecord
  2
03_AXES
 70
0
 62
7
  6
CONTINUOUS
370
-3
390
F
  0
LAYER
  5
202
100
AcDbSymbolTableRecord
100
AcDbLayerTableRecord
  2
04_POINTS
 70
0
 62
7
  6
CONTINUOUS
370
-3
390
F
  0
LAYER
  5
203
100
AcDbSymbolTableRecord
100
AcDbLayerTableRecord
  2
05_CURVES
 70
0
 62
7
  6
CONTINUOUS
370
-3
390
F
  0
LAYER
  5
204
100
AcDbSymbolTableRecord
100
AcDbLayerTableRecord
  2
06_SURFS
 70
0
 62
7
  6
CONTINUOUS
370
-3
390
F
  0
LAYER
  5
205
100
AcDbSymbolTableRecord
100
AcDbLayerTableRecord
  2
07_COSMETICS
 70
0
 62
7
  6
CONTINUOUS
370
-3
390
F
  0
LAYER
  5
206
100
AcDbSymbolTableRecord
100
AcDbLayerTableRecord
  2
10_NOTES
 70
0
 62
7
  6
CONTINUOUS
370
-3
390
F
  0
LAYER
  5
207
100
AcDbSymbolTableRecord
100
AcDbLayerTableRecord
  2
11_NOTES_PUB
 70
0
 62
7
  6
CONTINUOUS
370
-3
390
F
  0
LAYER
  5
208
100
AcDbSymbolTableRecord
100
AcDbLayerTableRecord
  2
13_REF_GTOL
 70
0
 62
7
  6
CONTINUOUS
370
-3
390
F
  0
LAYER
  5
209
100
AcDbSymbolTableRecord
100
AcDbLayerTableRecord
  2
16_MISC
 70
0
 62
7
  6
CONTINUOUS
370
-3
390
F
  0
LAYER
  5
20A
100
AcDbSymbolTableRecord
100
AcDbLayerTableRecord
  2
17_NO_PRINT
 70
0
 62
7
  6
CONTINUOUS
370
-3
390
F
  0
LAYER
  5
20B
100
AcDbSymbolTableRecord
100
AcDbLayerTableRecord
  2
18_DATUM_CAMS_JOINTS
 70
0
 62
7
  6
CONTINUOUS
370
-3
390
F
  0
LAYER
  5
20C
100
AcDbSymbolTableRecord
100
AcDbLayerTableRecord
  2
19_DATUM_FUNCTIONAL
 70
0
 62
7
  6
CONTINUOUS
370
-3
390
F
  0
LAYER
  5
20D
100
AcDbSymbolTableRecord
100
AcDbLayerTableRecord
  2
20_DATUM_KINEMATIC_SCHEME
 70
0
 62
7
  6
CONTINUOUS
370
-3
390
F
  0
ENDTAB
  0
TABLE
  2
STYLE
  5
3
100
AcDbSymbolTable
 70
1
  0
STYLE
  5
11
100
AcDbSymbolTableRecord
100
AcDbTextStyleTableRecord
  2
STANDARD
 70
0
 40
0.0
 41
1.0
 50
0.0
 71
0
 42
0.2
  3
ARIAL.TTF
  4

  0
STYLE
  5
20E
100
AcDbSymbolTableRecord
100
AcDbTextStyleTableRecord
  2
TEXTSTYLE_1
 70
0
 40
0.0
 41
0.8
 50
0.0
 71
0
 42
0.2
  3
gdt
  4

  0
ENDTAB
  0
TABLE
  2
VIEW
  5
6
100
AcDbSymbolTable
 70
0
  0
ENDTAB
  0
TABLE
  2
UCS
  5
7
100
AcDbSymbolTable
 70
0
  0
ENDTAB
  0
TABLE
  2
APPID
  5
9
100
AcDbSymbolTable
 70
1
  0
APPID
  5
20F
100
AcDbSymbolTableRecord
100
AcDbRegAppTableRecord
  2
ACAD
 70
0
  0
ENDTAB
  0
TABLE
  2
BLOCK_RECORD
  5
1
100
AcDbSymbolTable
 70
0
  0
BLOCK_RECORD
  5
210
100
AcDbSymbolTableRecord
100
AcDbBlockTableRecord
  2
*Model_Space
  0
BLOCK_RECORD
  5
211
100
AcDbSymbolTableRecord
100
AcDbBlockTableRecord
  2
*Paper_Space
  0
BLOCK_RECORD
  5
212
100
AcDbSymbolTableRecord
100
AcDbBlockTableRecord
  2
_FILLED
  0
ENDTAB
  0
TABLE
  2
DIMSTYLE
  5
A
100
AcDbSymbolTable
 70
1
100
AcDbDimStyleTable
 71
0
  0
DIMSTYLE
105
213
100
AcDbSymbolTableRecord
100
AcDbDimStyleTableRecord
  2
STANDARD
 70
0
  3

  4

 40
1.0
 41
2.5073730877
 42
1.0
 43
0.38
 44
1.0
 45
0.0
 46
0.0
 47
0.01
 48
0.01
140
3.5103223228
141
0.09
142
0.0
143
25.4
144
1.0
145
0.0
146
1.0
147
0.625
 71
1
 72
0
 73
0
 74
0
 75
0
 76
0
 77
1
 78
8
 79
2
170
0
171
1
172
0
173
0
174
0
175
0
176
0
177
0
178
0
270
2
179
2
271
2
272
2
273
2
274
2
275
0
280
0
281
0
282
0
283
1
284
8
285
0
286
0
287
3
288
0
340
11
278
46
341
212
342
212
343
212
344
212
  0
ENDTAB
  0
ENDSEC
  0
SECTION
  2
BLOCKS
  0
BLOCK
  5
20
100
AcDbEntity
  8
0
100
AcDbBlockBegin
  2
*Model_Space
 70
0
 10
0.0
 20
0.0
 30
0.0
  3
*Model_Space
  1

  0
ENDBLK
  5
21
100
AcDbEntity
  8
0
100
AcDbBlockEnd
  0
BLOCK
  5
1C
100
AcDbEntity
  8
0
100
AcDbBlockBegin
  2
*Paper_Space
 70
0
 10
0.0
 20
0.0
 30
0.0
  3
*Paper_Space
  1

  0
ENDBLK
  5
1D
100
AcDbEntity
  8
0
100
AcDbBlockEnd
  0
BLOCK
  5
214
100
AcDbEntity
  8
0
100
AcDbBlockBegin
  2
_FILLED
 70
64
 10
0.0
 20
0.0
  3
_FILLED
  1

  0
SOLID
  5
215
100
AcDbEntity
  8
0
  6
BYBLOCK
 62
0
100
AcDbTrace
 10
0.0
 20
0.0
 11
-1.0
 21
0.25
 12
-1.0
 22
-0.25
 13
-1.0
 23
-0.25
  0
ENDBLK
  5
216
100
AcDbEntity
  8
0
  6
BYBLOCK
 62
0
100
AcDbBlockEnd
  0
ENDSEC
  0
SECTION
  2
ENTITIES
  0
LINE
  5
217
100
AcDbEntity
  8
0
100
AcDbLine
 62
7
  6
BYLAYER
 10
24.4342665995
 20
145.159704667
 11
24.4342665995
 21
127.7682031822
  0
LINE
  5
218
100
AcDbEntity
  8
0
100
AcDbLine
 62
7
  6
BYLAYER
 10
25.1955379106
 20
159.9772524774
 11
25.1955379106
 21
145.5532312341
  0
LINE
  5
219
100
AcDbEntity
  8
0
100
AcDbLine
 62
7
  6
BYLAYER
 10
66.2075466535
 20
208.6403442008
 11
64.0862351455
 21
207.4156117371
  0
LINE
  5
21A
100
AcDbEntity
  8
0
100
AcDbLine
 62
7
  6
BYLAYER
 10
104.6032996745
 20
216.5192532659
 11
108.1388188545
 21
218.5604740388
  0
LINE
  5
21B
100
AcDbEntity
  8
0
100
AcDbLine
 62
7
  6
BYLAYER
 10
105.0989497499
 20
81.3492866772
 11
73.4081082322
 21
99.6455885781
  0
LINE
  5
21C
100
AcDbEntity
  8
0
100
AcDbLine
 62
7
  6
BYLAYER
 10
52.4493359523
 20
109.7023246951
 11
52.4493359523
 21
127.09382618
  0
LINE
  5
21D
100
AcDbEntity
  8
0
100
AcDbLine
 62
7
  6
BYLAYER
 10
53.9452846382
 20
127.8671320202
 11
53.9452846382
 21
110.4756305353
  0
LINE
  5
21E
100
AcDbEntity
  8
0
100
AcDbLine
 62
7
  6
BYLAYER
 10
56.0252661777
 20
177.7766982039
 11
56.073441242
 21
178.8659650666
  0
LINE
  5
21F
100
AcDbEntity
  8
0
100
AcDbLine
 62
7
  6
BYLAYER
 10
83.5317349492
 20
198.6384457321
 11
81.4104234412
 21
197.4137132684
  0
LINE
  5
220
100
AcDbEntity
  8
0
100
AcDbLine
 62
7
  6
BYLAYER
 10
58.4519545394
 20
180.2391921668
 11
56.073441242
 21
178.8659650666
  0
LINE
  5
221
100
AcDbEntity
  8
0
100
AcDbLine
 62
7
  6
BYLAYER
 10
95.3402394228
 20
200.4750731767
 11
83.5317349492
 21
193.6574706124
  0
LINE
  5
222
100
AcDbEntity
  8
0
100
AcDbLine
 62
7
  6
BYLAYER
 10
76.3210470057
 20
189.4944028231
 11
75.1435856462
 21
188.8145992458
  0
LINE
  5
223
100
AcDbEntity
  8
0
100
AcDbLine
 62
7
  6
BYLAYER
 10
66.0661460447
 20
183.573768314
 11
59.3712130671
 21
179.7084700167
  0
LINE
  5
224
100
AcDbEntity
  8
0
100
AcDbLine
 62
7
  6
BYLAYER
 10
56.0252661777
 20
177.7766982039
 11
25.1955379106
 21
159.9772524774
  0
LINE
  5
225
100
AcDbEntity
  8
0
100
AcDbLine
 62
7
  6
BYLAYER
 10
116.8776909286
 20
88.1497054976
 11
122.7765456869
 21
85.8398736428
  0
LINE
  5
226
100
AcDbEntity
  8
0
100
AcDbLine
 62
7
  6
BYLAYER
 10
101.4573591041
 20
91.9842494797
 11
94.0327069774
 21
96.2707773948
  0
LINE
  5
227
100
AcDbEntity
  8
0
100
AcDbLine
 62
7
  6
BYLAYER
 10
92.2649326615
 20
97.2913792794
 11
88.0222743034
 21
99.7408238023
  0
LINE
  5
228
100
AcDbEntity
  8
0
100
AcDbLine
 62
7
  6
BYLAYER
 10
105.0989497499
 20
92.8619707587
 11
102.8715667761
 21
94.1479218217
  0
LINE
  5
229
100
AcDbEntity
  8
0
100
AcDbLine
 62
7
  6
BYLAYER
 10
94.0327069774
 20
99.2509244431
 11
93.6791403335
 21
99.4550516214
  0
LINE
  5
22A
100
AcDbEntity
  8
0
100
AcDbLine
 62
7
  6
BYLAYER
 10
88.0222743034
 20
102.7209708506
 11
73.4081082322
 21
111.1582726596
  0
LINE
  5
22B
100
AcDbEntity
  8
0
100
AcDbLine
 62
7
  6
BYLAYER
 10
64.0862351455
 20
207.4156117371
 11
64.0862351455
 21
184.7168445409
  0
LINE
  5
22C
100
AcDbEntity
  8
0
100
AcDbLine
 62
7
  6
BYLAYER
 10
115.1247877968
 20
210.4448067094
 11
118.6294527161
 21
212.5038407949
  0
LINE
  5
22D
100
AcDbEntity
  8
0
100
AcDbLine
 62
7
  6
BYLAYER
 10
96.7544588756
 20
199.6585916691
 11
106.0175191272
 21
205.0065900939
  0
LINE
  5
22E
100
AcDbEntity
  8
0
100
AcDbLine
 62
7
  6
BYLAYER
 10
71.0159110528
 20
180.3894859374
 11
71.1573324091
 21
180.4711351084
  0
LINE
  5
22F
100
AcDbEntity
  8
0
100
AcDbLine
 62
7
  6
BYLAYER
 10
63.2650148346
 20
177.4604333832
 11
70.2380903538
 21
180.8385507666
  0
LINE
  5
230
100
AcDbEntity
  8
0
100
AcDbLine
 62
7
  6
BYLAYER
 10
70.3925047834
 20
180.7494015713
 11
63.4194292641
 21
177.3712841878
  0
LINE
  5
231
100
AcDbEntity
  8
0
100
AcDbLine
 62
7
  6
BYLAYER
 10
106.513157422
 20
93.6784590678
 11
102.8715667761
 21
95.7808386327
  0
LINE
  5
232
100
AcDbEntity
  8
0
100
AcDbLine
 62
7
  6
BYLAYER
 10
88.0222743034
 20
104.3536992541
 11
74.8273469549
 21
111.9714543273
  0
LINE
  5
233
100
AcDbEntity
  8
0
100
AcDbLine
 62
7
  6
BYLAYER
 10
92.2649326615
 20
102.1903937821
 11
88.0222743034
 21
104.6398383051
  0
LINE
  5
234
100
AcDbEntity
  8
0
100
AcDbLine
 62
7
  6
BYLAYER
 10
94.0327069774
 20
101.1697918976
 11
101.4573591041
 21
96.8832639824
  0
LINE
  5
235
100
AcDbEntity
  8
0
100
AcDbLine
 62
7
  6
BYLAYER
 10
93.6791403335
 20
103.0068820913
 11
89.4364819754
 21
105.4563266142
  0
LINE
  5
236
100
AcDbEntity
  8
0
100
AcDbLine
 62
7
  6
BYLAYER
 10
95.4469146494
 20
101.9862802067
 11
102.8715667761
 21
97.6997522916
  0
LINE
  5
237
100
AcDbEntity
  8
0
100
AcDbLine
 62
7
  6
BYLAYER
 10
95.9772224992
 20
104.3336598358
 11
93.0073616485
 21
106.0482710018
  0
LINE
  5
238
100
AcDbEntity
  8
0
100
AcDbLine
 62
7
  6
BYLAYER
 10
70.2380903538
 20
180.6745952585
 11
70.2380903538
 21
180.8385507666
  0
LINE
  5
239
100
AcDbEntity
  8
0
100
AcDbLine
 62
7
  6
BYLAYER
 10
71.1573324091
 20
180.6344370026
 11
71.1573324091
 21
180.3078381267
  0
LINE
  5
23A
100
AcDbEntity
  8
0
100
AcDbLine
 62
7
  6
BYLAYER
 10
95.3402394228
 20
200.4750731767
 11
104.6032996745
 21
216.5192532659
  0
LINE
  5
23B
100
AcDbEntity
  8
0
100
AcDbLine
 62
7
  6
BYLAYER
 10
105.9425657084
 20
194.3539557408
 11
105.4524143799
 21
194.0659857592
  0
LINE
  5
23C
100
AcDbEntity
  8
0
100
AcDbLine
 62
7
  6
BYLAYER
 10
117.9285197322
 20
199.0769854488
 11
118.6294527161
 21
199.4887922659
  0
LINE
  5
23D
100
AcDbEntity
  8
0
100
AcDbLine
 62
7
  6
BYLAYER
 10
97.6739471474
 20
188.0241759305
 11
99.7952586554
 21
189.2489083942
  0
LINE
  5
23E
100
AcDbEntity
  8
0
100
AcDbLine
 62
7
  6
BYLAYER
 10
100.7148576658
 20
104.5378554868
 11
106.5131574219
 21
101.1902813055
  0
LINE
  5
23F
100
AcDbEntity
  8
0
100
AcDbLine
 62
7
  6
BYLAYER
 10
138.6862523725
 20
90.0443171626
 11
156.0104406682
 21
80.0424186939
  0
LINE
  5
240
100
AcDbEntity
  8
0
100
AcDbLine
 62
7
  6
BYLAYER
 10
73.4081082322
 20
111.1582726596
 11
73.4081082322
 21
99.6455885781
  0
LINE
  5
241
100
AcDbEntity
  8
0
100
AcDbLine
 62
7
  6
BYLAYER
 10
74.8325621047
 20
131.319952742
 11
74.827695127
 21
111.9716553433
  0
LINE
  5
242
100
AcDbEntity
  8
0
100
AcDbLine
 62
7
  6
BYLAYER
 10
106.0175191272
 20
215.7027717583
 11
96.7544588756
 21
199.6585916691
  0
LINE
  5
243
100
AcDbEntity
  8
0
100
AcDbLine
 62
7
  6
BYLAYER
 10
83.5317349492
 20
175.9396785359
 11
81.4104234412
 21
174.7149460722
  0
LINE
  5
244
100
AcDbEntity
  8
0
100
AcDbLine
 62
7
  6
BYLAYER
 10
89.6626569382
 20
175.9353390719
 11
97.6739471474
 21
180.5606320373
  0
LINE
  5
245
100
AcDbEntity
  8
0
100
AcDbLine
 62
7
  6
BYLAYER
 10
88.3914486479
 20
175.0059364145
 11
89.749088013
 21
175.7897651912
  0
LINE
  5
246
100
AcDbEntity
  8
0
100
AcDbLine
 62
7
  6
BYLAYER
 10
87.4208384442
 20
173.6943543899
 11
85.2995269362
 21
172.4696219262
  0
LINE
  5
247
100
AcDbEntity
  8
0
100
AcDbLine
 62
7
  6
BYLAYER
 10
87.4561933196
 20
173.3881668589
 11
85.2995275252
 21
172.1430227102
  0
LINE
  5
248
100
AcDbEntity
  8
0
100
AcDbLine
 62
7
  6
BYLAYER
 10
25.9302152854
 20
145.9330105072
 11
24.4342665995
 21
145.159704667
  0
LINE
  5
249
100
AcDbEntity
  8
0
100
AcDbLine
 62
7
  6
BYLAYER
 10
74.8352880664
 20
131.3183789428
 11
100.7148576658
 21
116.3771405352
  0
LINE
  5
24A
100
AcDbEntity
  8
0
100
AcDbLine
 62
7
  6
BYLAYER
 10
139.8884584814
 20
95.8010303128
 11
139.959168865
 21
95.7602065775
  0
LINE
  5
24B
100
AcDbEntity
  8
0
100
AcDbLine
 62
7
  6
BYLAYER
 10
81.4104234412
 20
174.7149460722
 11
81.4104234412
 21
197.4137132684
  0
LINE
  5
24C
100
AcDbEntity
  8
0
100
AcDbLine
 62
7
  6
BYLAYER
 10
83.5317349492
 20
175.9396785359
 11
83.5317349492
 21
198.6384457321
  0
LINE
  5
24D
100
AcDbEntity
  8
0
100
AcDbLine
 62
7
  6
BYLAYER
 10
85.2995269362
 20
172.1430227102
 11
85.2995269362
 21
172.4696219262
  0
LINE
  5
24E
100
AcDbEntity
  8
0
100
AcDbLine
 62
7
  6
BYLAYER
 10
115.1247877968
 20
210.4448067094
 11
105.9425657084
 21
194.3539557408
  0
LINE
  5
24F
100
AcDbEntity
  8
0
100
AcDbLine
 62
7
  6
BYLAYER
 10
104.5326658655
 20
195.167943377
 11
113.7957261171
 21
211.2121234663
  0
LINE
  5
250
100
AcDbEntity
  8
0
100
AcDbLine
 62
7
  6
BYLAYER
 10
110.2579103332
 20
183.2084303061
 11
117.1360434911
 21
187.3205919709
  0
LINE
  5
251
100
AcDbEntity
  8
0
100
AcDbLine
 62
7
  6
BYLAYER
 10
94.5582311103
 20
168.4960520599
 11
95.9158704754
 21
169.2798808366
  0
LINE
  5
252
100
AcDbEntity
  8
0
100
AcDbLine
 62
7
  6
BYLAYER
 10
96.0316391546
 20
169.215350604
 11
97.6739471474
 21
170.1635319091
  0
LINE
  5
253
100
AcDbEntity
  8
0
100
AcDbLine
 62
7
  6
BYLAYER
 10
105.0784876538
 20
174.4385198601
 11
107.8406014742
 21
176.0332175042
  0
LINE
  5
254
100
AcDbEntity
  8
0
100
AcDbLine
 62
7
  6
BYLAYER
 10
87.3333701952
 20
172.667233075
 11
87.3333701952
 21
169.4011651707
  0
LINE
  5
255
100
AcDbEntity
  8
0
100
AcDbLine
 62
7
  6
BYLAYER
 10
88.0222743034
 20
99.7408238023
 11
88.0222743034
 21
104.6398383051
  0
LINE
  5
256
100
AcDbEntity
  8
0
100
AcDbLine
 62
7
  6
BYLAYER
 10
92.2649326615
 20
97.2913792794
 11
92.2649326615
 21
102.1903937821
  0
LINE
  5
257
100
AcDbEntity
  8
0
100
AcDbLine
 62
7
  6
BYLAYER
 10
115.3516903063
 20
177.8181570849
 11
117.4730018143
 21
179.0428895486
  0
LINE
  5
258
100
AcDbEntity
  8
0
100
AcDbLine
 62
7
  6
BYLAYER
 10
94.5582311103
 20
165.2299841555
 11
95.9158704754
 21
166.0138129323
  0
LINE
  5
259
100
AcDbEntity
  8
0
100
AcDbLine
 62
7
  6
BYLAYER
 10
109.4786398377
 20
173.7129240839
 11
106.2506678625
 21
171.8492647133
  0
LINE
  5
25A
100
AcDbEntity
  8
0
100
AcDbLine
 62
7
  6
BYLAYER
 10
97.6739471474
 20
166.8975222406
 11
96.0295904824
 21
165.9481581412
  0
LINE
  5
25B
100
AcDbEntity
  8
0
100
AcDbLine
 62
7
  6
BYLAYER
 10
99.300300107
 20
164.0598557845
 11
99.4417214633
 21
164.1415049555
  0
LINE
  5
25C
100
AcDbEntity
  8
0
100
AcDbLine
 62
7
  6
BYLAYER
 10
125.588731816
 20
182.4405405095
 11
117.4730018143
 21
177.9157179047
  0
LINE
  5
25D
100
AcDbEntity
  8
0
100
AcDbLine
 62
7
  6
BYLAYER
 10
124.4028351915
 20
118.2140340988
 11
130.2011349476
 21
114.8664599174
  0
LINE
  5
25E
100
AcDbEntity
  8
0
100
AcDbLine
 62
7
  6
BYLAYER
 10
156.0104406682
 20
102.7411858901
 11
154.030529769
 21
103.884262117
  0
LINE
  5
25F
100
AcDbEntity
  8
0
100
AcDbLine
 62
7
  6
BYLAYER
 10
158.1317521762
 20
103.9659183539
 11
156.151841277
 21
105.1089945807
  0
LINE
  5
260
100
AcDbEntity
  8
0
100
AcDbLine
 62
7
  6
BYLAYER
 10
93.6791403335
 20
103.0068820913
 11
93.6791403335
 21
98.1078675885
  0
LINE
  5
261
100
AcDbEntity
  8
0
100
AcDbLine
 62
7
  6
BYLAYER
 10
94.0327069774
 20
96.2707773948
 11
94.0327069774
 21
101.1697918976
  0
LINE
  5
262
100
AcDbEntity
  8
0
100
AcDbLine
 62
7
  6
BYLAYER
 10
94.5582311103
 20
165.2299841555
 11
94.5582311103
 21
168.4960520599
  0
LINE
  5
263
100
AcDbEntity
  8
0
100
AcDbLine
 62
7
  6
BYLAYER
 10
95.9158704754
 20
166.0138129323
 11
95.9158704754
 21
169.2798808366
  0
LINE
  5
264
100
AcDbEntity
  8
0
100
AcDbLine
 62
7
  6
BYLAYER
 10
95.9772224992
 20
101.6801137543
 11
95.9772224992
 21
104.3336598358
  0
LINE
  5
265
100
AcDbEntity
  8
0
100
AcDbLine
 62
7
  6
BYLAYER
 10
96.0295904824
 20
165.9481581412
 11
96.0295904824
 21
169.2141639114
  0
LINE
  5
266
100
AcDbEntity
  8
0
100
AcDbLine
 62
7
  6
BYLAYER
 10
97.6739471474
 20
165.3254087343
 11
97.6739471474
 21
188.0241759305
  0
LINE
  5
267
100
AcDbEntity
  8
0
100
AcDbLine
 62
7
  6
BYLAYER
 10
99.4417214633
 20
163.9782079738
 11
99.4417214633
 21
164.3048068497
  0
LINE
  5
268
100
AcDbEntity
  8
0
100
AcDbLine
 62
7
  6
BYLAYER
 10
100.7148576658
 20
104.5378554868
 11
100.7148576658
 21
116.3771405352
  0
LINE
  5
269
100
AcDbEntity
  8
0
100
AcDbLine
 62
7
  6
BYLAYER
 10
124.6713195926
 20
130.2083277637
 11
130.4696193487
 21
126.8607535823
  0
LINE
  5
26A
100
AcDbEntity
  8
0
100
AcDbLine
 62
7
  6
BYLAYER
 10
101.4573591041
 20
96.8832639824
 11
101.4573591041
 21
91.9842494797
  0
LINE
  5
26B
100
AcDbEntity
  8
0
100
AcDbLine
 62
7
  6
BYLAYER
 10
102.8715667761
 20
97.6997522916
 11
102.8715667761
 21
92.8007377888
  0
LINE
  5
26C
100
AcDbEntity
  8
0
100
AcDbLine
 62
7
  6
BYLAYER
 10
105.0989497499
 20
92.8619707587
 11
105.0989497499
 21
81.3492866772
  0
LINE
  5
26D
100
AcDbEntity
  8
0
100
AcDbLine
 62
7
  6
BYLAYER
 10
106.0175191272
 20
215.7027717583
 11
106.0175191272
 21
205.0065900939
  0
LINE
  5
26E
100
AcDbEntity
  8
0
100
AcDbLine
 62
7
  6
BYLAYER
 10
106.513157422
 20
101.1902813054
 11
106.513157422
 21
93.6784590678
  0
LINE
  5
26F
100
AcDbEntity
  8
0
100
AcDbLine
 62
7
  6
BYLAYER
 10
131.6152140124
 20
168.428619747
 11
133.7365255204
 21
169.6533522107
  0
LINE
  5
270
100
AcDbEntity
  8
0
100
AcDbLine
 62
7
  6
BYLAYER
 10
117.9470459924
 20
159.605708919
 11
131.6152140124
 21
167.4969823271
  0
LINE
  5
271
100
AcDbEntity
  8
0
100
AcDbLine
 62
7
  6
BYLAYER
 10
116.6723115003
 20
158.678342069
 11
118.0299508654
 21
159.4621708458
  0
LINE
  5
272
100
AcDbEntity
  8
0
100
AcDbLine
 62
7
  6
BYLAYER
 10
113.8667635463
 20
155.9766933556
 11
113.5839165794
 21
155.8133925573
  0
LINE
  5
273
100
AcDbEntity
  8
0
100
AcDbLine
 62
7
  6
BYLAYER
 10
115.3516903063
 20
155.1193898887
 11
115.6142330477
 21
155.2709681069
  0
LINE
  5
274
100
AcDbEntity
  8
0
100
AcDbLine
 62
7
  6
BYLAYER
 10
52.4493359523
 20
127.09382618
 11
53.9452846382
 21
127.8671320202
  0
LINE
  5
275
100
AcDbEntity
  8
0
100
AcDbLine
 62
7
  6
BYLAYER
 10
56.0252661777
 20
177.7766982039
 11
137.3428847086
 21
130.8290115143
  0
LINE
  5
276
100
AcDbEntity
  8
0
100
AcDbLine
 62
7
  6
BYLAYER
 10
56.073441242
 20
178.8659650666
 11
137.3910597729
 21
131.918278377
  0
LINE
  5
277
100
AcDbEntity
  8
0
100
AcDbLine
 62
7
  6
BYLAYER
 10
113.5839159904
 20
156.1399917733
 11
113.5839159904
 21
155.8133925573
  0
LINE
  5
278
100
AcDbEntity
  8
0
100
AcDbLine
 62
7
  6
BYLAYER
 10
138.5422993874
 20
166.8788001532
 11
145.4204325455
 21
170.9909618181
  0
LINE
  5
279
100
AcDbEntity
  8
0
100
AcDbLine
 62
7
  6
BYLAYER
 10
122.8390939627
 20
152.1684577144
 11
124.1967333278
 21
152.9522864912
  0
LINE
  5
27A
100
AcDbEntity
  8
0
100
AcDbLine
 62
7
  6
BYLAYER
 10
124.3160282089
 20
152.8857204511
 11
131.6152140124
 21
157.0998821989
  0
LINE
  5
27B
100
AcDbEntity
  8
0
100
AcDbLine
 62
7
  6
BYLAYER
 10
139.888458506
 20
132.2986904636
 11
139.8138375143
 21
132.3417719379
  0
LINE
  5
27C
100
AcDbEntity
  8
0
100
AcDbLine
 62
7
  6
BYLAYER
 10
139.8099268947
 20
132.4256778071
 11
139.959168865
 21
132.339514865
  0
LINE
  5
27D
100
AcDbEntity
  8
0
100
AcDbLine
 62
7
  6
BYLAYER
 10
58.4519545394
 20
180.2391921668
 11
139.7695730703
 21
133.2915054771
  0
LINE
  5
27E
100
AcDbEntity
  8
0
100
AcDbLine
 62
7
  6
BYLAYER
 10
176.6578579537
 20
116.9480781997
 11
185.9209182054
 21
111.5998949601
  0
LINE
  5
27F
100
AcDbEntity
  8
0
100
AcDbLine
 62
7
  6
BYLAYER
 10
87.3333701952
 20
169.4011651707
 11
94.5582311103
 21
165.2299841555
  0
LINE
  5
280
100
AcDbEntity
  8
0
100
AcDbLine
 62
7
  6
BYLAYER
 10
115.6142330477
 20
153.0735708253
 11
122.8390939627
 21
148.9023898101
  0
LINE
  5
281
100
AcDbEntity
  8
0
100
AcDbLine
 62
7
  6
BYLAYER
 10
115.3516903063
 20
177.8181570849
 11
115.3516903063
 21
155.1193898887
  0
LINE
  5
282
100
AcDbEntity
  8
0
100
AcDbLine
 62
7
  6
BYLAYER
 10
115.6142330477
 20
156.3396387296
 11
115.6142330477
 21
153.0735708253
  0
LINE
  5
283
100
AcDbEntity
  8
0
100
AcDbLine
 62
7
  6
BYLAYER
 10
117.1360434911
 20
179.2374281255
 11
117.1360434911
 21
187.3205919709
  0
LINE
  5
284
100
AcDbEntity
  8
0
100
AcDbLine
 62
7
  6
BYLAYER
 10
117.4730018143
 20
179.0428895486
 11
117.4730018143
 21
159.169407456
  0
LINE
  5
285
100
AcDbEntity
  8
0
100
AcDbLine
 62
7
  6
BYLAYER
 10
117.9285197322
 20
178.1696861579
 11
117.9285197322
 21
199.0769854488
  0
LINE
  5
286
100
AcDbEntity
  8
0
100
AcDbLine
 62
7
  6
BYLAYER
 10
118.6294527161
 20
212.5038407949
 11
118.6294527161
 21
199.4887922659
  0
LINE
  5
287
100
AcDbEntity
  8
0
100
AcDbLine
 62
7
  6
BYLAYER
 10
122.8390939627
 20
148.9023898101
 11
124.1967333278
 21
149.6862185869
  0
LINE
  5
288
100
AcDbEntity
  8
0
100
AcDbLine
 62
7
  6
BYLAYER
 10
131.6152140124
 20
153.8338725305
 11
124.3139795366
 21
149.6185279882
  0
LINE
  5
289
100
AcDbEntity
  8
0
100
AcDbLine
 62
7
  6
BYLAYER
 10
127.7261105175
 20
147.9751766968
 11
129.8474220255
 21
149.1999091605
  0
LINE
  5
28A
100
AcDbEntity
  8
0
100
AcDbLine
 62
7
  6
BYLAYER
 10
127.5846891612
 20
147.7302256316
 11
127.7261105175
 21
147.8118748026
  0
LINE
  5
28B
100
AcDbEntity
  8
0
100
AcDbLine
 62
7
  6
BYLAYER
 10
148.9394023082
 20
158.4267212783
 11
151.0607138162
 21
159.651453742
  0
LINE
  5
28C
100
AcDbEntity
  8
0
100
AcDbLine
 62
7
  6
BYLAYER
 10
178.9658035238
 20
177.6694205931
 11
175.3994300783
 21
175.6460131356
  0
LINE
  5
28D
100
AcDbEntity
  8
0
100
AcDbLine
 62
7
  6
BYLAYER
 10
153.8731208702
 20
166.1109103566
 11
146.7506034109
 21
162.1398408414
  0
LINE
  5
28E
100
AcDbEntity
  8
0
100
AcDbLine
 62
7
  6
BYLAYER
 10
53.9452846382
 20
110.4756305353
 11
52.4493359523
 21
109.7023246952
  0
LINE
  5
28F
100
AcDbEntity
  8
0
100
AcDbLine
 62
7
  6
BYLAYER
 10
70.2380903538
 20
180.8385507666
 11
70.3925047834
 21
180.7494015713
  0
LINE
  5
290
100
AcDbEntity
  8
0
100
AcDbLine
 62
7
  6
BYLAYER
 10
71.0159110528
 20
180.3894859374
 11
85.2995275252
 21
172.1430227102
  0
LINE
  5
291
100
AcDbEntity
  8
0
100
AcDbLine
 62
7
  6
BYLAYER
 10
95.9158704754
 20
166.0138129323
 11
96.0295904824
 21
165.9481581412
  0
LINE
  5
292
100
AcDbEntity
  8
0
100
AcDbLine
 62
7
  6
BYLAYER
 10
99.300300107
 20
164.0598557845
 11
113.5839165794
 21
155.8133925573
  0
LINE
  5
293
100
AcDbEntity
  8
0
100
AcDbLine
 62
7
  6
BYLAYER
 10
124.1967333278
 20
149.6862185869
 11
124.3139795366
 21
149.6185279882
  0
LINE
  5
294
100
AcDbEntity
  8
0
100
AcDbLine
 62
7
  6
BYLAYER
 10
127.5846891612
 20
147.7302256316
 11
141.8683056336
 21
139.4837624044
  0
LINE
  5
295
100
AcDbEntity
  8
0
100
AcDbLine
 62
7
  6
BYLAYER
 10
142.5300696886
 20
139.1017013938
 11
142.6461263326
 21
139.0346975752
  0
LINE
  5
296
100
AcDbEntity
  8
0
100
AcDbLine
 62
7
  6
BYLAYER
 10
148.9394023082
 20
135.7279540821
 11
141.8683050446
 21
139.8103616203
  0
LINE
  5
297
100
AcDbEntity
  8
0
100
AcDbLine
 62
7
  6
BYLAYER
 10
115.3516903063
 20
155.1193898887
 11
113.5839159904
 21
156.1399917733
  0
LINE
  5
298
100
AcDbEntity
  8
0
100
AcDbLine
 62
7
  6
BYLAYER
 10
99.4417214633
 20
164.3048068497
 11
97.6739471474
 21
165.3254087343
  0
LINE
  5
299
100
AcDbEntity
  8
0
100
AcDbLine
 62
7
  6
BYLAYER
 10
85.2995269362
 20
172.4696219262
 11
81.4104234412
 21
174.7149460722
  0
LINE
  5
29A
100
AcDbEntity
  8
0
100
AcDbLine
 62
7
  6
BYLAYER
 10
64.0862351455
 20
184.7168445409
 11
71.1573324091
 21
180.6344370026
  0
LINE
  5
29B
100
AcDbEntity
  8
0
100
AcDbLine
 62
7
  6
BYLAYER
 10
127.7261105175
 20
147.9751766968
 11
131.6152140124
 21
145.7298525508
  0
LINE
  5
29C
100
AcDbEntity
  8
0
100
AcDbLine
 62
7
  6
BYLAYER
 10
87.4208384442
 20
173.6943543899
 11
83.5317349492
 21
175.9396785359
  0
LINE
  5
29D
100
AcDbEntity
  8
0
100
AcDbLine
 62
7
  6
BYLAYER
 10
129.8474220255
 20
149.1999091605
 11
131.6152140124
 21
148.1792970738
  0
LINE
  5
29E
100
AcDbEntity
  8
0
100
AcDbLine
 62
7
  6
BYLAYER
 10
122.8390939627
 20
148.9023898101
 11
122.8390939627
 21
152.1684577144
  0
LINE
  5
29F
100
AcDbEntity
  8
0
100
AcDbLine
 62
7
  6
BYLAYER
 10
124.1967333278
 20
149.6862185869
 11
124.1967333278
 21
152.9522864912
  0
LINE
  5
2A0
100
AcDbEntity
  8
0
100
AcDbLine
 62
7
  6
BYLAYER
 10
124.3139795366
 20
149.6185279882
 11
124.3139795366
 21
152.8845337585
  0
LINE
  5
2A1
100
AcDbEntity
  8
0
100
AcDbLine
 62
7
  6
BYLAYER
 10
127.7261105175
 20
147.6485778209
 11
127.7261105175
 21
147.9751766968
  0
LINE
  5
2A2
100
AcDbEntity
  8
0
100
AcDbLine
 62
7
  6
BYLAYER
 10
124.4028351915
 20
118.2140340988
 11
124.6713195926
 21
130.2083277637
  0
LINE
  5
2A3
100
AcDbEntity
  8
0
100
AcDbLine
 62
7
  6
BYLAYER
 10
73.4081082322
 20
111.1582726596
 11
74.8219677322
 21
111.9745599527
  0
LINE
  5
2A4
100
AcDbEntity
  8
0
100
AcDbLine
 62
7
  6
BYLAYER
 10
189.4564373854
 20
171.6127873492
 11
185.9209182054
 21
169.5715665763
  0
LINE
  5
2A5
100
AcDbEntity
  8
0
100
AcDbLine
 62
7
  6
BYLAYER
 10
167.465431511
 20
158.8345162868
 11
176.7284917627
 21
164.1825147116
  0
LINE
  5
2A6
100
AcDbEntity
  8
0
100
AcDbLine
 62
7
  6
BYLAYER
 10
166.0555316511
 20
159.6485039328
 11
165.5567499638
 21
159.3655165785
  0
LINE
  5
2A7
100
AcDbEntity
  8
0
100
AcDbLine
 62
7
  6
BYLAYER
 10
188.7493335494
 20
127.0644016151
 11
189.4564373854
 21
126.656164262
  0
LINE
  5
2A8
100
AcDbEntity
  8
0
100
AcDbLine
 62
7
  6
BYLAYER
 10
131.6152140124
 20
145.7298525508
 11
131.6152140124
 21
168.428619747
  0
LINE
  5
2A9
100
AcDbEntity
  8
0
100
AcDbLine
 62
7
  6
BYLAYER
 10
130.4696193487
 20
126.8607535823
 11
130.2011349477
 21
114.8664599174
  0
LINE
  5
2AA
100
AcDbEntity
  8
0
100
AcDbLine
 62
7
  6
BYLAYER
 10
136.6789731866
 20
135.0758237792
 11
142.5300696886
 21
139.1017013938
  0
LINE
  5
2AB
100
AcDbEntity
  8
0
100
AcDbLine
 62
7
  6
BYLAYER
 10
142.6461263326
 20
139.0346975752
 11
136.7950298306
 21
135.0088199606
  0
LINE
  5
2AC
100
AcDbEntity
  8
0
100
AcDbLine
 62
7
  6
BYLAYER
 10
124.6713195926
 20
130.2083277637
 11
100.7148576658
 21
116.3771405352
  0
LINE
  5
2AD
100
AcDbEntity
  8
0
100
AcDbLine
 62
7
  6
BYLAYER
 10
142.1511526006
 20
139.6470632026
 11
141.8683056336
 21
139.4837624044
  0
LINE
  5
2AE
100
AcDbEntity
  8
0
100
AcDbLine
 62
7
  6
BYLAYER
 10
88.0222743034
 20
104.6398383051
 11
89.4364819754
 21
105.4563266142
  0
LINE
  5
2AF
100
AcDbEntity
  8
0
100
AcDbLine
 62
7
  6
BYLAYER
 10
81.4104234412
 20
197.4137132684
 11
64.0862351455
 21
207.4156117371
  0
LINE
  5
2B0
100
AcDbEntity
  8
0
100
AcDbLine
 62
7
  6
BYLAYER
 10
97.6739471474
 20
188.0241759305
 11
115.3516903063
 21
177.8181570849
  0
LINE
  5
2B1
100
AcDbEntity
  8
0
100
AcDbLine
 62
7
  6
BYLAYER
 10
131.6152140124
 20
168.428619747
 11
148.9394023082
 21
158.4267212783
  0
LINE
  5
2B2
100
AcDbEntity
  8
0
100
AcDbLine
 62
7
  6
BYLAYER
 10
139.8177481346
 20
132.2578660553
 11
139.7695730703
 21
133.2915054771
  0
LINE
  5
2B3
100
AcDbEntity
  8
0
100
AcDbLine
 62
7
  6
BYLAYER
 10
138.6862523725
 20
95.0252922822
 11
138.6862523725
 21
90.0443171626
  0
LINE
  5
2B4
100
AcDbEntity
  8
0
100
AcDbLine
 62
7
  6
BYLAYER
 10
139.8884584814
 20
132.2986904495
 11
139.8884584814
 21
95.7193821621
  0
LINE
  5
2B5
100
AcDbEntity
  8
0
100
AcDbLine
 62
7
  6
BYLAYER
 10
139.959168865
 20
132.3395148649
 11
139.959168865
 21
95.7602065775
  0
LINE
  5
2B6
100
AcDbEntity
  8
0
100
AcDbLine
 62
7
  6
BYLAYER
 10
141.8683050446
 20
139.8103616203
 11
141.8683050446
 21
139.4837624044
  0
LINE
  5
2B7
100
AcDbEntity
  8
0
100
AcDbLine
 62
7
  6
BYLAYER
 10
142.5300696886
 20
139.1017013938
 11
142.5300696886
 21
138.954844193
  0
LINE
  5
2B8
100
AcDbEntity
  8
0
100
AcDbLine
 62
7
  6
BYLAYER
 10
137.3910597729
 20
131.918278377
 11
137.3428847086
 21
130.8290115143
  0
LINE
  5
2B9
100
AcDbEntity
  8
0
100
AcDbLine
 62
7
  6
BYLAYER
 10
139.7695730703
 20
133.2915054771
 11
137.3910597729
 21
131.918278377
  0
LINE
  5
2BA
100
AcDbEntity
  8
0
100
AcDbLine
 62
7
  6
BYLAYER
 10
90.7092904791
 20
104.7214869088
 11
93.0073616485
 21
106.0482710018
  0
LINE
  5
2BB
100
AcDbEntity
  8
0
100
AcDbLine
 62
7
  6
BYLAYER
 10
176.6578579537
 20
153.5273864871
 11
151.0607138162
 21
138.7489565936
  0
LINE
  5
2BC
100
AcDbEntity
  8
0
100
AcDbLine
 62
7
  6
BYLAYER
 10
147.3837645756
 20
136.6260816244
 11
139.959168865
 21
132.3395148649
  0
LINE
  5
2BD
100
AcDbEntity
  8
0
100
AcDbLine
 62
7
  6
BYLAYER
 10
139.888458506
 20
132.2986904636
 11
139.8177481346
 21
132.2578660553
  0
LINE
  5
2BE
100
AcDbEntity
  8
0
100
AcDbLine
 62
7
  6
BYLAYER
 10
137.3428847086
 20
130.8290115143
 11
130.4696193487
 21
126.8607535823
  0
LINE
  5
2BF
100
AcDbEntity
  8
0
100
AcDbLine
 62
7
  6
BYLAYER
 10
148.9394023082
 20
135.7279540821
 11
151.0607138162
 21
136.9526865458
  0
LINE
  5
2C0
100
AcDbEntity
  8
0
100
AcDbLine
 62
7
  6
BYLAYER
 10
188.7493335494
 20
158.1894946656
 11
189.4564373854
 21
158.5977388201
  0
LINE
  5
2C1
100
AcDbEntity
  8
0
100
AcDbLine
 62
7
  6
BYLAYER
 10
92.2649326615
 20
102.1903937821
 11
95.9772224992
 21
104.3336598358
  0
LINE
  5
2C2
100
AcDbEntity
  8
0
100
AcDbLine
 62
7
  6
BYLAYER
 10
94.0327069774
 20
101.1697918976
 11
95.4469146494
 21
101.9862802067
  0
LINE
  5
2C3
100
AcDbEntity
  8
0
100
AcDbLine
 62
7
  6
BYLAYER
 10
124.4028351915
 20
118.2140340988
 11
100.7148576658
 21
104.5378554868
  0
LINE
  5
2C4
100
AcDbEntity
  8
0
100
AcDbLine
 62
7
  6
BYLAYER
 10
94.0327069774
 20
99.7816898214
 11
93.6791403335
 21
99.5775592422
  0
LINE
  5
2C5
100
AcDbEntity
  8
0
100
AcDbLine
 62
7
  6
BYLAYER
 10
117.4730018143
 20
178.3078272891
 11
117.818510824
 21
178.1083520827
  0
LINE
  5
2C6
100
AcDbEntity
  8
0
100
AcDbLine
 62
7
  6
BYLAYER
 10
83.5317349492
 20
198.6384457321
 11
66.2075466535
 21
208.6403442008
  0
LINE
  5
2C7
100
AcDbEntity
  8
0
100
AcDbLine
 62
7
  6
BYLAYER
 10
99.7952586554
 20
189.2489083942
 11
117.4730018143
 21
179.0428895486
  0
LINE
  5
2C8
100
AcDbEntity
  8
0
100
AcDbLine
 62
7
  6
BYLAYER
 10
133.7365255204
 20
169.6533522107
 11
151.0607138162
 21
159.651453742
  0
LINE
  5
2C9
100
AcDbEntity
  8
0
100
AcDbLine
 62
7
  6
BYLAYER
 10
145.4204325455
 20
162.9077979725
 11
145.4204325455
 21
170.9909618181
  0
LINE
  5
2CA
100
AcDbEntity
  8
0
100
AcDbLine
 62
7
  6
BYLAYER
 10
148.9394023082
 20
158.4267212783
 11
148.9394023082
 21
135.7279540821
  0
LINE
  5
2CB
100
AcDbEntity
  8
0
100
AcDbLine
 62
7
  6
BYLAYER
 10
99.5027292222
 20
101.8199675678
 11
97.618871858
 21
100.7323285001
  0
LINE
  5
2CC
100
AcDbEntity
  8
0
100
AcDbLine
 62
7
  6
BYLAYER
 10
93.6791403335
 20
98.1078675885
 11
92.2649326615
 21
97.2913792794
  0
LINE
  5
2CD
100
AcDbEntity
  8
0
100
AcDbLine
 62
7
  6
BYLAYER
 10
130.2011349477
 20
114.8664599174
 11
106.513157422
 21
101.1902813054
  0
LINE
  5
2CE
100
AcDbEntity
  8
0
100
AcDbLine
 62
7
  6
BYLAYER
 10
101.4573591041
 20
96.8832639824
 11
102.8715667761
 21
97.6997522916
  0
LINE
  5
2CF
100
AcDbEntity
  8
0
100
AcDbLine
 62
7
  6
BYLAYER
 10
105.4524143799
 20
194.0659857591
 11
117.1360434911
 21
187.3205919709
  0
LINE
  5
2D0
100
AcDbEntity
  8
0
100
AcDbLine
 62
7
  6
BYLAYER
 10
125.5887318159
 20
182.4405405094
 11
145.4204325454
 21
170.9909618181
  0
LINE
  5
2D1
100
AcDbEntity
  8
0
100
AcDbLine
 62
7
  6
BYLAYER
 10
153.8731208702
 20
166.1109103566
 11
165.5567499638
 21
159.3655165785
  0
LINE
  5
2D2
100
AcDbEntity
  8
0
100
AcDbLine
 62
7
  6
BYLAYER
 10
95.3402394228
 20
200.4750731767
 11
96.7544588756
 21
199.6585916691
  0
LINE
  5
2D3
100
AcDbEntity
  8
0
100
AcDbLine
 62
7
  6
BYLAYER
 10
104.5326658655
 20
195.167943377
 11
105.9425657084
 21
194.3539557408
  0
LINE
  5
2D4
100
AcDbEntity
  8
0
100
AcDbLine
 62
7
  6
BYLAYER
 10
166.0555316511
 20
159.6485039328
 11
167.465431511
 21
158.8345162868
  0
LINE
  5
2D5
100
AcDbEntity
  8
0
100
AcDbLine
 62
7
  6
BYLAYER
 10
175.243638501
 20
154.3438679948
 11
176.6578579537
 21
153.5273864871
  0
LINE
  5
2D6
100
AcDbEntity
  8
0
100
AcDbLine
 62
7
  6
BYLAYER
 10
151.0607138162
 20
159.651453742
 11
151.0607138162
 21
136.9526865458
  0
LINE
  5
2D7
100
AcDbEntity
  8
0
100
AcDbLine
 62
7
  6
BYLAYER
 10
156.0104406682
 20
80.0424186939
 11
156.0104406682
 21
102.7411858901
  0
LINE
  5
2D8
100
AcDbEntity
  8
0
100
AcDbLine
 62
7
  6
BYLAYER
 10
158.1317521762
 20
81.2671511576
 11
158.1317521762
 21
103.9659183538
  0
LINE
  5
2D9
100
AcDbEntity
  8
0
100
AcDbLine
 62
7
  6
BYLAYER
 10
176.7284917627
 20
174.878696376
 11
167.465431511
 21
158.8345162868
  0
LINE
  5
2DA
100
AcDbEntity
  8
0
100
AcDbLine
 62
7
  6
BYLAYER
 10
175.3994300783
 20
175.6460131356
 11
166.0555316511
 21
159.6485039328
  0
LINE
  5
2DB
100
AcDbEntity
  8
0
100
AcDbLine
 62
7
  6
BYLAYER
 10
101.4573591041
 20
91.9842494797
 11
102.8715667761
 21
92.8007377888
  0
LINE
  5
2DC
100
AcDbEntity
  8
0
100
AcDbLine
 62
7
  6
BYLAYER
 10
106.513157422
 20
93.6784590678
 11
105.0989497499
 21
92.8619707587
  0
LINE
  5
2DD
100
AcDbEntity
  8
0
100
AcDbLine
 62
7
  6
BYLAYER
 10
106.0175191272
 20
205.0065900939
 11
109.1641366871
 21
203.1899307032
  0
LINE
  5
2DE
100
AcDbEntity
  8
0
100
AcDbLine
 62
7
  6
BYLAYER
 10
176.7284917627
 20
164.1825147116
 11
179.8751093226
 21
162.3658553209
  0
LINE
  5
2DF
100
AcDbEntity
  8
0
100
AcDbLine
 62
7
  6
BYLAYER
 10
175.2436385009
 20
154.3438679947
 11
184.5066987526
 21
170.388048084
  0
LINE
  5
2E0
100
AcDbEntity
  8
0
100
AcDbLine
 62
7
  6
BYLAYER
 10
185.9209182054
 20
169.5715665763
 11
176.6578579537
 21
153.5273864871
  0
LINE
  5
2E1
100
AcDbEntity
  8
0
100
AcDbLine
 62
7
  6
BYLAYER
 10
116.8776909286
 20
88.1497054976
 11
105.0989497499
 21
81.3492866772
  0
LINE
  5
2E2
100
AcDbEntity
  8
0
100
AcDbLine
 62
7
  6
BYLAYER
 10
104.6032996745
 20
216.5192532659
 11
115.1247877969
 21
210.4448067094
  0
LINE
  5
2E3
100
AcDbEntity
  8
0
100
AcDbLine
 62
7
  6
BYLAYER
 10
175.3994300783
 20
175.6460131356
 11
185.9209182053
 21
169.5715665763
  0
LINE
  5
2E4
100
AcDbEntity
  8
0
100
AcDbLine
 62
7
  6
BYLAYER
 10
188.7493335494
 20
126.2479201075
 11
189.4564373854
 21
126.656164262
  0
LINE
  5
2E5
100
AcDbEntity
  8
0
100
AcDbLine
 62
7
  6
BYLAYER
 10
122.7765456869
 20
85.8398736428
 11
139.888458506
 21
95.7193821762
  0
LINE
  5
2E6
100
AcDbEntity
  8
0
100
AcDbLine
 62
7
  6
BYLAYER
 10
139.959168865
 20
95.7602065775
 11
176.6578579537
 21
116.9480781997
  0
LINE
  5
2E7
100
AcDbEntity
  8
0
100
AcDbLine
 62
7
  6
BYLAYER
 10
158.1317521762
 20
103.9659183538
 11
156.0104406682
 21
102.7411858901
  0
LINE
  5
2E8
100
AcDbEntity
  8
0
100
AcDbLine
 62
7
  6
BYLAYER
 10
108.1388188545
 20
218.5604740388
 11
118.6294527161
 21
212.5038407949
  0
LINE
  5
2E9
100
AcDbEntity
  8
0
100
AcDbLine
 62
7
  6
BYLAYER
 10
178.9658035238
 20
177.6694205931
 11
189.4564373854
 21
171.6127873492
  0
LINE
  5
2EA
100
AcDbEntity
  8
0
100
AcDbLine
 62
7
  6
BYLAYER
 10
176.7284917627
 20
174.878696376
 11
176.7284917627
 21
164.1825147116
  0
LINE
  5
2EB
100
AcDbEntity
  8
0
100
AcDbLine
 62
7
  6
BYLAYER
 10
189.4564373854
 20
113.641115733
 11
185.9209182053
 21
111.5998949601
  0
LINE
  5
2EC
100
AcDbEntity
  8
0
100
AcDbLine
 62
7
  6
BYLAYER
 10
188.7493335494
 20
126.2479201075
 11
188.7493335494
 21
158.1894946656
  0
LINE
  5
2ED
100
AcDbEntity
  8
0
100
AcDbLine
 62
7
  6
BYLAYER
 10
189.4564373854
 20
171.6127873492
 11
189.4564373854
 21
158.5977388202
  0
LINE
  5
2EE
100
AcDbEntity
  8
0
100
AcDbLine
 62
7
  6
BYLAYER
 10
189.4564373854
 20
126.656164262
 11
189.4564373854
 21
113.641115733
  0
LINE
  5
2EF
100
AcDbEntity
  8
0
100
AcDbLine
 62
7
  6
BYLAYER
 10
158.1317521762
 20
81.2671511576
 11
156.0104406682
 21
80.0424186939
  0
ARC
  5
2F0
100
AcDbEntity
  8
0
100
AcDbCircle
 62
7
  6
BYLAYER
 10
90.5370903091
 20
174.4212412165
 40
1.7484392394
100
AcDbArc
 50
118.7124875288
 51
121.125945254
  0
ARC
  5
2F1
100
AcDbEntity
  8
0
100
AcDbCircle
 62
7
  6
BYLAYER
 10
118.8214380314
 20
158.0916844705
 40
1.7483550013
100
AcDbArc
 50
118.80162678
 51
121.1648830021
  0
SPLINE
  5
2F2
100
AcDbEntity
  8
0
100
AcDbSpline
 62
7
  6
BYLAYER
 70
0
 71
3
 72
9
 73
5
 74
0
 42
0.0000001
 43
0.0000001
 44
0.0000000001
 40
0.0
 40
0.0
 40
0.0
 40
0.0
 40
0.2428497686
 40
1.0
 40
1.0
 40
1.0
 40
1.0
 10
145.8008942915
 20
99.2621461643
 30
0.0
 10
145.7935821946
 20
99.2103438307
 30
0.0
 10
145.7675557892
 20
98.9964666237
 30
0.0
 10
145.757331965
 20
98.7807534717
 30
0.0
 10
145.757331965
 20
98.6176445637
 30
0.0
  0
SPLINE
  5
2F3
100
AcDbEntity
  8
0
100
AcDbSpline
 62
7
  6
BYLAYER
 70
0
 71
3
 72
13
 73
9
 74
0
 42
0.0000001
 43
0.0000001
 44
0.0000000001
 40
0.0
 40
0.0
 40
0.0
 40
0.0
 40
0.109593445
 40
0.2300557007
 40
0.4921541591
 40
0.7586177103
 40
0.8841364438
 40
1.0
 40
1.0
 40
1.0
 40
1.0
 10
147.0704216877
 20
99.8700494616
 30
0.0
 10
147.3571311258
 20
99.7434845927
 30
0.0
 10
147.9310478078
 20
99.4126317075
 30
0.0
 10
149.0219244838
 20
98.5163409871
 30
0.0
 10
150.1911290149
 20
97.0473083825
 30
0.0
 10
150.9970814582
 20
95.3376721978
 30
0.0
 10
151.3487774757
 20
93.9246197655
 30
0.0
 10
151.4142274469
 20
93.2335965695
 30
0.0
 10
151.4142274469
 20
92.9022638079
 30
0.0
  0
SPLINE
  5
2F4
100
AcDbEntity
  8
0
100
AcDbSpline
 62
7
  6
BYLAYER
 70
0
 71
3
 72
9
 73
5
 74
0
 42
0.0000001
 43
0.0000001
 44
0.0000000001
 40
0.0
 40
0.0
 40
0.0
 40
0.0
 40
0.2460303515
 40
1.0
 40
1.0
 40
1.0
 40
1.0
 10
117.9166264985
 20
159.5876999867
 30
0.0
 10
117.8656875873
 20
159.5568931482
 30
0.0
 10
117.6650275027
 20
159.4212386489
 30
0.0
 10
117.4931232369
 20
159.2444273625
 30
0.0
 10
117.3845413035
 20
159.0978274742
 30
0.0
  0
SPLINE
  5
2F5
100
AcDbEntity
  8
0
100
AcDbSpline
 62
7
  6
BYLAYER
 70
0
 71
3
 72
11
 73
7
 74
0
 42
0.0000001
 43
0.0000001
 44
0.0000000001
 40
0.0
 40
0.0
 40
0.0
 40
0.0
 40
0.2177839468
 40
0.4509170844
 40
0.7103078712
 40
1.0
 40
1.0
 40
1.0
 40
1.0
 10
116.6723232927
 20
158.6783217604
 30
0.0
 10
116.5038163852
 20
158.5810041586
 30
0.0
 10
116.1884969822
 20
158.315970373
 30
0.0
 10
115.8528316357
 20
157.7671146882
 30
0.0
 10
115.6534769643
 20
157.0907511587
 30
0.0
 10
115.6142330477
 20
156.5984787913
 30
0.0
 10
115.6142330477
 20
156.3396387296
 30
0.0
  0
SPLINE
  5
2F6
100
AcDbEntity
  8
0
100
AcDbSpline
 62
7
  6
BYLAYER
 70
0
 71
3
 72
9
 73
5
 74
0
 42
0.0000001
 43
0.0000001
 44
0.0000000001
 40
0.0
 40
0.0
 40
0.0
 40
0.0
 40
0.2458751164
 40
1.0
 40
1.0
 40
1.0
 40
1.0
 10
89.6332563159
 20
175.9179458602
 30
0.0
 10
89.5810825426
 20
175.8864405928
 30
0.0
 10
89.3755711396
 20
175.7473524611
 30
0.0
 10
89.200310832
 20
175.5650972623
 30
0.0
 10
89.0902606564
 20
175.4139896909
 30
0.0
  0
SPLINE
  5
2F7
100
AcDbEntity
  8
0
100
AcDbSpline
 62
7
  6
BYLAYER
 70
0
 71
3
 72
11
 73
7
 74
0
 42
0.0000001
 43
0.0000001
 44
0.0000000001
 40
0.0
 40
0.0
 40
0.0
 40
0.0
 40
0.2177839468
 40
0.4509170844
 40
0.7103078712
 40
1.0
 40
1.0
 40
1.0
 40
1.0
 10
88.3914604402
 20
175.0059161058
 30
0.0
 10
88.2229535328
 20
174.908598504
 30
0.0
 10
87.9076341298
 20
174.6435647184
 30
0.0
 10
87.5719687832
 20
174.0947090337
 30
0.0
 10
87.3726141119
 20
173.4183455041
 30
0.0
 10
87.3333701952
 20
172.9260731368
 30
0.0
 10
87.3333701952
 20
172.667233075
 30
0.0
  0
SPLINE
  5
2F8
100
AcDbEntity
  8
0
100
AcDbSpline
 62
7
  6
BYLAYER
 70
0
 71
3
 72
9
 73
5
 74
0
 42
0.0000001
 43
0.0000001
 44
0.0000000001
 40
0.0
 40
0.0
 40
0.0
 40
0.0
 40
0.4901713257
 40
1.0
 40
1.0
 40
1.0
 40
1.0
 10
98.8777730461
 20
93.1044566087
 30
0.0
 10
98.9566449816
 20
93.1500353279
 30
0.0
 10
99.1301681994
 20
93.2225755135
 30
0.0
 10
99.3157008589
 20
93.2507979751
 30
0.0
 10
99.4103449888
 20
93.2552253876
 30
0.0
  0
SPLINE
  5
2F9
100
AcDbEntity
  8
0
100
AcDbSpline
 62
7
  6
BYLAYER
 70
0
 71
3
 72
10
 73
6
 74
0
 42
0.0000001
 43
0.0000001
 44
0.0000000001
 40
0.0
 40
0.0
 40
0.0
 40
0.0
 40
0.5200726607
 40
0.7712182141
 40
1.0
 40
1.0
 40
1.0
 40
1.0
 10
101.5232481357
 20
92.0783500943
 30
0.0
 10
101.9126802327
 20
91.6305706544
 30
0.0
 10
102.3828642335
 20
90.8622812562
 30
0.0
 10
102.7320642811
 20
89.7727163602
 30
0.0
 10
102.8008432334
 20
89.2241913337
 30
0.0
 10
102.8008432334
 20
88.9631376847
 30
0.0
  0
SPLINE
  5
2FA
100
AcDbEntity
  8
0
100
AcDbSpline
 62
7
  6
BYLAYER
 70
0
 71
3
 72
9
 73
5
 74
0
 42
0.0000001
 43
0.0000001
 44
0.0000000001
 40
0.0
 40
0.0
 40
0.0
 40
0.0
 40
0.4901713257
 40
1.0
 40
1.0
 40
1.0
 40
1.0
 10
91.5945428647
 20
97.3093363731
 30
0.0
 10
91.6734148001
 20
97.3549150923
 30
0.0
 10
91.846938018
 20
97.4274552779
 30
0.0
 10
92.0324706775
 20
97.4556777395
 30
0.0
 10
92.1271148073
 20
97.4601051519
 30
0.0
  0
SPLINE
  5
2FB
100
AcDbEntity
  8
0
100
AcDbSpline
 62
7
  6
BYLAYER
 70
0
 71
3
 72
9
 73
5
 74
0
 42
0.0000001
 43
0.0000001
 44
0.0000000001
 40
0.0
 40
0.0
 40
0.0
 40
0.0
 40
0.4511591714
 40
1.0
 40
1.0
 40
1.0
 40
1.0
 10
92.3104185789
 20
97.4568027629
 30
0.0
 10
92.6166848063
 20
97.4322415781
 30
0.0
 10
93.2766375136
 20
97.1816798202
 30
0.0
 10
93.8062108492
 20
96.7418726736
 30
0.0
 10
94.0659805541
 20
96.4731239502
 30
0.0
  0
SPLINE
  5
2FC
100
AcDbEntity
  8
0
100
AcDbSpline
 62
7
  6
BYLAYER
 70
0
 71
3
 72
10
 73
6
 74
0
 42
0.0000001
 43
0.0000001
 44
0.0000000001
 40
0.0
 40
0.0
 40
0.0
 40
0.0
 40
0.5210421483
 40
0.7715153295
 40
1.0
 40
1.0
 40
1.0
 40
1.0
 10
94.3133680633
 20
96.1969736685
 30
0.0
 10
94.6810415746
 20
95.7548311352
 30
0.0
 10
95.1248779491
 20
95.0063160703
 30
0.0
 10
95.4534056659
 20
93.9496170261
 30
0.0
 10
95.5176130519
 20
93.4201820529
 30
0.0
 10
95.5176130519
 20
93.168017449
 30
0.0
  0
SPLINE
  5
2FD
100
AcDbEntity
  8
0
100
AcDbSpline
 62
7
  6
BYLAYER
 70
0
 71
3
 72
16
 73
12
 74
0
 42
0.0000001
 43
0.0000001
 44
0.0000000001
 40
0.0
 40
0.0
 40
0.0
 40
0.0
 40
0.0428765743
 40
0.0875234668
 40
0.1869286092
 40
0.3042403425
 40
0.4379658106
 40
0.5823707712
 40
0.7295934221
 40
0.8712541043
 40
1.0
 40
1.0
 40
1.0
 40
1.0
 10
83.6749139295
 20
101.8816328159
 30
0.0
 10
83.7550159319
 20
101.9279223694
 30
0.0
 10
83.9316486987
 20
102.0012982824
 30
0.0
 10
84.3341905927
 20
102.0603357052
 30
0.0
 10
84.9024987925
 20
101.9493634241
 30
0.0
 10
85.5719606392
 20
101.5821675165
 30
0.0
 10
86.2154733146
 20
101.0129835877
 30
0.0
 10
86.7831244695
 20
100.2860845431
 30
0.0
 10
87.2302111924
 20
99.4598889933
 30
0.0
 10
87.5202572019
 20
98.6022341437
 30
0.0
 10
87.5979841168
 20
98.018110018
 30
0.0
 10
87.5979841168
 20
97.7403138919
 30
0.0
  0
SPLINE
  5
2FE
100
AcDbEntity
  8
0
100
AcDbSpline
 62
7
  6
BYLAYER
 70
0
 71
3
 72
16
 73
12
 74
0
 42
0.0000001
 43
0.0000001
 44
0.0000000001
 40
0.0
 40
0.0
 40
0.0
 40
0.0
 40
0.0428765743
 40
0.0875234668
 40
0.1869286092
 40
0.3042403425
 40
0.4379658106
 40
0.5823707712
 40
0.7295934221
 40
0.8712541043
 40
1.0
 40
1.0
 40
1.0
 40
1.0
 10
76.391683748
 20
106.0865125802
 30
0.0
 10
76.4717857504
 20
106.1328021338
 30
0.0
 10
76.6484185172
 20
106.2061780468
 30
0.0
 10
77.0509604113
 20
106.2652154696
 30
0.0
 10
77.6192686111
 20
106.1542431885
 30
0.0
 10
78.2887304578
 20
105.7870472809
 30
0.0
 10
78.9322431331
 20
105.217863352
 30
0.0
 10
79.499894288
 20
104.4909643074
 30
0.0
 10
79.946981011
 20
103.6647687577
 30
0.0
 10
80.2370270204
 20
102.8071139081
 30
0.0
 10
80.3147539353
 20
102.2229897823
 30
0.0
 10
80.3147539353
 20
101.9451936562
 30
0.0
  0
SPLINE
  5
2FF
100
AcDbEntity
  8
0
100
AcDbSpline
 62
7
  6
BYLAYER
 70
0
 71
3
 72
16
 73
12
 74
0
 42
0.0000001
 43
0.0000001
 44
0.0000000001
 40
0.0
 40
0.0
 40
0.0
 40
0.0
 40
0.0428765743
 40
0.0875234668
 40
0.1869286092
 40
0.3042403425
 40
0.4379658106
 40
0.5823707712
 40
0.7295934221
 40
0.8712541043
 40
1.0
 40
1.0
 40
1.0
 40
1.0
 10
179.2404632838
 20
170.5278858896
 30
0.0
 10
179.3083485153
 20
170.5671155838
 30
0.0
 10
179.458042105
 20
170.6293005567
 30
0.0
 10
179.799190252
 20
170.6793338766
 30
0.0
 10
180.2808228277
 20
170.5852865523
 30
0.0
 10
180.8481815843
 20
170.2740935925
 30
0.0
 10
181.393548812
 20
169.7917188496
 30
0.0
 10
181.8746245522
 20
169.1756829393
 30
0.0
 10
182.2535237657
 20
168.4754947477
 30
0.0
 10
182.4993333576
 20
167.7486452768
 30
0.0
 10
182.5652057385
 20
167.2536089438
 30
0.0
 10
182.5652057385
 20
167.0181809422
 30
0.0
  0
SPLINE
  5
300
100
AcDbEntity
  8
0
100
AcDbSpline
 62
7
  6
BYLAYER
 70
0
 71
3
 72
11
 73
7
 74
0
 42
0.0000001
 43
0.0000001
 44
0.0000000001
 40
0.0
 40
0.0
 40
0.0
 40
0.0
 40
0.2897485188
 40
0.5490831641
 40
0.7822238579
 40
1.0
 40
1.0
 40
1.0
 40
1.0
 10
76.4606553567
 20
190.0651183311
 30
0.0
 10
76.4606553567
 20
189.7863989784
 30
0.0
 10
76.418462296
 20
189.2564149569
 30
0.0
 10
76.2037540246
 20
188.5282540906
 30
0.0
 10
75.8423874167
 20
187.9374481662
 30
0.0
 10
75.5029623886
 20
187.6520352388
 30
0.0
 10
75.3215240086
 20
187.5473225839
 30
0.0
  0
SPLINE
  5
301
100
AcDbEntity
  8
0
100
AcDbSpline
 62
7
  6
BYLAYER
 70
0
 71
3
 72
16
 73
12
 74
0
 42
0.0000001
 43
0.0000001
 44
0.0000000001
 40
0.0
 40
0.0
 40
0.0
 40
0.0
 40
0.0428559488
 40
0.0874467621
 40
0.1865641251
 40
0.3033708693
 40
0.4365414501
 40
0.5805679354
 40
0.7278118906
 40
0.8700446437
 40
1.0
 40
1.0
 40
1.0
 40
1.0
 10
108.5098367615
 20
211.386003008
 30
0.0
 10
108.5779722012
 20
211.4253772932
 30
0.0
 10
108.7280328946
 20
211.4879596493
 30
0.0
 10
109.0696878106
 20
211.5393998072
 30
0.0
 10
109.5522066827
 20
211.4483494554
 30
0.0
 10
110.1219359711
 20
211.1410956253
 30
0.0
 10
110.6711284588
 20
210.6625558949
 30
0.0
 10
111.1581388155
 20
210.0492359401
 30
0.0
 10
111.5453418324
 20
209.3494641361
 30
0.0
 10
111.8018934774
 20
208.619522763
 30
0.0
 10
111.876422608
 20
208.1205657472
 30
0.0
 10
111.8814382337
 20
207.8819881389
 30
0.0
  0
SPLINE
  5
302
100
AcDbEntity
  8
0
100
AcDbSpline
 62
7
  6
BYLAYER
 70
0
 71
3
 72
17
 73
13
 74
0
 42
0.0000001
 43
0.0000001
 44
0.0000000001
 40
0.0
 40
0.0
 40
0.0
 40
0.0
 40
0.0428576997
 40
0.0874859835
 40
0.1353172027
 40
0.1872823181
 40
0.3045430421
 40
0.4382102004
 40
0.5825525594
 40
0.7297128879
 40
0.8713031562
 40
1.0
 40
1.0
 40
1.0
 40
1.0
 10
137.704113445
 20
157.8824500033
 30
0.0
 10
137.8397148257
 20
157.9607089725
 30
0.0
 10
138.138574976
 20
158.0850050342
 30
0.0
 10
138.631962037
 20
158.1571973043
 30
0.0
 10
139.1618122767
 20
158.1183570138
 30
0.0
 10
139.9316474051
 20
157.9134540506
 30
0.0
 10
140.9158358578
 20
157.3754424383
 30
0.0
 10
142.003150821
 20
156.4124572494
 30
0.0
 10
142.9642993998
 20
155.1822205534
 30
0.0
 10
143.7207149797
 20
153.7840668279
 30
0.0
 10
144.2116729366
 20
152.3326674499
 30
0.0
 10
144.3431890868
 20
151.3441491979
 30
0.0
 10
144.3431890868
 20
150.8740059641
 30
0.0
  0
SPLINE
  5
303
100
AcDbEntity
  8
0
100
AcDbSpline
 62
7
  6
BYLAYER
 70
0
 71
3
 72
9
 73
5
 74
0
 42
0.0000001
 43
0.0000001
 44
0.0000000001
 40
0.0
 40
0.0
 40
0.0
 40
0.0
 40
0.2311637767
 40
1.0
 40
1.0
 40
1.0
 40
1.0
 10
138.9503619292
 20
158.0634674634
 30
0.0
 10
138.9057167987
 20
157.9565830196
 30
0.0
 10
138.7413517777
 20
157.4821562567
 30
0.0
 10
138.686293605
 20
156.9746427138
 30
0.0
 10
138.686293605
 20
156.5893867198
 30
0.0
  0
SPLINE
  5
304
100
AcDbEntity
  8
0
100
AcDbSpline
 62
7
  6
BYLAYER
 70
0
 71
3
 72
17
 73
13
 74
0
 42
0.0000001
 43
0.0000001
 44
0.0000000001
 40
0.0
 40
0.0
 40
0.0
 40
0.0
 40
0.0428600037
 40
0.087490031
 40
0.1353224918
 40
0.1872886049
 40
0.3045519794
 40
0.4382152215
 40
0.5825545928
 40
0.72971535
 40
0.8713060581
 40
1.0
 40
1.0
 40
1.0
 40
1.0
 10
103.762847739
 20
177.4780040866
 30
0.0
 10
103.8984573888
 20
177.5562655109
 30
0.0
 10
104.1973323115
 20
177.680564837
 30
0.0
 10
104.690739533
 20
177.7527541152
 30
0.0
 10
105.2206040725
 20
177.7139051399
 30
0.0
 10
105.9904509092
 20
177.5089765312
 30
0.0
 10
106.9746289941
 20
176.9709512966
 30
0.0
 10
108.0619254753
 20
176.007969781
 30
0.0
 10
109.0230514572
 20
174.7777462094
 30
0.0
 10
109.7794600806
 20
173.379597969
 30
0.0
 10
110.2704095005
 20
171.928203608
 30
0.0
 10
110.4019222218
 20
170.939694699
 30
0.0
 10
110.4019222218
 20
170.4695621476
 30
0.0
  0
SPLINE
  5
305
100
AcDbEntity
  8
0
100
AcDbSpline
 62
7
  6
BYLAYER
 70
0
 71
3
 72
15
 73
11
 74
0
 42
0.0000001
 43
0.0000001
 44
0.0000000001
 40
0.0
 40
0.0
 40
0.0
 40
0.0
 40
0.1204424768
 40
0.2518663837
 40
0.3897819897
 40
0.5288450027
 40
0.6635892898
 40
0.7890759027
 40
0.9016694071
 40
1.0
 40
1.0
 40
1.0
 40
1.0
 10
70.8037598748
 20
195.7804990868
 30
0.0
 10
70.8037598748
 20
195.3935160839
 30
0.0
 10
70.8930530622
 20
194.5833732341
 30
0.0
 10
71.2377561096
 20
193.3746600051
 30
0.0
 10
71.7803271918
 20
192.1748867098
 30
0.0
 10
72.4897964041
 20
191.0532818611
 30
0.0
 10
73.3254463002
 20
190.0737096951
 30
0.0
 10
74.2408649564
 20
189.2917601932
 30
0.0
 10
75.184945036
 20
188.7513183664
 30
0.0
 10
75.8472290911
 20
188.562463943
 30
0.0
 10
76.1613957125
 20
188.5290618962
 30
0.0
  0
SPLINE
  5
306
100
AcDbEntity
  8
0
100
AcDbSpline
 62
7
  6
BYLAYER
 70
0
 71
3
 72
9
 73
5
 74
0
 42
0.0000001
 43
0.0000001
 44
0.0000000001
 40
0.0
 40
0.0
 40
0.0
 40
0.0
 40
0.2311820584
 40
1.0
 40
1.0
 40
1.0
 40
1.0
 10
105.0086344449
 20
177.6579193072
 30
0.0
 10
104.964067044
 20
177.5510914574
 30
0.0
 10
104.7999965147
 20
177.0769846238
 30
0.0
 10
104.7450267399
 20
176.5698860086
 30
0.0
 10
104.7450267399
 20
176.1849429033
 30
0.0
  0
SPLINE
  5
307
100
AcDbEntity
  8
0
100
AcDbSpline
 62
7
  6
BYLAYER
 70
0
 71
3
 72
9
 73
5
 74
0
 42
0.0000001
 43
0.0000001
 44
0.0000000001
 40
0.0
 40
0.0
 40
0.0
 40
0.0
 40
0.2311637767
 40
1.0
 40
1.0
 40
1.0
 40
1.0
 10
71.0678281991
 20
197.2545798304
 30
0.0
 10
71.0231830686
 20
197.1476953866
 30
0.0
 10
70.8588180476
 20
196.6732686237
 30
0.0
 10
70.8037598748
 20
196.1657550808
 30
0.0
 10
70.8037598748
 20
195.7804990868
 30
0.0
  0
SPLINE
  5
308
100
AcDbEntity
  8
0
100
AcDbSpline
 62
7
  6
BYLAYER
 70
0
 71
3
 72
17
 73
13
 74
0
 42
0.0000001
 43
0.0000001
 44
0.0000000001
 40
0.0
 40
0.0
 40
0.0
 40
0.0
 40
0.0428576997
 40
0.0874859835
 40
0.1353172027
 40
0.1872823181
 40
0.3045430421
 40
0.4382102004
 40
0.5825525594
 40
0.7297128879
 40
0.8713031562
 40
1.0
 40
1.0
 40
1.0
 40
1.0
 10
69.8215797149
 20
197.0735623703
 30
0.0
 10
69.9571810956
 20
197.1518213394
 30
0.0
 10
70.2560412459
 20
197.2761174011
 30
0.0
 10
70.7494283068
 20
197.3483096713
 30
0.0
 10
71.2792785466
 20
197.3094693808
 30
0.0
 10
72.049113675
 20
197.1045664176
 30
0.0
 10
73.0333021277
 20
196.5665548053
 30
0.0
 10
74.1206170909
 20
195.6035696164
 30
0.0
 10
75.0817656697
 20
194.3733329204
 30
0.0
 10
75.8381812496
 20
192.9751791949
 30
0.0
 10
76.3291392065
 20
191.5237798169
 30
0.0
 10
76.4606553567
 20
190.5352615649
 30
0.0
 10
76.4606553567
 20
190.0651183311
 30
0.0
  0
SPLINE
  5
309
100
AcDbEntity
  8
0
100
AcDbSpline
 62
7
  6
BYLAYER
 70
0
 71
3
 72
11
 73
7
 74
0
 42
0.0000001
 43
0.0000001
 44
0.0000000001
 40
0.0
 40
0.0
 40
0.0
 40
0.0
 40
0.2897451865
 40
0.5490799288
 40
0.7822210552
 40
1.0
 40
1.0
 40
1.0
 40
1.0
 10
110.4019222218
 20
170.4695621476
 30
0.0
 10
110.4019222218
 20
170.1908460466
 30
0.0
 10
110.3597319192
 20
169.6608647809
 30
0.0
 10
110.1450215977
 20
168.9327078886
 30
0.0
 10
109.783660616
 20
168.3418953334
 30
0.0
 10
109.4442317419
 20
168.0564801602
 30
0.0
 10
109.2627897147
 20
167.9517685006
 30
0.0
  0
SPLINE
  5
30A
100
AcDbEntity
  8
0
100
AcDbSpline
 62
7
  6
BYLAYER
 70
0
 71
3
 72
15
 73
11
 74
0
 42
0.0000001
 43
0.0000001
 44
0.0000000001
 40
0.0
 40
0.0
 40
0.0
 40
0.0
 40
0.1204340551
 40
0.2518495014
 40
0.3897570972
 40
0.528819499
 40
0.66356444
 40
0.7890557528
 40
0.9016599284
 40
1.0
 40
1.0
 40
1.0
 40
1.0
 10
104.7450267399
 20
176.1849429033
 30
0.0
 10
104.7450267399
 20
175.798039867
 30
0.0
 10
104.8342837976
 20
174.9880622063
 30
0.0
 10
105.1788607276
 20
173.7795763007
 30
0.0
 10
105.7212548461
 20
172.5799825792
 30
0.0
 10
106.4305129408
 20
171.4584909958
 30
0.0
 10
107.2659428486
 20
170.4789451003
 30
0.0
 10
108.1811445069
 20
169.6969230154
 30
0.0
 10
109.12502891
 20
169.1562873395
 30
0.0
 10
109.7872024598
 20
168.9672019149
 30
0.0
 10
110.1013397038
 20
168.93364449
 30
0.0
  0
SPLINE
  5
30B
100
AcDbEntity
  8
0
100
AcDbSpline
 62
7
  6
BYLAYER
 70
0
 71
3
 72
11
 73
7
 74
0
 42
0.0000001
 43
0.0000001
 44
0.0000000001
 40
0.0
 40
0.0
 40
0.0
 40
0.0
 40
0.2897485188
 40
0.5490831641
 40
0.7822238579
 40
1.0
 40
1.0
 40
1.0
 40
1.0
 10
144.3431890868
 20
150.8740059641
 30
0.0
 10
144.3431890868
 20
150.5952866114
 30
0.0
 10
144.3009960261
 20
150.0653025899
 30
0.0
 10
144.0862877547
 20
149.3371417236
 30
0.0
 10
143.7249211468
 20
148.7463357992
 30
0.0
 10
143.3854961188
 20
148.4609228719
 30
0.0
 10
143.2040577387
 20
148.3562102169
 30
0.0
  0
SPLINE
  5
30C
100
AcDbEntity
  8
0
100
AcDbSpline
 62
7
  6
BYLAYER
 70
0
 71
3
 72
15
 73
11
 74
0
 42
0.0000001
 43
0.0000001
 44
0.0000000001
 40
0.0
 40
0.0
 40
0.0
 40
0.0
 40
0.1204424768
 40
0.2518663837
 40
0.3897819897
 40
0.5288450026
 40
0.6635892898
 40
0.7890759027
 40
0.9016694071
 40
1.0
 40
1.0
 40
1.0
 40
1.0
 10
138.686293605
 20
156.5893867198
 30
0.0
 10
138.686293605
 20
156.2024037169
 30
0.0
 10
138.7755867923
 20
155.3922608671
 30
0.0
 10
139.1202898397
 20
154.1835476381
 30
0.0
 10
139.6628609219
 20
152.9837743428
 30
0.0
 10
140.3723301342
 20
151.8621694941
 30
0.0
 10
141.2079800303
 20
150.8825973281
 30
0.0
 10
142.1233986865
 20
150.1006478262
 30
0.0
 10
143.0674787661
 20
149.5602059994
 30
0.0
 10
143.7297628212
 20
149.371351576
 30
0.0
 10
144.0439294426
 20
149.3379495292
 30
0.0
  0
SPLINE
  5
30D
100
AcDbEntity
  8
0
100
AcDbSpline
 62
7
  6
BYLAYER
 70
0
 71
3
 72
9
 73
5
 74
0
 42
0.0000001
 43
0.0000001
 44
0.0000000001
 40
0.0
 40
0.0
 40
0.0
 40
0.0
 40
0.5116541931
 40
1.0
 40
1.0
 40
1.0
 40
1.0
 10
52.4493359523
 20
109.7023246952
 30
0.0
 10
47.4423591433
 20
112.4054041857
 30
0.0
 10
37.8438715113
 20
118.0455957097
 30
0.0
 10
28.7309630236
 20
124.4467233207
 30
0.0
 10
24.4342665995
 20
127.7682031822
 30
0.0
  0
SPLINE
  5
30E
100
AcDbEntity
  8
0
100
AcDbSpline
 62
7
  6
BYLAYER
 70
0
 71
3
 72
9
 73
5
 74
0
 42
0.0000001
 43
0.0000001
 44
0.0000000001
 40
0.0
 40
0.0
 40
0.0
 40
0.0
 40
0.2545761952
 40
1.0
 40
1.0
 40
1.0
 40
1.0
 10
73.3915881349
 20
101.0743623524
 30
0.0
 10
71.7090902853
 20
101.8023228221
 30
0.0
 10
65.1294760036
 20
104.7290654963
 30
0.0
 10
58.6703899271
 20
107.9285915397
 30
0.0
 10
53.9452846382
 20
110.4756305353
 30
0.0
  0
SPLINE
  5
30F
100
AcDbEntity
  8
0
100
AcDbSpline
 62
7
  6
BYLAYER
 70
0
 71
3
 72
15
 73
11
 74
0
 42
0.0000001
 43
0.0000001
 44
0.0000000001
 40
0.0
 40
0.0
 40
0.0
 40
0.0
 40
0.1204424768
 40
0.2518663837
 40
0.3897819897
 40
0.5288450026
 40
0.6635892898
 40
0.7890759027
 40
0.9016694071
 40
1.0
 40
1.0
 40
1.0
 40
1.0
 10
145.757331965
 20
98.6176445637
 30
0.0
 10
145.757331965
 20
98.2306615608
 30
0.0
 10
145.8466251524
 20
97.420518711
 30
0.0
 10
146.1913281998
 20
96.211805482
 30
0.0
 10
146.7338992819
 20
95.0120321867
 30
0.0
 10
147.4433684943
 20
93.890427338
 30
0.0
 10
148.2790183903
 20
92.9108551719
 30
0.0
 10
149.1944370466
 20
92.1289056701
 30
0.0
 10
150.1385171262
 20
91.5884638432
 30
0.0
 10
150.8008011813
 20
91.3996094199
 30
0.0
 10
151.1149678027
 20
91.3662073731
 30
0.0
  0
SPLINE
  5
310
100
AcDbEntity
  8
0
100
AcDbSpline
 62
7
  6
BYLAYER
 70
0
 71
3
 72
11
 73
7
 74
0
 42
0.0000001
 43
0.0000001
 44
0.0000000001
 40
0.0
 40
0.0
 40
0.0
 40
0.0
 40
0.2897485188
 40
0.5490831641
 40
0.7822238579
 40
1.0
 40
1.0
 40
1.0
 40
1.0
 10
151.4142274469
 20
92.9022638079
 30
0.0
 10
151.4142274469
 20
92.6235444552
 30
0.0
 10
151.3720343861
 20
92.0935604338
 30
0.0
 10
151.1573261148
 20
91.3653995675
 30
0.0
 10
150.7959595069
 20
90.7745936431
 30
0.0
 10
150.4565344788
 20
90.4891807157
 30
0.0
 10
150.2750960988
 20
90.3844680607
 30
0.0
  0
SPLINE
  5
311
100
AcDbEntity
  8
0
100
AcDbSpline
 62
7
  6
BYLAYER
 70
0
 71
3
 72
11
 73
7
 74
0
 42
0.0000001
 43
0.0000001
 44
0.0000000001
 40
0.0
 40
0.0
 40
0.0
 40
0.0
 40
0.2896413962
 40
0.5491107668
 40
0.7822355977
 40
1.0
 40
1.0
 40
1.0
 40
1.0
 10
80.3147539353
 20
101.9451936562
 30
0.0
 10
80.3147539353
 20
101.7805577047
 30
0.0
 10
80.2897292098
 20
101.4673811558
 30
0.0
 10
80.1629747421
 20
101.037086643
 30
0.0
 10
79.9494573135
 20
100.6878414542
 30
0.0
 10
79.7487829256
 20
100.5193724803
 30
0.0
 10
79.6416109013
 20
100.4574396321
 30
0.0
  0
SPLINE
  5
312
100
AcDbEntity
  8
0
100
AcDbSpline
 62
7
  6
BYLAYER
 70
0
 71
3
 72
11
 73
7
 74
0
 42
0.0000001
 43
0.0000001
 44
0.0000000001
 40
0.0
 40
0.0
 40
0.0
 40
0.0
 40
0.2896413962
 40
0.5491107668
 40
0.7822355977
 40
1.0
 40
1.0
 40
1.0
 40
1.0
 10
87.5979841168
 20
97.7403138919
 30
0.0
 10
87.5979841168
 20
97.5756779403
 30
0.0
 10
87.5729593912
 20
97.2625013914
 30
0.0
 10
87.4462049236
 20
96.8322068786
 30
0.0
 10
87.2326874949
 20
96.4829616898
 30
0.0
 10
87.0320131071
 20
96.314492716
 30
0.0
 10
86.9248410827
 20
96.2525598677
 30
0.0
  0
SPLINE
  5
313
100
AcDbEntity
  8
0
100
AcDbSpline
 62
7
  6
BYLAYER
 70
0
 71
3
 72
11
 73
7
 74
0
 42
0.0000001
 43
0.0000001
 44
0.0000000001
 40
0.0
 40
0.0
 40
0.0
 40
0.0
 40
0.2896413962
 40
0.5491107668
 40
0.7822355977
 40
1.0
 40
1.0
 40
1.0
 40
1.0
 10
95.5176130519
 20
93.168017449
 30
0.0
 10
95.5176130519
 20
93.0033814975
 30
0.0
 10
95.4925883264
 20
92.6902049486
 30
0.0
 10
95.3658338588
 20
92.2599104358
 30
0.0
 10
95.1523164301
 20
91.910665247
 30
0.0
 10
94.9516420423
 20
91.7421962731
 30
0.0
 10
94.8444700179
 20
91.6802634249
 30
0.0
  0
SPLINE
  5
314
100
AcDbEntity
  8
0
100
AcDbSpline
 62
7
  6
BYLAYER
 70
0
 71
3
 72
11
 73
7
 74
0
 42
0.0000001
 43
0.0000001
 44
0.0000000001
 40
0.0
 40
0.0
 40
0.0
 40
0.0
 40
0.2896413962
 40
0.5491107668
 40
0.7822355977
 40
1.0
 40
1.0
 40
1.0
 40
1.0
 10
102.8008432334
 20
88.9631376847
 30
0.0
 10
102.8008432334
 20
88.7985017331
 30
0.0
 10
102.7758185079
 20
88.4853251842
 30
0.0
 10
102.6490640402
 20
88.0550306714
 30
0.0
 10
102.4355466116
 20
87.7057854826
 30
0.0
 10
102.2348722237
 20
87.5373165088
 30
0.0
 10
102.1277001994
 20
87.4753836605
 30
0.0
  0
SPLINE
  5
315
100
AcDbEntity
  8
0
100
AcDbSpline
 62
7
  6
BYLAYER
 70
0
 71
3
 72
17
 73
13
 74
0
 42
0.0000001
 43
0.0000001
 44
0.0000000001
 40
0.0
 40
0.0
 40
0.0
 40
0.0
 40
0.0428576997
 40
0.0874859835
 40
0.1353172027
 40
0.1872823181
 40
0.3045430421
 40
0.4382102004
 40
0.5825525594
 40
0.7297128879
 40
0.8713031562
 40
1.0
 40
1.0
 40
1.0
 40
1.0
 10
75.3215240086
 20
187.5473225839
 30
0.0
 10
75.185922628
 20
187.4690636147
 30
0.0
 10
74.8870624776
 20
187.344767553
 30
0.0
 10
74.3936754167
 20
187.2725752829
 30
0.0
 10
73.8638251769
 20
187.3114155734
 30
0.0
 10
73.0939900485
 20
187.5163185366
 30
0.0
 10
72.1098015958
 20
188.0543301488
 30
0.0
 10
71.0224866327
 20
189.0173153378
 30
0.0
 10
70.0613380538
 20
190.2475520338
 30
0.0
 10
69.3049224739
 20
191.6457057592
 30
0.0
 10
68.813964517
 20
193.0971051373
 30
0.0
 10
68.6824483668
 20
194.0856233892
 30
0.0
 10
68.6824483668
 20
194.5557666231
 30
0.0
  0
SPLINE
  5
316
100
AcDbEntity
  8
0
100
AcDbSpline
 62
7
  6
BYLAYER
 70
0
 71
3
 72
17
 73
13
 74
0
 42
0.0000001
 43
0.0000001
 44
0.0000000001
 40
0.0
 40
0.0
 40
0.0
 40
0.0
 40
0.0428592927
 40
0.0874854741
 40
0.1353198782
 40
0.1872819046
 40
0.3045421967
 40
0.4382074307
 40
0.5825489112
 40
0.7297129634
 40
0.8713059682
 40
1.0
 40
1.0
 40
1.0
 40
1.0
 10
89.749096728
 20
175.789750116
 30
0.0
 10
89.8750380573
 20
175.8624746318
 30
0.0
 10
90.1526982454
 20
175.9777689556
 30
0.0
 10
90.6109517274
 20
176.0450316662
 30
0.0
 10
91.1031018144
 20
176.0087712351
 30
0.0
 10
91.8181843302
 20
175.8185828394
 30
0.0
 10
92.7323063873
 20
175.3187353456
 30
0.0
 10
93.7422660125
 20
174.4243114937
 30
0.0
 10
94.6350674594
 20
173.2816097883
 30
0.0
 10
95.3376912011
 20
171.9829162418
 30
0.0
 10
95.7937152077
 20
170.6347579466
 30
0.0
 10
95.9158704754
 20
169.7165669171
 30
0.0
 10
95.9158704754
 20
169.2798808366
 30
0.0
  0
SPLINE
  5
317
100
AcDbEntity
  8
0
100
AcDbSpline
 62
7
  6
BYLAYER
 70
0
 71
3
 72
11
 73
7
 74
0
 42
0.0000001
 43
0.0000001
 44
0.0000000001
 40
0.0
 40
0.0
 40
0.0
 40
0.0
 40
0.2896413962
 40
0.5491107668
 40
0.7822355977
 40
1.0
 40
1.0
 40
1.0
 40
1.0
 10
178.6699847768
 20
169.2670369294
 30
0.0
 10
178.6699847768
 20
169.4065634001
 30
0.0
 10
178.6911928519
 20
169.6719757732
 30
0.0
 10
178.7986153399
 20
170.0366438435
 30
0.0
 10
178.9795681207
 20
170.3326238415
 30
0.0
 10
179.1496366194
 20
170.4753987404
 30
0.0
 10
179.2404632838
 20
170.5278858896
 30
0.0
  0
SPLINE
  5
318
100
AcDbEntity
  8
0
100
AcDbSpline
 62
7
  6
BYLAYER
 70
0
 71
3
 72
11
 73
7
 74
0
 42
0.0000001
 43
0.0000001
 44
0.0000000001
 40
0.0
 40
0.0
 40
0.0
 40
0.0
 40
0.2897451865
 40
0.5490799288
 40
0.7822210552
 40
1.0
 40
1.0
 40
1.0
 40
1.0
 10
102.6237152319
 20
174.9602104396
 30
0.0
 10
102.6237152319
 20
175.2389265405
 30
0.0
 10
102.6659055344
 20
175.7689078063
 30
0.0
 10
102.8806158559
 20
176.4970646986
 30
0.0
 10
103.2419768376
 20
177.0878772537
 30
0.0
 10
103.5814057118
 20
177.373292427
 30
0.0
 10
103.762847739
 20
177.4780040866
 30
0.0
  0
SPLINE
  5
319
100
AcDbEntity
  8
0
100
AcDbSpline
 62
7
  6
BYLAYER
 70
0
 71
3
 72
11
 73
7
 74
0
 42
0.0000001
 43
0.0000001
 44
0.0000000001
 40
0.0
 40
0.0
 40
0.0
 40
0.0
 40
0.2177249976
 40
0.4508779058
 40
0.7104763368
 40
1.0
 40
1.0
 40
1.0
 40
1.0
 10
99.5027743517
 20
101.8198898473
 30
0.0
 10
99.5687242796
 20
101.8579720168
 30
0.0
 10
99.7202380306
 20
101.9131078794
 30
0.0
 10
99.9721005559
 20
101.9194612146
 30
0.0
 10
100.2403981565
 20
101.8545099759
 30
0.0
 10
100.4150227371
 20
101.7715526451
 30
0.0
 10
100.5027247479
 20
101.7209190113
 30
0.0
  0
SPLINE
  5
31A
100
AcDbEntity
  8
0
100
AcDbSpline
 62
7
  6
BYLAYER
 70
0
 71
3
 72
11
 73
7
 74
0
 42
0.0000001
 43
0.0000001
 44
0.0000000001
 40
0.0
 40
0.0
 40
0.0
 40
0.0
 40
0.2897485188
 40
0.5490831641
 40
0.7822238579
 40
1.0
 40
1.0
 40
1.0
 40
1.0
 10
136.5649820969
 20
155.3646542561
 30
0.0
 10
136.5649820969
 20
155.6433736088
 30
0.0
 10
136.6071751577
 20
156.1733576302
 30
0.0
 10
136.821883429
 20
156.9015184966
 30
0.0
 10
137.1832500369
 20
157.4923244209
 30
0.0
 10
137.522675065
 20
157.7777373483
 30
0.0
 10
137.704113445
 20
157.8824500033
 30
0.0
  0
SPLINE
  5
31B
100
AcDbEntity
  8
0
100
AcDbSpline
 62
7
  6
BYLAYER
 70
0
 71
3
 72
16
 73
12
 74
0
 42
0.0000001
 43
0.0000001
 44
0.0000000001
 40
0.0
 40
0.0
 40
0.0
 40
0.0
 40
0.0428765743
 40
0.0875234668
 40
0.1869286092
 40
0.3042403425
 40
0.4379658106
 40
0.5823707712
 40
0.7295934221
 40
0.8712541043
 40
1.0
 40
1.0
 40
1.0
 40
1.0
 10
94.8444700179
 20
91.6802634249
 30
0.0
 10
94.7643680155
 20
91.6339738713
 30
0.0
 10
94.5877352487
 20
91.5605979583
 30
0.0
 10
94.1851933547
 20
91.5015605355
 30
0.0
 10
93.6168851549
 20
91.6125328166
 30
0.0
 10
92.9474233082
 20
91.9797287242
 30
0.0
 10
92.3039106328
 20
92.5489126531
 30
0.0
 10
91.7362594779
 20
93.2758116977
 30
0.0
 10
91.289172755
 20
94.1020072474
 30
0.0
 10
90.9991267455
 20
94.959662097
 30
0.0
 10
90.9213998306
 20
95.5437862228
 30
0.0
 10
90.9213998306
 20
95.8215823489
 30
0.0
  0
SPLINE
  5
31C
100
AcDbEntity
  8
0
100
AcDbSpline
 62
7
  6
BYLAYER
 70
0
 71
3
 72
10
 73
6
 74
0
 42
0.0000001
 43
0.0000001
 44
0.0000000001
 40
0.0
 40
0.0
 40
0.0
 40
0.0
 40
0.4811896824
 40
0.736124398
 40
1.0
 40
1.0
 40
1.0
 40
1.0
 10
25.1955379106
 20
159.9772524774
 30
0.0
 10
32.4520305916
 20
154.2969222449
 30
0.0
 10
44.251900989
 20
146.4721357504
 30
0.0
 10
61.1486818577
 20
137.4464782472
 30
0.0
 10
70.1857331527
 20
133.2982384001
 30
0.0
 10
74.8352880664
 20
131.3183789428
 30
0.0
  0
SPLINE
  5
31D
100
AcDbEntity
  8
0
100
AcDbSpline
 62
7
  6
BYLAYER
 70
0
 71
3
 72
15
 73
11
 74
0
 42
0.0000001
 43
0.0000001
 44
0.0000000001
 40
0.0
 40
0.0
 40
0.0
 40
0.0
 40
0.1267910754
 40
0.2661086212
 40
0.4112765186
 40
0.554745981
 40
0.6891878225
 40
0.8089228004
 40
0.9115192948
 40
1.0
 40
1.0
 40
1.0
 40
1.0
 10
100.5027247479
 20
101.7209190113
 30
0.0
 10
100.6444712207
 20
101.6390834987
 30
0.0
 10
100.9203376035
 20
101.4290900086
 30
0.0
 10
101.276976017
 20
101.0326148248
 30
0.0
 10
101.5754290082
 20
100.5647973928
 30
0.0
 10
101.7930618418
 20
100.0612382669
 30
0.0
 10
101.9137112495
 20
99.5592514879
 30
0.0
 10
101.9275962926
 20
99.0947875947
 30
0.0
 10
101.8316915736
 20
98.6986143208
 30
0.0
 10
101.6814768002
 20
98.4910072125
 30
0.0
 10
101.5931564249
 20
98.4185811545
 30
0.0
  0
SPLINE
  5
31E
100
AcDbEntity
  8
0
100
AcDbSpline
 62
7
  6
BYLAYER
 70
0
 71
3
 72
9
 73
5
 74
0
 42
0.0000001
 43
0.0000001
 44
0.0000000001
 40
0.0
 40
0.0
 40
0.0
 40
0.0
 40
0.2571834367
 40
1.0
 40
1.0
 40
1.0
 40
1.0
 10
143.636020457
 20
97.3929121
 30
0.0
 10
143.636020457
 20
97.448184907
 30
0.0
 10
143.6394920428
 20
97.6630752156
 30
0.0
 10
143.6571158563
 20
97.8778267206
 30
0.0
 10
143.679370122
 20
98.0359110696
 30
0.0
  0
SPLINE
  5
31F
100
AcDbEntity
  8
0
100
AcDbSpline
 62
7
  6
BYLAYER
 70
0
 71
3
 72
9
 73
5
 74
0
 42
0.0000001
 43
0.0000001
 44
0.0000000001
 40
0.0
 40
0.0
 40
0.0
 40
0.0
 40
0.4883458069
 40
1.0
 40
1.0
 40
1.0
 40
1.0
 10
24.4342665995
 20
145.159704667
 30
0.0
 10
28.7309630236
 20
141.8382248056
 30
0.0
 10
37.8438715113
 20
135.4370971946
 30
0.0
 10
47.4423591433
 20
129.7969056705
 30
0.0
 10
52.4493359523
 20
127.09382618
 30
0.0
  0
SPLINE
  5
320
100
AcDbEntity
  8
0
100
AcDbSpline
 62
7
  6
BYLAYER
 70
0
 71
3
 72
9
 73
5
 74
0
 42
0.0000001
 43
0.0000001
 44
0.0000000001
 40
0.0
 40
0.0
 40
0.0
 40
0.0
 40
0.5117534418
 40
1.0
 40
1.0
 40
1.0
 40
1.0
 10
53.9452846382
 20
127.8671320202
 30
0.0
 10
48.9355519099
 20
130.5675976895
 30
0.0
 10
39.3347297351
 20
136.2045078453
 30
0.0
 10
30.223559561
 20
142.6088755062
 30
0.0
 10
25.9302152854
 20
145.9330105072
 30
0.0
  0
SPLINE
  5
321
100
AcDbEntity
  8
0
100
AcDbSpline
 62
7
  6
BYLAYER
 70
0
 71
3
 72
16
 73
12
 74
0
 42
0.0000001
 43
0.0000001
 44
0.0000000001
 40
0.0
 40
0.0
 40
0.0
 40
0.0
 40
0.0428765743
 40
0.0875234668
 40
0.1869286092
 40
0.3042403425
 40
0.4379658106
 40
0.5823707712
 40
0.7295934221
 40
0.8712541043
 40
1.0
 40
1.0
 40
1.0
 40
1.0
 10
86.9248410827
 20
96.2525598677
 30
0.0
 10
86.8447390803
 20
96.2062703141
 30
0.0
 10
86.6681063135
 20
96.1328944011
 30
0.0
 10
86.2655644195
 20
96.0738569784
 30
0.0
 10
85.6972562197
 20
96.1848292594
 30
0.0
 10
85.027794373
 20
96.5520251671
 30
0.0
 10
84.3842816976
 20
97.1212090959
 30
0.0
 10
83.8166305427
 20
97.8481081405
 30
0.0
 10
83.3695438198
 20
98.6743036902
 30
0.0
 10
83.0794978103
 20
99.5319585398
 30
0.0
 10
83.0017708954
 20
100.1160826656
 30
0.0
 10
83.0017708954
 20
100.3938787917
 30
0.0
  0
SPLINE
  5
322
100
AcDbEntity
  8
0
100
AcDbSpline
 62
7
  6
BYLAYER
 70
0
 71
3
 72
11
 73
7
 74
0
 42
0.0000001
 43
0.0000001
 44
0.0000000001
 40
0.0
 40
0.0
 40
0.0
 40
0.0
 40
0.2896413962
 40
0.5491107668
 40
0.7822355977
 40
1.0
 40
1.0
 40
1.0
 40
1.0
 10
75.718540714
 20
104.5987585561
 30
0.0
 10
75.718540714
 20
104.7633945076
 30
0.0
 10
75.7435654395
 20
105.0765710565
 30
0.0
 10
75.8703199072
 20
105.5068655693
 30
0.0
 10
76.0838373358
 20
105.8561107581
 30
0.0
 10
76.2845117237
 20
106.024579732
 30
0.0
 10
76.391683748
 20
106.0865125802
 30
0.0
  0
SPLINE
  5
323
100
AcDbEntity
  8
0
100
AcDbSpline
 62
7
  6
BYLAYER
 70
0
 71
3
 72
11
 73
7
 74
0
 42
0.0000001
 43
0.0000001
 44
0.0000000001
 40
0.0
 40
0.0
 40
0.0
 40
0.0
 40
0.2896413962
 40
0.5491107668
 40
0.7822355977
 40
1.0
 40
1.0
 40
1.0
 40
1.0
 10
83.0017708954
 20
100.3938787917
 30
0.0
 10
83.0017708954
 20
100.5585147432
 30
0.0
 10
83.026795621
 20
100.8716912921
 30
0.0
 10
83.1535500886
 20
101.301985805
 30
0.0
 10
83.3670675173
 20
101.6512309937
 30
0.0
 10
83.5677419051
 20
101.8196999676
 30
0.0
 10
83.6749139295
 20
101.8816328159
 30
0.0
  0
SPLINE
  5
324
100
AcDbEntity
  8
0
100
AcDbSpline
 62
7
  6
BYLAYER
 70
0
 71
3
 72
11
 73
7
 74
0
 42
0.0000001
 43
0.0000001
 44
0.0000000001
 40
0.0
 40
0.0
 40
0.0
 40
0.0
 40
0.2896413962
 40
0.5491107668
 40
0.7822355977
 40
1.0
 40
1.0
 40
1.0
 40
1.0
 10
90.9213998306
 20
95.8215823489
 30
0.0
 10
90.9213998306
 20
95.9862183004
 30
0.0
 10
90.9464245562
 20
96.2993948493
 30
0.0
 10
91.0731790238
 20
96.7296893622
 30
0.0
 10
91.2866964525
 20
97.0789345509
 30
0.0
 10
91.4873708403
 20
97.2474035248
 30
0.0
 10
91.5945428647
 20
97.3093363731
 30
0.0
  0
SPLINE
  5
325
100
AcDbEntity
  8
0
100
AcDbSpline
 62
7
  6
BYLAYER
 70
0
 71
3
 72
11
 73
7
 74
0
 42
0.0000001
 43
0.0000001
 44
0.0000000001
 40
0.0
 40
0.0
 40
0.0
 40
0.0
 40
0.2896413962
 40
0.5491107668
 40
0.7822355977
 40
1.0
 40
1.0
 40
1.0
 40
1.0
 10
98.2046300121
 20
91.6167025845
 30
0.0
 10
98.2046300121
 20
91.781338536
 30
0.0
 10
98.2296547376
 20
92.0945150849
 30
0.0
 10
98.3564092053
 20
92.5248095978
 30
0.0
 10
98.5699266339
 20
92.8740547865
 30
0.0
 10
98.7706010218
 20
93.0425237604
 30
0.0
 10
98.8777730461
 20
93.1044566087
 30
0.0
  0
SPLINE
  5
326
100
AcDbEntity
  8
0
100
AcDbSpline
 62
7
  6
BYLAYER
 70
0
 71
3
 72
17
 73
13
 74
0
 42
0.0000001
 43
0.0000001
 44
0.0000000001
 40
0.0
 40
0.0
 40
0.0
 40
0.0
 40
0.1286930371
 40
0.2702795961
 40
0.4174375933
 40
0.5617786793
 40
0.695447824
 40
0.8127111198
 40
0.8646738574
 40
0.9125098522
 40
0.9571380033
 40
1.0
 40
1.0
 40
1.0
 40
1.0
 10
122.8390939627
 20
152.1684577144
 30
0.0
 10
122.8390939627
 20
152.605140373
 30
0.0
 10
122.716944345
 20
153.5233062817
 30
0.0
 10
122.2609416469
 20
154.8714224736
 30
0.0
 10
121.5583568142
 20
156.170085828
 30
0.0
 10
120.6655789628
 20
157.3127960715
 30
0.0
 10
119.6556193801
 20
158.207248352
 30
0.0
 10
118.7414875127
 20
158.707142892
 30
0.0
 10
118.0263870465
 20
158.8973239115
 30
0.0
 10
117.5342235331
 20
158.9336211475
 30
0.0
 10
117.075952263
 20
158.8663395513
 30
0.0
 10
116.7982681209
 20
158.7510585332
 30
0.0
 10
116.6723232927
 20
158.6783217604
 30
0.0
  0
SPLINE
  5
327
100
AcDbEntity
  8
0
100
AcDbSpline
 62
7
  6
BYLAYER
 70
0
 71
3
 72
11
 73
7
 74
0
 42
0.0000001
 43
0.0000001
 44
0.0000000001
 40
0.0
 40
0.0
 40
0.0
 40
0.0
 40
0.2896413962
 40
0.5491107668
 40
0.7822355977
 40
1.0
 40
1.0
 40
1.0
 40
1.0
 10
107.9312166092
 20
210.1071597065
 30
0.0
 10
107.9312166092
 20
210.2486774442
 30
0.0
 10
107.9527273577
 20
210.5178776785
 30
0.0
 10
108.0616829372
 20
210.8877501483
 30
0.0
 10
108.2452182051
 20
211.1879542566
 30
0.0
 10
108.4177138546
 20
211.3327667829
 30
0.0
 10
108.5098367615
 20
211.386003008
 30
0.0
  0
SPLINE
  5
328
100
AcDbEntity
  8
0
100
AcDbSpline
 62
7
  6
BYLAYER
 70
0
 71
3
 72
16
 73
12
 74
0
 42
0.0000001
 43
0.0000001
 44
0.0000000001
 40
0.0
 40
0.0
 40
0.0
 40
0.0
 40
0.0428765743
 40
0.0875234668
 40
0.1869286092
 40
0.3042403425
 40
0.4379658106
 40
0.5823707712
 40
0.7295934221
 40
0.8712541043
 40
1.0
 40
1.0
 40
1.0
 40
1.0
 10
79.6416109013
 20
100.4574396321
 30
0.0
 10
79.5615088989
 20
100.4111500785
 30
0.0
 10
79.3848761321
 20
100.3377741655
 30
0.0
 10
78.982334238
 20
100.2787367427
 30
0.0
 10
78.4140260382
 20
100.3897090238
 30
0.0
 10
77.7445641915
 20
100.7569049314
 30
0.0
 10
77.1010515162
 20
101.3260888603
 30
0.0
 10
76.5334003613
 20
102.0529879049
 30
0.0
 10
76.0863136383
 20
102.8791834546
 30
0.0
 10
75.7962676289
 20
103.7368383042
 30
0.0
 10
75.718540714
 20
104.32096243
 30
0.0
 10
75.718540714
 20
104.5987585561
 30
0.0
  0
SPLINE
  5
329
100
AcDbEntity
  8
0
100
AcDbSpline
 62
7
  6
BYLAYER
 70
0
 71
3
 72
17
 73
13
 74
0
 42
0.0000001
 43
0.0000001
 44
0.0000000001
 40
0.0
 40
0.0
 40
0.0
 40
0.0
 40
0.0428592927
 40
0.0874854741
 40
0.1353198782
 40
0.1872819046
 40
0.3045421967
 40
0.4382074307
 40
0.5825489112
 40
0.7297129634
 40
0.8713059682
 40
1.0
 40
1.0
 40
1.0
 40
1.0
 10
118.0299595804
 20
159.4621557705
 30
0.0
 10
118.1559009097
 20
159.5348802863
 30
0.0
 10
118.4335610978
 20
159.6501746101
 30
0.0
 10
118.8918145799
 20
159.7174373207
 30
0.0
 10
119.3839646668
 20
159.6811768897
 30
0.0
 10
120.0990471827
 20
159.490988494
 30
0.0
 10
121.0131692397
 20
158.9911410002
 30
0.0
 10
122.023128865
 20
158.0967171482
 30
0.0
 10
122.9159303118
 20
156.9540154429
 30
0.0
 10
123.6185540535
 20
155.6553218964
 30
0.0
 10
124.0745780601
 20
154.3071636012
 30
0.0
 10
124.1967333278
 20
153.3889725717
 30
0.0
 10
124.1967333278
 20
152.9522864912
 30
0.0
  0
SPLINE
  5
32A
100
AcDbEntity
  8
0
100
AcDbSpline
 62
7
  6
BYLAYER
 70
0
 71
3
 72
17
 73
13
 74
0
 42
0.0000001
 43
0.0000001
 44
0.0000000001
 40
0.0
 40
0.0
 40
0.0
 40
0.0
 40
0.1284419955
 40
0.2697240865
 40
0.4166229517
 40
0.560851494
 40
0.6946243454
 40
0.8122040853
 40
0.8643644231
 40
0.9123825038
 40
0.9571308426
 40
1.0
 40
1.0
 40
1.0
 40
1.0
 10
124.3139795366
 20
152.8845337585
 30
0.0
 10
124.3139795366
 20
153.3329515221
 30
0.0
 10
124.1892134818
 20
154.2756937758
 30
0.0
 10
123.7229612293
 20
155.6606603816
 30
0.0
 10
123.0040849406
 20
156.9962184602
 30
0.0
 10
122.0897466763
 20
158.1738937434
 30
0.0
 10
121.0540215973
 20
159.099434341
 30
0.0
 10
120.1155585052
 20
159.6211986814
 30
0.0
 10
119.3797240745
 20
159.8254457991
 30
0.0
 10
118.8722751684
 20
159.8699161738
 30
0.0
 10
118.3986751381
 20
159.8087855337
 30
0.0
 10
118.1102686308
 20
159.6958611617
 30
0.0
 10
117.9791180859
 20
159.6237557222
 30
0.0
  0
SPLINE
  5
32B
100
AcDbEntity
  8
0
100
AcDbSpline
 62
7
  6
BYLAYER
 70
0
 71
3
 72
15
 73
11
 74
0
 42
0.0000001
 43
0.0000001
 44
0.0000000001
 40
0.0
 40
0.0
 40
0.0
 40
0.0
 40
0.0890004226
 40
0.1923791436
 40
0.3126555088
 40
0.4472215172
 40
0.5904042283
 40
0.7350315365
 40
0.8737092317
 40
1.0
 40
1.0
 40
1.0
 40
1.0
 10
181.8222498072
 20
165.6800324357
 30
0.0
 10
181.6730972816
 20
165.6306137793
 30
0.0
 10
181.3218742183
 20
165.6063769406
 30
0.0
 10
180.7878306467
 20
165.7754133158
 30
0.0
 10
180.2495439098
 20
166.1175575703
 30
0.0
 10
179.74123484
 20
166.6083846805
 30
0.0
 10
179.2979178024
 20
167.2120017162
 30
0.0
 10
178.9520343939
 20
167.884511764
 30
0.0
 10
178.7291294721
 20
168.5757517885
 30
0.0
 10
178.6699847768
 20
169.0440761534
 30
0.0
 10
178.6699847768
 20
169.2670369294
 30
0.0
  0
SPLINE
  5
32C
100
AcDbEntity
  8
0
100
AcDbSpline
 62
7
  6
BYLAYER
 70
0
 71
3
 72
17
 73
13
 74
0
 42
0.0000001
 43
0.0000001
 44
0.0000000001
 40
0.0
 40
0.0
 40
0.0
 40
0.0
 40
0.1286930371
 40
0.2702795961
 40
0.4174375933
 40
0.5617786793
 40
0.695447824
 40
0.8127111198
 40
0.8646738574
 40
0.9125098522
 40
0.9571380033
 40
1.0
 40
1.0
 40
1.0
 40
1.0
 10
94.5582311103
 20
168.4960520599
 30
0.0
 10
94.5582311103
 20
168.9327347184
 30
0.0
 10
94.4360814926
 20
169.8509006271
 30
0.0
 10
93.9800787945
 20
171.199016819
 30
0.0
 10
93.2774939617
 20
172.4976801734
 30
0.0
 10
92.3847161104
 20
173.6403904169
 30
0.0
 10
91.3747565277
 20
174.5348426974
 30
0.0
 10
90.4606246602
 20
175.0347372374
 30
0.0
 10
89.7455241941
 20
175.2249182569
 30
0.0
 10
89.2533606807
 20
175.2612154929
 30
0.0
 10
88.7950894105
 20
175.1939338967
 30
0.0
 10
88.5174052684
 20
175.0786528787
 30
0.0
 10
88.3914604402
 20
175.0059161058
 30
0.0
  0
SPLINE
  5
32D
100
AcDbEntity
  8
0
100
AcDbSpline
 62
7
  6
BYLAYER
 70
0
 71
3
 72
17
 73
13
 74
0
 42
0.0000001
 43
0.0000001
 44
0.0000000001
 40
0.0
 40
0.0
 40
0.0
 40
0.0
 40
0.0428576997
 40
0.0874859835
 40
0.1353172027
 40
0.1872823181
 40
0.3045430421
 40
0.4382102004
 40
0.5825525594
 40
0.7297128879
 40
0.8713031562
 40
1.0
 40
1.0
 40
1.0
 40
1.0
 10
150.2750960988
 20
90.3844680607
 30
0.0
 10
150.1394947181
 20
90.3062090916
 30
0.0
 10
149.8406345678
 20
90.1819130299
 30
0.0
 10
149.3472475069
 20
90.1097207597
 30
0.0
 10
148.8173972671
 20
90.1485610502
 30
0.0
 10
148.0475621387
 20
90.3534640134
 30
0.0
 10
147.063373686
 20
90.8914756257
 30
0.0
 10
145.9760587228
 20
91.8544608147
 30
0.0
 10
145.014910144
 20
93.0846975106
 30
0.0
 10
144.2584945641
 20
94.4828512361
 30
0.0
 10
143.7675366072
 20
95.9342506141
 30
0.0
 10
143.636020457
 20
96.9227688661
 30
0.0
 10
143.636020457
 20
97.3929121
 30
0.0
  0
SPLINE
  5
32E
100
AcDbEntity
  8
0
100
AcDbSpline
 62
7
  6
BYLAYER
 70
0
 71
3
 72
11
 73
7
 74
0
 42
0.0000001
 43
0.0000001
 44
0.0000000001
 40
0.0
 40
0.0
 40
0.0
 40
0.0
 40
0.2897485188
 40
0.5490831641
 40
0.7822238579
 40
1.0
 40
1.0
 40
1.0
 40
1.0
 10
68.6824483668
 20
194.5557666231
 30
0.0
 10
68.6824483668
 20
194.8344859758
 30
0.0
 10
68.7246414276
 20
195.3644699972
 30
0.0
 10
68.9393496989
 20
196.0926308635
 30
0.0
 10
69.3007163068
 20
196.6834367879
 30
0.0
 10
69.6401413349
 20
196.9688497153
 30
0.0
 10
69.8215797149
 20
197.0735623703
 30
0.0
  0
SPLINE
  5
32F
100
AcDbEntity
  8
0
100
AcDbSpline
 62
7
  6
BYLAYER
 70
0
 71
3
 72
15
 73
11
 74
0
 42
0.0000001
 43
0.0000001
 44
0.0000000001
 40
0.0
 40
0.0
 40
0.0
 40
0.0
 40
0.0894874974
 40
0.1935326984
 40
0.3142517284
 40
0.4488971168
 40
0.5918255387
 40
0.7359836586
 40
0.8741389467
 40
1.0
 40
1.0
 40
1.0
 40
1.0
 10
111.0973890668
 20
206.459238312
 30
0.0
 10
110.9446021872
 20
206.4142075388
 30
0.0
 10
110.5884340898
 20
206.3998135119
 30
0.0
 10
110.0507379335
 20
206.5801022019
 30
0.0
 10
109.5101218099
 20
206.9318978661
 30
0.0
 10
109.0008984311
 20
207.4306232186
 30
0.0
 10
108.5576772859
 20
208.0404254539
 30
0.0
 10
108.2123791134
 20
208.7176560497
 30
0.0
 10
107.9900992471
 20
209.4126555078
 30
0.0
 10
107.9312166092
 20
209.8831313791
 30
0.0
 10
107.9312166092
 20
210.1071597065
 30
0.0
  0
SPLINE
  5
330
100
AcDbEntity
  8
0
100
AcDbSpline
 62
7
  6
BYLAYER
 70
0
 71
3
 72
17
 73
13
 74
0
 42
0.0000001
 43
0.0000001
 44
0.0000000001
 40
0.0
 40
0.0
 40
0.0
 40
0.0
 40
0.0428576997
 40
0.0874859835
 40
0.1353172027
 40
0.1872823181
 40
0.3045430421
 40
0.4382102004
 40
0.5825525594
 40
0.7297128879
 40
0.8713031562
 40
1.0
 40
1.0
 40
1.0
 40
1.0
 10
143.2040577387
 20
148.3562102169
 30
0.0
 10
143.0684563581
 20
148.2779512477
 30
0.0
 10
142.7695962077
 20
148.153655186
 30
0.0
 10
142.2762091468
 20
148.0814629159
 30
0.0
 10
141.746358907
 20
148.1203032064
 30
0.0
 10
140.9765237787
 20
148.3252061696
 30
0.0
 10
139.9923353259
 20
148.8632177818
 30
0.0
 10
138.9050203628
 20
149.8262029708
 30
0.0
 10
137.9438717839
 20
151.0564396668
 30
0.0
 10
137.187456204
 20
152.4545933923
 30
0.0
 10
136.6964982471
 20
153.9059927703
 30
0.0
 10
136.5649820969
 20
154.8945110222
 30
0.0
 10
136.5649820969
 20
155.3646542561
 30
0.0
  0
SPLINE
  5
331
100
AcDbEntity
  8
0
100
AcDbSpline
 62
7
  6
BYLAYER
 70
0
 71
3
 72
16
 73
12
 74
0
 42
0.0000001
 43
0.0000001
 44
0.0000000001
 40
0.0
 40
0.0
 40
0.0
 40
0.0
 40
0.0428765743
 40
0.0875234668
 40
0.1869286092
 40
0.3042403425
 40
0.4379658106
 40
0.5823707712
 40
0.7295934221
 40
0.8712541043
 40
1.0
 40
1.0
 40
1.0
 40
1.0
 10
102.1277001994
 20
87.4753836605
 30
0.0
 10
102.047598197
 20
87.4290941069
 30
0.0
 10
101.8709654302
 20
87.3557181939
 30
0.0
 10
101.4684235361
 20
87.2966807712
 30
0.0
 10
100.9001153363
 20
87.4076530522
 30
0.0
 10
100.2306534896
 20
87.7748489599
 30
0.0
 10
99.5871408143
 20
88.3440328887
 30
0.0
 10
99.0194896594
 20
89.0709319333
 30
0.0
 10
98.5724029364
 20
89.897127483
 30
0.0
 10
98.282356927
 20
90.7547823326
 30
0.0
 10
98.2046300121
 20
91.3389064584
 30
0.0
 10
98.2046300121
 20
91.6167025845
 30
0.0
  0
SPLINE
  5
332
100
AcDbEntity
  8
0
100
AcDbSpline
 62
7
  6
BYLAYER
 70
0
 71
3
 72
17
 73
13
 74
0
 42
0.0000001
 43
0.0000001
 44
0.0000000001
 40
0.0
 40
0.0
 40
0.0
 40
0.0
 40
0.128423387
 40
0.2696829034
 40
0.4165624962
 40
0.5607825388
 40
0.6945628326
 40
0.8121657921
 40
0.8643407443
 40
0.9123723982
 40
0.9571298953
 40
1.0
 40
1.0
 40
1.0
 40
1.0
 10
96.0295904824
 20
169.2141639114
 30
0.0
 10
96.0295904824
 20
169.6624014695
 30
0.0
 10
95.9049237611
 20
170.6047575728
 30
0.0
 10
95.4390072104
 20
171.9892132487
 30
0.0
 10
94.7206117143
 20
173.3243813984
 30
0.0
 10
93.8068216546
 20
174.5018969744
 30
0.0
 10
92.7716161664
 20
175.4275857645
 30
0.0
 10
91.8335491862
 20
175.9497625478
 30
0.0
 10
91.0979009134
 20
176.1545884332
 30
0.0
 10
90.5905054829
 20
176.1995721511
 30
0.0
 10
90.1168754797
 20
176.1390542774
 30
0.0
 10
89.8283461682
 20
176.0265794232
 30
0.0
 10
89.6971144686
 20
175.9546949528
 30
0.0
  0
SPLINE
  5
333
100
AcDbEntity
  8
0
100
AcDbSpline
 62
7
  6
BYLAYER
 70
0
 71
3
 72
17
 73
13
 74
0
 42
0.0000001
 43
0.0000001
 44
0.0000000001
 40
0.0
 40
0.0
 40
0.0
 40
0.0
 40
0.0428600037
 40
0.087490031
 40
0.1353224918
 40
0.1872886049
 40
0.3045519794
 40
0.4382152215
 40
0.5825545928
 40
0.72971535
 40
0.8713060581
 40
1.0
 40
1.0
 40
1.0
 40
1.0
 10
109.2627897147
 20
167.9517685006
 30
0.0
 10
109.1271800648
 20
167.8735070762
 30
0.0
 10
108.8283051422
 20
167.7492077502
 30
0.0
 10
108.3348979206
 20
167.677018472
 30
0.0
 10
107.8050333811
 20
167.7158674473
 30
0.0
 10
107.0351865444
 20
167.920796056
 30
0.0
 10
106.0510084596
 20
168.4588212906
 30
0.0
 10
104.9637119783
 20
169.4218028062
 30
0.0
 10
104.0025859964
 20
170.6520263778
 30
0.0
 10
103.246177373
 20
172.0501746182
 30
0.0
 10
102.7552279531
 20
173.5015689791
 30
0.0
 10
102.6237152319
 20
174.4900778882
 30
0.0
 10
102.6237152319
 20
174.9602104396
 30
0.0
  0
ENDSEC
  0
SECTION
  2
OBJECTS
  0
DICTIONARY
  5
C
100
AcDbDictionary
280
0
281
1
  3
ACAD_GROUP
350
D
  3
ACAD_MLINESTYLE
350
17
  3
ACAD_LAYOUT
350
1A
  3
ACAD_PLOTSETTINGS
350
19
  3
ACAD_PLOTSTYLENAME
350
E
  0
DICTIONARY
  5
D
102
{ACAD_REACTORS
330
C
102
}
100
AcDbDictionary
280
0
281
1
  0
ACDBDICTIONARYWDFLT
  5
E
102
{ACAD_REACTORS
330
C
102
}
100
AcDbDictionary
281
1
  3
Normal
350
F
100
AcDbDictionaryWithDefault
340
F
  0
DICTIONARY
  5
17
102
{ACAD_REACTORS
330
C
102
}
100
AcDbDictionary
280
0
281
1
  3
Standard
350
18
  0
DICTIONARY
  5
19
102
{ACAD_REACTORS
330
C
102
}
100
AcDbDictionary
281
1
  0
DICTIONARY
  5
1A
102
{ACAD_REACTORS
330
C
102
}
100
AcDbDictionary
281
1
  3
Model
350
334
  3
Layout1
350
335
  0
ACDBPLACEHOLDER
  5
F
102
{ACAD_REACTORS
330
E
102
}
  0
MLINESTYLE
  5
18
102
{ACAD_REACTORS
330
17
102
}
100
AcDbMlineStyle
  2
STANDARD
 70
0
  3

 62
256
 51
90.0
 52
90.0
 71
2
 49
0.5
 62
256
  6
BYLAYER
 49
-0.5
 62
256
  6
BYLAYER
  0
LAYOUT
  5
334
102
{ACAD_REACTORS
330
1A
102
}
100
AcDbPlotSettings
  1

  2
none_device
  4

  6

 40
0.0
 41
0.0
 42
0.0
 43
0.0
 44
210.0
 45
297.0
 46
0.0
 47
0.0
 48
0.0
 49
0.0
140
0.0
141
0.0
142
1.0
143
1.0
 70
1024
 72
1
 73
0
 74
0
  7

 75
0
147
1.0
148
0.0
149
0.0
100
AcDbLayout
  1
Model
 70
0
 71
0
 10
0.0
 20
0.0
 11
210.0
 21
297.0
 12
0.0
 22
0.0
 32
0.0
 14
0.0
 24
0.0
 34
0.0
 15
0.0
 25
0.0
 35
0.0
146
0.0
 13
0.0
 23
0.0
 33
0.0
 16
1.0
 26
0.0
 36
0.0
 17
0.0
 27
1.0
 37
0.0
 76
0
330
210
345
0
346
0
  0
LAYOUT
  5
335
102
{ACAD_REACTORS
330
1A
102
}
100
AcDbPlotSettings
  1

  2
none_device
  4

  6

 40
0.0
 41
0.0
 42
0.0
 43
0.0
 44
210.0
 45
297.0
 46
0.0
 47
0.0
 48
0.0
 49
0.0
140
0.0
141
0.0
142
1.0
143
1.0
 70
0
 72
1
 73
0
 74
0
  7

 75
0
147
1.0
148
0.0
149
0.0
100
AcDbLayout
  1
Layout1
 70
0
 71
1
 10
0.0
 20
0.0
 11
210.0
 21
297.0
 12
0.0
 22
0.0
 32
0.0
 14
0.0
 24
0.0
 34
0.0
 15
0.0
 25
0.0
 35
0.0
146
0.0
 13
0.0
 23
0.0
 33
0.0
 16
1.0
 26
0.0
 36
0.0
 17
0.0
 27
1.0
 37
0.0
 76
0
330
211
345
0
346
0
  0
ENDSEC
  0
EOF
