999
DXF file: C:\Users\sesa63760\Dev\_Creo\CAD\MCADPD0005433_3D-CAD\drw0001_7.dxf
999
Pro/ENGINEER 2019471 by Parametric Technology Corporation
  0
SECTION
  2
HEADER
  9
$ACADVER
  1
AC1024
  9
$DWGCODEPAGE
  3
ANSI_1252
  9
$EXTMAX
 10
195.5848596759
 20
276.6128729702
 30
0.0
  9
$EXTMIN
 10
0.0
 20
0.0
 30
0.0
  9
$LIMMIN
 10
0.0
 20
0.0
  9
$LIMMAX
 10
195.5848596759
 20
276.6128729702
  9
$VIEWCTR
 10
97.7924298379
 20
138.3064364851
  9
$VIEWSIZE
 40
276.6128729702
  9
$CLAYER
  8
0
  9
$LTSCALE
 40
18.0310613492
  9
$CELTYPE
  6
BYLAYER
  9
$DIMSCALE
 40
1.0
  9
$DIMASZ
 40
2.3283911866
  9
$DIMEXO
 40
1.0
  9
$DIMDLI
 40
12.4578242049
  9
$DIMEXE
 40
1.0
  9
$DIMCEN
 40
2.9505373117
  9
$DIMLFAC
 40
1.0
  9
$DIMBLK
  1
_FILLED
  9
$DIMALT
 70
0
  9
$DIMALTF
 40
0.0393700787
  9
$DIMTXT
 40
3.2597476613
  9
$DIMTOL
 70
1
  9
$DIMLIM
 70
0
  9
$DIMTFAC
 40
1.0
  9
$DIMTP
 40
0.01
  9
$DIMTM
 40
0.01
  9
$DIMGAP
 40
0.625
  9
$DIMDSEP
 70
46
  9
$AUNITS
 70
0
  9
$PDMODE
 70
3
  9
$PDSIZE
 40
0.3125
  9
$HANDSEED
  5
2B8
  9
$TILEMODE
 70
1
  9
$MEASUREMENT
 70
1
  9
$INSUNITS
 70
4
  0
ENDSEC
  0
SECTION
  2
CLASSES
  0
CLASS
  1
ACDBDICTIONARYWDFLT
  2
AcDbDictionaryWithDefault
  3
AutoCAD 2000
 90
0
 91
1
280
0
281
0
  0
CLASS
  1
ACDBPLACEHOLDER
  2
AcDbPlaceHolder
  3
AutoCAD 2000
 90
0
 91
1
280
0
281
0
  0
CLASS
  1
LAYOUT
  2
AcDbLayout
  3
AutoCAD 2000
 90
0
 91
0
280
0
281
0
  0
ENDSEC
  0
SECTION
  2
TABLES
  0
TABLE
  2
VPORT
  5
8
100
AcDbSymbolTable
 70
2
  0
VPORT
  5
1F4
100
AcDbSymbolTableRecord
100
AcDbViewportTableRecord
  2
*ACTIVE
 70
0
 10
0.0
 20
0.0
 11
1.0
 21
1.0
 12
97.7924298379
 22
138.3064364851
 13
0.0
 23
0.0
 14
1.0
 24
1.0
 15
0.0
 25
0.0
 16
0.0
 26
0.0
 36
1.0
 17
0.0
 27
0.0
 37
0.0
 40
276.6128729702
 41
0.7070707071
 42
50.0
 43
0.0
 44
0.0
 50
0.0
 51
0.0
 71
0
 72
100
 73
1
 74
1
 75
0
 76
0
 77
0
 78
0
  0
ENDTAB
  0
TABLE
  2
LTYPE
  5
5
100
AcDbSymbolTable
 70
6
  0
LTYPE
  5
14
100
AcDbSymbolTableRecord
100
AcDbLinetypeTableRecord
  2
BYBLOCK
 70
0
  3

 72
65
 73
0
 40
0.0
  0
LTYPE
  5
15
100
AcDbSymbolTableRecord
100
AcDbLinetypeTableRecord
  2
BYLAYER
 70
0
  3

 72
65
 73
0
 40
0.0
  0
LTYPE
  5
16
100
AcDbSymbolTableRecord
100
AcDbLinetypeTableRecord
  2
CONTINUOUS
 70
64
  3
Solid line
 72
65
 73
0
 40
0.0
  0
LTYPE
  5
1F5
100
AcDbSymbolTableRecord
100
AcDbLinetypeTableRecord
  2
CENTER
 70
64
  3
____ _ ____ _ ____ _ ____ _ ____ _ ____ _ ____
 72
65
 73
4
 40
0.6
 49
0.375
 74
0
 49
-0.075
 74
0
 49
0.075
 74
0
 49
-0.075
 74
0
  0
LTYPE
  5
1F6
100
AcDbSymbolTableRecord
100
AcDbLinetypeTableRecord
  2
HIDDEN
 70
64
  3
- - - - - - - - - - - - - - - - - - - -
 72
65
 73
2
 40
0.2
 49
0.1
 74
0
 49
-0.1
 74
0
  0
LTYPE
  5
1F7
100
AcDbSymbolTableRecord
100
AcDbLinetypeTableRecord
  2
PHANTOM
 70
64
  3
_____ _ _ _____ _ _ _____ _ _ _____
 72
65
 73
6
 40
0.8
 49
0.45
 74
0
 49
-0.05
 74
0
 49
0.1
 74
0
 49
-0.05
 74
0
 49
0.1
 74
0
 49
-0.05
 74
0
  0
LTYPE
  5
1F8
100
AcDbSymbolTableRecord
100
AcDbLinetypeTableRecord
  2
DOT
 70
64
  3
. . . . . . . . . . . . . . . . . . . .
 72
65
 73
2
 40
0.2
 49
0.1
 74
0
 49
-0.1
 74
0
  0
LTYPE
  5
1F9
100
AcDbSymbolTableRecord
100
AcDbLinetypeTableRecord
  2
DASHED
 70
64
  3
- - - - - - - - - - - - - - - - - - - -
 72
65
 73
2
 40
0.2
 49
0.1
 74
0
 49
-0.1
 74
0
  0
ENDTAB
  0
TABLE
  2
LAYER
  5
2
100
AcDbSymbolTable
 70
36
  0
LAYER
  5
10
100
AcDbSymbolTableRecord
100
AcDbLayerTableRecord
  2
0
 70
0
 62
7
  6
CONTINUOUS
370
-3
390
F
  0
LAYER
  5
1FA
100
AcDbSymbolTableRecord
100
AcDbLayerTableRecord
  2
DEFAULT_1
 70
0
 62
7
  6
CENTER
370
-3
390
F
  0
LAYER
  5
1FB
100
AcDbSymbolTableRecord
100
AcDbLayerTableRecord
  2
DEFAULT_2
 70
0
 62
7
  6
HIDDEN
370
-3
390
F
  0
LAYER
  5
1FC
100
AcDbSymbolTableRecord
100
AcDbLayerTableRecord
  2
DEFAULT_3
 70
0
 62
7
  6
PHANTOM
370
-3
390
F
  0
LAYER
  5
1FD
100
AcDbSymbolTableRecord
100
AcDbLayerTableRecord
  2
00_COMPONENTS
 70
0
 62
7
  6
CONTINUOUS
370
-3
390
F
  0
LAYER
  5
1FE
100
AcDbSymbolTableRecord
100
AcDbLayerTableRecord
  2
01_1_DEFAULT_DATUMS
 70
0
 62
7
  6
CONTINUOUS
370
-3
390
F
  0
LAYER
  5
1FF
100
AcDbSymbolTableRecord
100
AcDbLayerTableRecord
  2
01_PLANES
 70
0
 62
7
  6
CONTINUOUS
370
-3
390
F
  0
LAYER
  5
200
100
AcDbSymbolTableRecord
100
AcDbLayerTableRecord
  2
02_COORD_SYS
 70
0
 62
7
  6
CONTINUOUS
370
-3
390
F
  0
LAYER
  5
201
100
AcDbSymbolTableRecord
100
AcDbLayerTableRecord
  2
03_AXES
 70
0
 62
7
  6
CONTINUOUS
370
-3
390
F
  0
LAYER
  5
202
100
AcDbSymbolTableRecord
100
AcDbLayerTableRecord
  2
04_POINTS
 70
0
 62
7
  6
CONTINUOUS
370
-3
390
F
  0
LAYER
  5
203
100
AcDbSymbolTableRecord
100
AcDbLayerTableRecord
  2
05_CURVES
 70
0
 62
7
  6
CONTINUOUS
370
-3
390
F
  0
LAYER
  5
204
100
AcDbSymbolTableRecord
100
AcDbLayerTableRecord
  2
06_SURFS
 70
0
 62
7
  6
CONTINUOUS
370
-3
390
F
  0
LAYER
  5
205
100
AcDbSymbolTableRecord
100
AcDbLayerTableRecord
  2
07_COSMETICS
 70
0
 62
7
  6
CONTINUOUS
370
-3
390
F
  0
LAYER
  5
206
100
AcDbSymbolTableRecord
100
AcDbLayerTableRecord
  2
10_NOTES
 70
0
 62
7
  6
CONTINUOUS
370
-3
390
F
  0
LAYER
  5
207
100
AcDbSymbolTableRecord
100
AcDbLayerTableRecord
  2
11_NOTES_PUB
 70
0
 62
7
  6
CONTINUOUS
370
-3
390
F
  0
LAYER
  5
208
100
AcDbSymbolTableRecord
100
AcDbLayerTableRecord
  2
13_REF_GTOL
 70
0
 62
7
  6
CONTINUOUS
370
-3
390
F
  0
LAYER
  5
209
100
AcDbSymbolTableRecord
100
AcDbLayerTableRecord
  2
16_MISC
 70
0
 62
7
  6
CONTINUOUS
370
-3
390
F
  0
LAYER
  5
20A
100
AcDbSymbolTableRecord
100
AcDbLayerTableRecord
  2
17_NO_PRINT
 70
0
 62
7
  6
CONTINUOUS
370
-3
390
F
  0
LAYER
  5
20B
100
AcDbSymbolTableRecord
100
AcDbLayerTableRecord
  2
18_DATUM_CAMS_JOINTS
 70
0
 62
7
  6
CONTINUOUS
370
-3
390
F
  0
LAYER
  5
20C
100
AcDbSymbolTableRecord
100
AcDbLayerTableRecord
  2
19_DATUM_FUNCTIONAL
 70
0
 62
7
  6
CONTINUOUS
370
-3
390
F
  0
LAYER
  5
20D
100
AcDbSymbolTableRecord
100
AcDbLayerTableRecord
  2
20_DATUM_KINEMATIC_SCHEME
 70
0
 62
7
  6
CONTINUOUS
370
-3
390
F
  0
ENDTAB
  0
TABLE
  2
STYLE
  5
3
100
AcDbSymbolTable
 70
1
  0
STYLE
  5
11
100
AcDbSymbolTableRecord
100
AcDbTextStyleTableRecord
  2
STANDARD
 70
0
 40
0.0
 41
1.0
 50
0.0
 71
0
 42
0.2
  3
ARIAL.TTF
  4

  0
STYLE
  5
20E
100
AcDbSymbolTableRecord
100
AcDbTextStyleTableRecord
  2
TEXTSTYLE_1
 70
0
 40
0.0
 41
0.8
 50
0.0
 71
0
 42
0.2
  3
gdt
  4

  0
ENDTAB
  0
TABLE
  2
VIEW
  5
6
100
AcDbSymbolTable
 70
0
  0
ENDTAB
  0
TABLE
  2
UCS
  5
7
100
AcDbSymbolTable
 70
0
  0
ENDTAB
  0
TABLE
  2
APPID
  5
9
100
AcDbSymbolTable
 70
1
  0
APPID
  5
20F
100
AcDbSymbolTableRecord
100
AcDbRegAppTableRecord
  2
ACAD
 70
0
  0
ENDTAB
  0
TABLE
  2
BLOCK_RECORD
  5
1
100
AcDbSymbolTable
 70
0
  0
BLOCK_RECORD
  5
210
100
AcDbSymbolTableRecord
100
AcDbBlockTableRecord
  2
*Model_Space
  0
BLOCK_RECORD
  5
211
100
AcDbSymbolTableRecord
100
AcDbBlockTableRecord
  2
*Paper_Space
  0
BLOCK_RECORD
  5
212
100
AcDbSymbolTableRecord
100
AcDbBlockTableRecord
  2
_FILLED
  0
ENDTAB
  0
TABLE
  2
DIMSTYLE
  5
A
100
AcDbSymbolTable
 70
1
100
AcDbDimStyleTable
 71
0
  0
DIMSTYLE
105
213
100
AcDbSymbolTableRecord
100
AcDbDimStyleTableRecord
  2
STANDARD
 70
0
  3

  4

 40
1.0
 41
2.3283911866
 42
1.0
 43
0.38
 44
1.0
 45
0.0
 46
0.0
 47
0.01
 48
0.01
140
3.2597476613
141
0.09
142
0.0
143
25.4
144
1.0
145
0.0
146
1.0
147
0.625
 71
1
 72
0
 73
0
 74
0
 75
0
 76
0
 77
1
 78
8
 79
2
170
0
171
1
172
0
173
0
174
0
175
0
176
0
177
0
178
0
270
2
179
2
271
2
272
2
273
2
274
2
275
0
280
0
281
0
282
0
283
1
284
8
285
0
286
0
287
3
288
0
340
11
278
46
341
212
342
212
343
212
344
212
  0
ENDTAB
  0
ENDSEC
  0
SECTION
  2
BLOCKS
  0
BLOCK
  5
20
100
AcDbEntity
  8
0
100
AcDbBlockBegin
  2
*Model_Space
 70
0
 10
0.0
 20
0.0
 30
0.0
  3
*Model_Space
  1

  0
ENDBLK
  5
21
100
AcDbEntity
  8
0
100
AcDbBlockEnd
  0
BLOCK
  5
1C
100
AcDbEntity
  8
0
100
AcDbBlockBegin
  2
*Paper_Space
 70
0
 10
0.0
 20
0.0
 30
0.0
  3
*Paper_Space
  1

  0
ENDBLK
  5
1D
100
AcDbEntity
  8
0
100
AcDbBlockEnd
  0
BLOCK
  5
214
100
AcDbEntity
  8
0
100
AcDbBlockBegin
  2
_FILLED
 70
64
 10
0.0
 20
0.0
  3
_FILLED
  1

  0
SOLID
  5
215
100
AcDbEntity
  8
0
  6
BYBLOCK
 62
0
100
AcDbTrace
 10
0.0
 20
0.0
 11
-1.0
 21
0.25
 12
-1.0
 22
-0.25
 13
-1.0
 23
-0.25
  0
ENDBLK
  5
216
100
AcDbEntity
  8
0
  6
BYBLOCK
 62
0
100
AcDbBlockEnd
  0
ENDSEC
  0
SECTION
  2
ENTITIES
  0
LINE
  5
217
100
AcDbEntity
  8
0
100
AcDbLine
 62
7
  6
BYLAYER
 10
88.0810111902
 20
20.4835861613
 11
109.244150556
 21
20.4835861613
  0
LINE
  5
218
100
AcDbEntity
  8
0
100
AcDbLine
 62
7
  6
BYLAYER
 10
87.7657520396
 20
20.9835861613
 11
109.6291855124
 21
20.9835861613
  0
LINE
  5
219
100
AcDbEntity
  8
0
100
AcDbLine
 62
7
  6
BYLAYER
 10
110.109232511
 20
24.4835861613
 11
86.9657641263
 21
24.4835861613
  0
LINE
  5
21A
100
AcDbEntity
  8
0
100
AcDbLine
 62
7
  6
BYLAYER
 10
105.547199773
 20
28.4835861613
 11
90.7148027988
 21
28.4835861613
  0
LINE
  5
21B
100
AcDbEntity
  8
0
100
AcDbLine
 62
7
  6
BYLAYER
 10
95.1310012859
 20
256.9835861613
 11
95.6310012859
 21
257.4835861613
  0
LINE
  5
21C
100
AcDbEntity
  8
0
100
AcDbLine
 62
7
  6
BYLAYER
 10
89.1810012859
 20
241.6835861613
 11
90.2810012859
 21
242.7835861613
  0
LINE
  5
21D
100
AcDbEntity
  8
0
100
AcDbLine
 62
7
  6
BYLAYER
 10
87.5551338391
 20
21.0272833761
 11
87.8236584246
 21
20.6190110105
  0
LINE
  5
21E
100
AcDbEntity
  8
0
100
AcDbLine
 62
7
  6
BYLAYER
 10
103.520887648
 20
241.6835861613
 11
102.420887648
 21
240.5835861613
  0
LINE
  5
21F
100
AcDbEntity
  8
0
100
AcDbLine
 62
7
  6
BYLAYER
 10
87.2171309934
 20
21.5966436701
 11
87.5589933621
 21
21.0211616523
  0
LINE
  5
220
100
AcDbEntity
  8
0
100
AcDbLine
 62
7
  6
BYLAYER
 10
86.9736994008
 20
22.0546822139
 11
87.2206144753
 21
21.5904092343
  0
LINE
  5
221
100
AcDbEntity
  8
0
100
AcDbLine
 62
7
  6
BYLAYER
 10
106.1310012859
 20
80.9835861613
 11
90.1310012859
 21
80.9835861613
  0
LINE
  5
222
100
AcDbEntity
  8
0
100
AcDbLine
 62
7
  6
BYLAYER
 10
86.9656367828
 20
22.0885860488
 11
86.9736980947
 21
22.0546613522
  0
LINE
  5
223
100
AcDbEntity
  8
0
100
AcDbLine
 62
7
  6
BYLAYER
 10
110.0875015809
 20
22.1906929112
 11
110.1092415633
 21
22.1285177807
  0
LINE
  5
224
100
AcDbEntity
  8
0
100
AcDbLine
 62
7
  6
BYLAYER
 10
90.1310012859
 20
48.6835858559
 11
90.1395480346
 21
48.6479071295
  0
LINE
  5
225
100
AcDbEntity
  8
0
100
AcDbLine
 62
7
  6
BYLAYER
 10
90.1310012859
 20
58.6835858559
 11
90.1395480346
 21
58.6479071295
  0
LINE
  5
226
100
AcDbEntity
  8
0
100
AcDbLine
 62
7
  6
BYLAYER
 10
90.1310012859
 20
68.6835858559
 11
90.1395480346
 21
68.6479071295
  0
LINE
  5
227
100
AcDbEntity
  8
0
100
AcDbLine
 62
7
  6
BYLAYER
 10
90.1310012859
 20
48.6835858559
 11
90.1518445111
 21
48.5911390168
  0
LINE
  5
228
100
AcDbEntity
  8
0
100
AcDbLine
 62
7
  6
BYLAYER
 10
90.1310012859
 20
58.6835858559
 11
90.1518445111
 21
58.5911390168
  0
LINE
  5
229
100
AcDbEntity
  8
0
100
AcDbLine
 62
7
  6
BYLAYER
 10
90.1310012859
 20
68.6835858559
 11
90.1518445111
 21
68.5911390168
  0
LINE
  5
22A
100
AcDbEntity
  8
0
100
AcDbLine
 62
7
  6
BYLAYER
 10
79.1310012859
 20
233.7835861613
 11
79.1310012859
 21
232.7835861613
  0
LINE
  5
22B
100
AcDbEntity
  8
0
100
AcDbLine
 62
7
  6
BYLAYER
 10
79.1310012859
 20
230.1835861613
 11
79.1310012859
 21
229.1835861613
  0
LINE
  5
22C
100
AcDbEntity
  8
0
100
AcDbLine
 62
7
  6
BYLAYER
 10
90.1310012859
 20
78.6835858559
 11
90.1395480346
 21
78.6479071295
  0
LINE
  5
22D
100
AcDbEntity
  8
0
100
AcDbLine
 62
7
  6
BYLAYER
 10
90.1310012859
 20
78.6835858559
 11
90.1518445111
 21
78.5911390168
  0
LINE
  5
22E
100
AcDbEntity
  8
0
100
AcDbLine
 62
7
  6
BYLAYER
 10
86.965636782
 20
22.0885149538
 11
86.965636782
 21
24.4835861613
  0
LINE
  5
22F
100
AcDbEntity
  8
0
100
AcDbLine
 62
7
  6
BYLAYER
 10
87.0212465944
 20
24.4835861613
 11
87.0212465944
 21
22.190692863
  0
LINE
  5
230
100
AcDbEntity
  8
0
100
AcDbLine
 62
7
  6
BYLAYER
 10
88.2060012859
 20
233.7835861613
 11
88.2060012859
 21
235.4835861613
  0
LINE
  5
231
100
AcDbEntity
  8
0
100
AcDbLine
 62
7
  6
BYLAYER
 10
89.1810012859
 20
235.7835861613
 11
89.1810012859
 21
235.4835861481
  0
LINE
  5
232
100
AcDbEntity
  8
0
100
AcDbLine
 62
7
  6
BYLAYER
 10
89.1810012859
 20
238.9835861613
 11
89.1810012859
 21
241.6835861613
  0
LINE
  5
233
100
AcDbEntity
  8
0
100
AcDbLine
 62
7
  6
BYLAYER
 10
90.1310012859
 20
24.4835861613
 11
90.1310012859
 21
45.2835864006
  0
LINE
  5
234
100
AcDbEntity
  8
0
100
AcDbLine
 62
7
  6
BYLAYER
 10
90.1310012859
 20
48.6835859236
 11
90.1310012859
 21
55.2835864006
  0
LINE
  5
235
100
AcDbEntity
  8
0
100
AcDbLine
 62
7
  6
BYLAYER
 10
90.1310012859
 20
58.6835859236
 11
90.1310012859
 21
65.2835864006
  0
LINE
  5
236
100
AcDbEntity
  8
0
100
AcDbLine
 62
7
  6
BYLAYER
 10
90.1310012859
 20
68.6835859236
 11
90.1310012859
 21
75.2835864006
  0
LINE
  5
237
100
AcDbEntity
  8
0
100
AcDbLine
 62
7
  6
BYLAYER
 10
90.1310012859
 20
78.6835859236
 11
90.1310012859
 21
80.9835861613
  0
LINE
  5
238
100
AcDbEntity
  8
0
100
AcDbLine
 62
7
  6
BYLAYER
 10
90.6810012859
 20
238.1835861613
 11
90.6810012859
 21
235.7835861613
  0
LINE
  5
239
100
AcDbEntity
  8
0
100
AcDbLine
 62
7
  6
BYLAYER
 10
90.7148027988
 20
80.9835861613
 11
90.7148027988
 21
28.4835861613
  0
LINE
  5
23A
100
AcDbEntity
  8
0
100
AcDbLine
 62
7
  6
BYLAYER
 10
106.1303232131
 20
40.2865967417
 11
106.1310012859
 21
40.2835861596
  0
LINE
  5
23B
100
AcDbEntity
  8
0
100
AcDbLine
 62
7
  6
BYLAYER
 10
106.1303232131
 20
50.2865967417
 11
106.1310012859
 21
50.2835861596
  0
LINE
  5
23C
100
AcDbEntity
  8
0
100
AcDbLine
 62
7
  6
BYLAYER
 10
106.1303232131
 20
60.2865967417
 11
106.1310012859
 21
60.2835861596
  0
LINE
  5
23D
100
AcDbEntity
  8
0
100
AcDbLine
 62
7
  6
BYLAYER
 10
106.1303232131
 20
70.2865967417
 11
106.1310012859
 21
70.2835861596
  0
LINE
  5
23E
100
AcDbEntity
  8
0
100
AcDbLine
 62
7
  6
BYLAYER
 10
91.5166230082
 20
28.4835861613
 11
91.5166230082
 21
80.9835861613
  0
LINE
  5
23F
100
AcDbEntity
  8
0
100
AcDbLine
 62
7
  6
BYLAYER
 10
91.6310012859
 20
241.6835861613
 11
91.6310012859
 21
242.7835861613
  0
LINE
  5
240
100
AcDbEntity
  8
0
100
AcDbLine
 62
7
  6
BYLAYER
 10
91.8810012859
 20
230.6835861613
 11
91.8810012859
 21
231.4835861613
  0
LINE
  5
241
100
AcDbEntity
  8
0
100
AcDbLine
 62
7
  6
BYLAYER
 10
92.7568189353
 20
80.9835861613
 11
92.7568189353
 21
28.4835861613
  0
LINE
  5
242
100
AcDbEntity
  8
0
100
AcDbLine
 62
7
  6
BYLAYER
 10
93.1810012859
 20
232.3835861613
 11
93.1810012859
 21
232.7835861613
  0
LINE
  5
243
100
AcDbEntity
  8
0
100
AcDbLine
 62
7
  6
BYLAYER
 10
93.8411149238
 20
235.4835861446
 11
93.8411149238
 21
240.5835861613
  0
LINE
  5
244
100
AcDbEntity
  8
0
100
AcDbLine
 62
7
  6
BYLAYER
 10
93.8810012859
 20
231.9835861613
 11
93.8810012859
 21
230.1835861613
  0
LINE
  5
245
100
AcDbEntity
  8
0
100
AcDbLine
 62
7
  6
BYLAYER
 10
94.2309826042
 20
80.9835861613
 11
94.2309826042
 21
28.4835861613
  0
LINE
  5
246
100
AcDbEntity
  8
0
100
AcDbLine
 62
7
  6
BYLAYER
 10
95.1310012859
 20
28.4835861613
 11
95.1310012859
 21
229.1835861613
  0
LINE
  5
247
100
AcDbEntity
  8
0
100
AcDbLine
 62
7
  6
BYLAYER
 10
95.1310012859
 20
242.4835861613
 11
95.1310012859
 21
256.9835861613
  0
LINE
  5
248
100
AcDbEntity
  8
0
100
AcDbLine
 62
7
  6
BYLAYER
 10
95.6310012859
 20
241.6835861613
 11
95.6310012859
 21
242.4835861613
  0
LINE
  5
249
100
AcDbEntity
  8
0
100
AcDbLine
 62
7
  6
BYLAYER
 10
96.8810012859
 20
235.7835861613
 11
96.8810012859
 21
241.6835861613
  0
LINE
  5
24A
100
AcDbEntity
  8
0
100
AcDbLine
 62
7
  6
BYLAYER
 10
99.1310012859
 20
242.4835861613
 11
99.1310012859
 21
256.9835861613
  0
LINE
  5
24B
100
AcDbEntity
  8
0
100
AcDbLine
 62
7
  6
BYLAYER
 10
99.3810012859
 20
235.7835861613
 11
99.3810012859
 21
241.6835861613
  0
LINE
  5
24C
100
AcDbEntity
  8
0
100
AcDbLine
 62
7
  6
BYLAYER
 10
100.6310012859
 20
241.6835861613
 11
100.6310012859
 21
242.4835861613
  0
LINE
  5
24D
100
AcDbEntity
  8
0
100
AcDbLine
 62
7
  6
BYLAYER
 10
101.1310012859
 20
28.4835861613
 11
101.1310012859
 21
229.1835861613
  0
LINE
  5
24E
100
AcDbEntity
  8
0
100
AcDbLine
 62
7
  6
BYLAYER
 10
101.1310012859
 20
242.4835861613
 11
101.1310012859
 21
256.9835861613
  0
LINE
  5
24F
100
AcDbEntity
  8
0
100
AcDbLine
 62
7
  6
BYLAYER
 10
102.0310012859
 20
80.9835861613
 11
102.0310012859
 21
28.4835861613
  0
LINE
  5
250
100
AcDbEntity
  8
0
100
AcDbLine
 62
7
  6
BYLAYER
 10
102.3810012859
 20
230.1835861613
 11
102.3810012875
 21
231.9835861613
  0
LINE
  5
251
100
AcDbEntity
  8
0
100
AcDbLine
 62
7
  6
BYLAYER
 10
102.420887648
 20
235.4835861476
 11
102.420887648
 21
240.5835861613
  0
LINE
  5
252
100
AcDbEntity
  8
0
100
AcDbLine
 62
7
  6
BYLAYER
 10
103.0810012859
 20
232.3835861613
 11
103.0810012859
 21
232.7835861613
  0
LINE
  5
253
100
AcDbEntity
  8
0
100
AcDbLine
 62
7
  6
BYLAYER
 10
103.5051836365
 20
80.9835861613
 11
103.5051836365
 21
28.4835861613
  0
LINE
  5
254
100
AcDbEntity
  8
0
100
AcDbLine
 62
7
  6
BYLAYER
 10
104.3810012859
 20
231.4835861613
 11
104.3810012859
 21
230.6835861613
  0
LINE
  5
255
100
AcDbEntity
  8
0
100
AcDbLine
 62
7
  6
BYLAYER
 10
104.6310012859
 20
241.6835861613
 11
104.6310012859
 21
242.7835861613
  0
LINE
  5
256
100
AcDbEntity
  8
0
100
AcDbLine
 62
7
  6
BYLAYER
 10
104.7453795635
 20
80.9835861613
 11
104.7453795635
 21
28.4835861613
  0
LINE
  5
257
100
AcDbEntity
  8
0
100
AcDbLine
 62
7
  6
BYLAYER
 10
105.547199773
 20
28.4835861613
 11
105.547199773
 21
80.9835861613
  0
LINE
  5
258
100
AcDbEntity
  8
0
100
AcDbLine
 62
7
  6
BYLAYER
 10
105.5810012859
 20
238.1835861613
 11
105.5810012859
 21
235.7835861613
  0
LINE
  5
259
100
AcDbEntity
  8
0
100
AcDbLine
 62
7
  6
BYLAYER
 10
106.1310012859
 20
24.4835861613
 11
106.1310012859
 21
40.2835861613
  0
LINE
  5
25A
100
AcDbEntity
  8
0
100
AcDbLine
 62
7
  6
BYLAYER
 10
106.1310012859
 20
43.6835861613
 11
106.1310012859
 21
50.2835861613
  0
LINE
  5
25B
100
AcDbEntity
  8
0
100
AcDbLine
 62
7
  6
BYLAYER
 10
106.1310012859
 20
53.6835861613
 11
106.1310012859
 21
60.2835861613
  0
LINE
  5
25C
100
AcDbEntity
  8
0
100
AcDbLine
 62
7
  6
BYLAYER
 10
106.1310012859
 20
63.6835861613
 11
106.1310012859
 21
70.2835861613
  0
LINE
  5
25D
100
AcDbEntity
  8
0
100
AcDbLine
 62
7
  6
BYLAYER
 10
106.1310012859
 20
73.6835861613
 11
106.1310012859
 21
80.9835861613
  0
LINE
  5
25E
100
AcDbEntity
  8
0
100
AcDbLine
 62
7
  6
BYLAYER
 10
107.0810012859
 20
235.4835861494
 11
107.0810012859
 21
235.7835861613
  0
LINE
  5
25F
100
AcDbEntity
  8
0
100
AcDbLine
 62
7
  6
BYLAYER
 10
107.0810012859
 20
238.9835861613
 11
107.0810012859
 21
241.6835861613
  0
LINE
  5
260
100
AcDbEntity
  8
0
100
AcDbLine
 62
7
  6
BYLAYER
 10
108.0560012859
 20
233.7835861613
 11
108.0560012859
 21
235.4835861613
  0
LINE
  5
261
100
AcDbEntity
  8
0
100
AcDbLine
 62
7
  6
BYLAYER
 10
110.0875015809
 20
22.1906929112
 11
110.0875015809
 21
24.4835861613
  0
LINE
  5
262
100
AcDbEntity
  8
0
100
AcDbLine
 62
7
  6
BYLAYER
 10
110.1092415691
 20
24.4835861613
 11
110.1092415691
 21
22.128709547
  0
LINE
  5
263
100
AcDbEntity
  8
0
100
AcDbLine
 62
7
  6
BYLAYER
 10
117.1310012859
 20
233.7835861613
 11
117.1310012859
 21
232.7835861613
  0
LINE
  5
264
100
AcDbEntity
  8
0
100
AcDbLine
 62
7
  6
BYLAYER
 10
117.1310012859
 20
230.1835861613
 11
117.1310012859
 21
229.1835861613
  0
LINE
  5
265
100
AcDbEntity
  8
0
100
AcDbLine
 62
7
  6
BYLAYER
 10
109.6291870113
 20
20.9835861613
 11
109.5983189317
 21
20.7156403154
  0
LINE
  5
266
100
AcDbEntity
  8
0
100
AcDbLine
 62
7
  6
BYLAYER
 10
106.1310012859
 20
73.6835861622
 11
106.1309944093
 21
73.6835502131
  0
LINE
  5
267
100
AcDbEntity
  8
0
100
AcDbLine
 62
7
  6
BYLAYER
 10
106.1310012859
 20
63.6835861622
 11
106.1309944093
 21
63.6835502131
  0
LINE
  5
268
100
AcDbEntity
  8
0
100
AcDbLine
 62
7
  6
BYLAYER
 10
106.1310012859
 20
53.6835861622
 11
106.1309944093
 21
53.6835502131
  0
LINE
  5
269
100
AcDbEntity
  8
0
100
AcDbLine
 62
7
  6
BYLAYER
 10
106.1309944093
 20
73.6835502131
 11
106.1304161683
 21
73.6809881298
  0
LINE
  5
26A
100
AcDbEntity
  8
0
100
AcDbLine
 62
7
  6
BYLAYER
 10
106.1309944093
 20
63.6835502131
 11
106.1304161683
 21
63.6809881298
  0
LINE
  5
26B
100
AcDbEntity
  8
0
100
AcDbLine
 62
7
  6
BYLAYER
 10
110.1092415633
 20
22.1285177807
 11
110.1058618944
 21
22.1057444014
  0
LINE
  5
26C
100
AcDbEntity
  8
0
100
AcDbLine
 62
7
  6
BYLAYER
 10
106.1310012859
 20
43.6835861622
 11
106.1309944093
 21
43.6835502131
  0
LINE
  5
26D
100
AcDbEntity
  8
0
100
AcDbLine
 62
7
  6
BYLAYER
 10
106.1309944093
 20
53.6835502131
 11
106.1304161683
 21
53.6809881298
  0
LINE
  5
26E
100
AcDbEntity
  8
0
100
AcDbLine
 62
7
  6
BYLAYER
 10
106.1309944093
 20
43.6835502131
 11
106.1304161683
 21
43.6809881298
  0
LINE
  5
26F
100
AcDbEntity
  8
0
100
AcDbLine
 62
7
  6
BYLAYER
 10
106.130994235
 20
73.6836027887
 11
106.1309746292
 21
73.6835626274
  0
LINE
  5
270
100
AcDbEntity
  8
0
100
AcDbLine
 62
7
  6
BYLAYER
 10
106.130994235
 20
63.6836027887
 11
106.1309746292
 21
63.6835626274
  0
LINE
  5
271
100
AcDbEntity
  8
0
100
AcDbLine
 62
7
  6
BYLAYER
 10
106.130994235
 20
53.6836027887
 11
106.1309746292
 21
53.6835626274
  0
LINE
  5
272
100
AcDbEntity
  8
0
100
AcDbLine
 62
7
  6
BYLAYER
 10
106.130994235
 20
43.6836027887
 11
106.1309746292
 21
43.6835626274
  0
LINE
  5
273
100
AcDbEntity
  8
0
100
AcDbLine
 62
7
  6
BYLAYER
 10
87.0212465944
 20
22.190692863
 11
86.9656367828
 21
22.0885860488
  0
LINE
  5
274
100
AcDbEntity
  8
0
100
AcDbLine
 62
7
  6
BYLAYER
 10
99.1310012859
 20
256.9835861613
 11
98.9238945047
 21
257.4835861613
  0
LINE
  5
275
100
AcDbEntity
  8
0
100
AcDbLine
 62
7
  6
BYLAYER
 10
92.7411149238
 20
241.6835861613
 11
93.8411149238
 21
240.5835861613
  0
LINE
  5
276
100
AcDbEntity
  8
0
100
AcDbLine
 62
7
  6
BYLAYER
 10
107.0810012859
 20
241.6835861613
 11
105.9810012859
 21
242.7835861613
  0
LINE
  5
277
100
AcDbEntity
  8
0
100
AcDbLine
 62
7
  6
BYLAYER
 10
100.6310012859
 20
257.4835861613
 11
101.1310012859
 21
256.9835861613
  0
LINE
  5
278
100
AcDbEntity
  8
0
100
AcDbLine
 62
7
  6
BYLAYER
 10
79.1310012859
 20
229.1835861613
 11
117.1310012859
 21
229.1835861613
  0
LINE
  5
279
100
AcDbEntity
  8
0
100
AcDbLine
 62
7
  6
BYLAYER
 10
117.1310012859
 20
230.1835861613
 11
79.1310012859
 21
230.1835861613
  0
LINE
  5
27A
100
AcDbEntity
  8
0
100
AcDbLine
 62
7
  6
BYLAYER
 10
91.8810012859
 20
230.6835861613
 11
104.3810012859
 21
230.6835861613
  0
LINE
  5
27B
100
AcDbEntity
  8
0
100
AcDbLine
 62
7
  6
BYLAYER
 10
104.3810012859
 20
231.4835861613
 11
91.8810012859
 21
231.4835861613
  0
LINE
  5
27C
100
AcDbEntity
  8
0
100
AcDbLine
 62
7
  6
BYLAYER
 10
92.3810012859
 20
231.9835861613
 11
103.8810012859
 21
231.9835861613
  0
LINE
  5
27D
100
AcDbEntity
  8
0
100
AcDbLine
 62
7
  6
BYLAYER
 10
93.1810705684
 20
232.3835861613
 11
103.0810012859
 21
232.3835861613
  0
LINE
  5
27E
100
AcDbEntity
  8
0
100
AcDbLine
 62
7
  6
BYLAYER
 10
79.1310012859
 20
232.7835861613
 11
117.1310012859
 21
232.7835861613
  0
LINE
  5
27F
100
AcDbEntity
  8
0
100
AcDbLine
 62
7
  6
BYLAYER
 10
117.1310012859
 20
233.7835861613
 11
79.1310012859
 21
233.7835861613
  0
LINE
  5
280
100
AcDbEntity
  8
0
100
AcDbLine
 62
7
  6
BYLAYER
 10
108.0560012859
 20
235.4835861613
 11
88.2060012859
 21
235.4835861613
  0
LINE
  5
281
100
AcDbEntity
  8
0
100
AcDbLine
 62
7
  6
BYLAYER
 10
107.7559532012
 20
235.7835861613
 11
107.0810012859
 21
235.7835861613
  0
LINE
  5
282
100
AcDbEntity
  8
0
100
AcDbLine
 62
7
  6
BYLAYER
 10
106.3310282557
 20
235.7835861613
 11
103.1708606782
 21
235.7835861613
  0
LINE
  5
283
100
AcDbEntity
  8
0
100
AcDbLine
 62
7
  6
BYLAYER
 10
101.6719227761
 20
235.7835861613
 11
94.5900797957
 21
235.7835861613
  0
LINE
  5
284
100
AcDbEntity
  8
0
100
AcDbLine
 62
7
  6
BYLAYER
 10
93.0911418936
 20
235.7835861613
 11
89.9309743161
 21
235.7835861613
  0
LINE
  5
285
100
AcDbEntity
  8
0
100
AcDbLine
 62
7
  6
BYLAYER
 10
89.1810012859
 20
235.7835861613
 11
88.5060493706
 21
235.7835861613
  0
LINE
  5
286
100
AcDbEntity
  8
0
100
AcDbLine
 62
7
  6
BYLAYER
 10
89.1810012859
 20
238.9835861613
 11
89.8810012859
 21
238.9835861613
  0
LINE
  5
287
100
AcDbEntity
  8
0
100
AcDbLine
 62
7
  6
BYLAYER
 10
106.3810012859
 20
238.9835861613
 11
107.0810012859
 21
238.9835861613
  0
LINE
  5
288
100
AcDbEntity
  8
0
100
AcDbLine
 62
7
  6
BYLAYER
 10
93.8411149238
 20
240.5835861613
 11
96.8810012859
 21
240.5835861613
  0
LINE
  5
289
100
AcDbEntity
  8
0
100
AcDbLine
 62
7
  6
BYLAYER
 10
99.3810012859
 20
240.5835861613
 11
102.420887648
 21
240.5835861613
  0
LINE
  5
28A
100
AcDbEntity
  8
0
100
AcDbLine
 62
7
  6
BYLAYER
 10
91.6310012859
 20
241.6835861613
 11
104.6310012859
 21
241.6835861613
  0
LINE
  5
28B
100
AcDbEntity
  8
0
100
AcDbLine
 62
7
  6
BYLAYER
 10
89.2810012859
 20
241.7835861613
 11
91.6310012859
 21
241.7835861613
  0
LINE
  5
28C
100
AcDbEntity
  8
0
100
AcDbLine
 62
7
  6
BYLAYER
 10
104.6310012859
 20
241.7835861613
 11
106.9810012859
 21
241.7835861613
  0
LINE
  5
28D
100
AcDbEntity
  8
0
100
AcDbLine
 62
7
  6
BYLAYER
 10
95.1310012859
 20
242.4835861613
 11
101.1310012859
 21
242.4835861613
  0
LINE
  5
28E
100
AcDbEntity
  8
0
100
AcDbLine
 62
7
  6
BYLAYER
 10
105.9810012859
 20
242.7835861613
 11
104.6310012859
 21
242.7835861613
  0
LINE
  5
28F
100
AcDbEntity
  8
0
100
AcDbLine
 62
7
  6
BYLAYER
 10
91.6310012859
 20
242.7835861613
 11
90.2810012859
 21
242.7835861613
  0
LINE
  5
290
100
AcDbEntity
  8
0
100
AcDbLine
 62
7
  6
BYLAYER
 10
95.1310012859
 20
256.9835861613
 11
101.1310012859
 21
256.9835861613
  0
LINE
  5
291
100
AcDbEntity
  8
0
100
AcDbLine
 62
7
  6
BYLAYER
 10
95.6310012859
 20
257.4835861613
 11
100.6310012859
 21
257.4835861613
  0
ARC
  5
292
100
AcDbEntity
  8
0
100
AcDbCircle
 62
7
  6
BYLAYER
 10
98.1188603391
 20
25.6960201323
 40
12.513161423
100
AcDbArc
 50
336.5456617705
 51
343.3258172688
  0
ARC
  5
293
100
AcDbEntity
  8
0
100
AcDbCircle
 62
7
  6
BYLAYER
 10
97.500840019
 20
27.8211365454
 40
11.8963874022
100
AcDbArc
 50
208.704558024
 51
215.0827251206
  0
ARC
  5
294
100
AcDbEntity
  8
0
100
AcDbCircle
 62
7
  6
BYLAYER
 10
97.4816610166
 20
27.8097373447
 40
11.8740904131
100
AcDbArc
 50
208.2434936377
 51
208.700761574
  0
ARC
  5
295
100
AcDbEntity
  8
0
100
AcDbCircle
 62
7
  6
BYLAYER
 10
98.9249988424
 20
25.7385933778
 40
11.7128009415
100
AcDbArc
 50
336.0482798914
 51
342.0031692846
  0
ARC
  5
296
100
AcDbEntity
  8
0
100
AcDbCircle
 62
7
  6
BYLAYER
 10
99.2420527097
 20
25.6318146729
 40
11.3782691272
100
AcDbArc
 50
342.0212773766
 51
342.3964851586
  0
ARC
  5
297
100
AcDbEntity
  8
0
100
AcDbCircle
 62
7
  6
BYLAYER
 10
89.8810012859
 20
238.1835861613
 40
0.8
100
AcDbArc
 50
0.0
 51
90.0
  0
ARC
  5
298
100
AcDbEntity
  8
0
100
AcDbCircle
 62
7
  6
BYLAYER
 10
106.3810012859
 20
238.1835861613
 40
0.8
100
AcDbArc
 50
90.0
 51
180.0
  0
ARC
  5
299
100
AcDbEntity
  8
0
100
AcDbCircle
 62
7
  6
BYLAYER
 10
91.3810012859
 20
230.6835861613
 40
0.5
100
AcDbArc
 50
270.0
 51
360.0
  0
ARC
  5
29A
100
AcDbEntity
  8
0
100
AcDbCircle
 62
7
  6
BYLAYER
 10
104.8810012859
 20
230.6835861613
 40
0.5
100
AcDbArc
 50
180.0
 51
270.0
  0
ARC
  5
29B
100
AcDbEntity
  8
0
100
AcDbCircle
 62
7
  6
BYLAYER
 10
103.8810012859
 20
231.4835861613
 40
0.5
100
AcDbArc
 50
0.0
 51
90.0
  0
ARC
  5
29C
100
AcDbEntity
  8
0
100
AcDbCircle
 62
7
  6
BYLAYER
 10
92.3810012859
 20
231.4835861613
 40
0.5
100
AcDbArc
 50
90.0
 51
180.0
  0
ARC
  5
29D
100
AcDbEntity
  8
0
100
AcDbCircle
 62
7
  6
BYLAYER
 10
102.6810012859
 20
232.3835861613
 40
0.4
100
AcDbArc
 50
269.999999126
 51
360.0
  0
ARC
  5
29E
100
AcDbEntity
  8
0
100
AcDbCircle
 62
7
  6
BYLAYER
 10
93.5810012859
 20
232.3835861613
 40
0.4
100
AcDbArc
 50
180.0
 51
270.000000874
  0
ARC
  5
29F
100
AcDbEntity
  8
0
100
AcDbCircle
 62
7
  6
BYLAYER
 10
88.5060012859
 20
235.4835861613
 40
0.3
100
AcDbArc
 50
90.0
 51
180.0
  0
ARC
  5
2A0
100
AcDbEntity
  8
0
100
AcDbCircle
 62
7
  6
BYLAYER
 10
107.7560012859
 20
235.4835861613
 40
0.3
100
AcDbArc
 50
0.0
 51
90.0
  0
SPLINE
  5
2A1
100
AcDbEntity
  8
0
100
AcDbSpline
 62
7
  6
BYLAYER
 70
0
 71
3
 72
16
 73
12
 74
0
 42
0.0000001
 43
0.0000001
 44
0.0000000001
 40
0.0
 40
0.0
 40
0.0
 40
0.0
 40
0.2361645071
 40
0.3546289745
 40
0.4737302076
 40
0.5941296224
 40
0.7173082116
 40
0.7811242765
 40
0.8478184029
 40
0.9198761376
 40
1.0
 40
1.0
 40
1.0
 40
1.0
 10
106.3310282557
 20
235.7835861613
 30
0.0
 10
106.3994242197
 20
235.7835861613
 30
0.0
 10
106.5022505983
 20
235.7798795472
 30
0.0
 10
106.6385765574
 20
235.7638252093
 30
0.0
 10
106.7405688225
 20
235.7446079563
 30
0.0
 10
106.8417419621
 20
235.715806451
 30
0.0
 10
106.9239561077
 20
235.6804562609
 30
0.0
 10
106.9862750892
 20
235.6412085495
 30
0.0
 10
107.0309630512
 20
235.6027354567
 30
0.0
 10
107.0692462609
 20
235.5512704747
 30
0.0
 10
107.081001286
 20
235.5067909437
 30
0.0
 10
107.081001286
 20
235.4835861494
 30
0.0
  0
SPLINE
  5
2A2
100
AcDbEntity
  8
0
100
AcDbSpline
 62
7
  6
BYLAYER
 70
0
 71
3
 72
16
 73
12
 74
0
 42
0.0000001
 43
0.0000001
 44
0.0000000001
 40
0.0
 40
0.0
 40
0.0
 40
0.0
 40
0.2361644894
 40
0.3546289475
 40
0.4737301724
 40
0.5941295798
 40
0.7173081631
 40
0.7811242275
 40
0.84781836
 40
0.9198761755
 40
1.0
 40
1.0
 40
1.0
 40
1.0
 10
89.9309743161
 20
235.7835861613
 30
0.0
 10
89.8625783568
 20
235.7835861613
 30
0.0
 10
89.7597519852
 20
235.7798795501
 30
0.0
 10
89.6234260359
 20
235.763825209
 30
0.0
 10
89.5214337763
 20
235.744607964
 30
0.0
 10
89.4202606401
 20
235.7158064664
 30
0.0
 10
89.3380464973
 20
235.680456278
 30
0.0
 10
89.275727515
 20
235.6412085676
 30
0.0
 10
89.2310395252
 20
235.6027354703
 30
0.0
 10
89.1927562948
 20
235.5512704786
 30
0.0
 10
89.181001286
 20
235.5067909316
 30
0.0
 10
89.181001286
 20
235.4835861481
 30
0.0
  0
SPLINE
  5
2A3
100
AcDbEntity
  8
0
100
AcDbSpline
 62
7
  6
BYLAYER
 70
0
 71
3
 72
16
 73
12
 74
0
 42
0.0000001
 43
0.0000001
 44
0.0000000001
 40
0.0
 40
0.0
 40
0.0
 40
0.0
 40
0.2500752477
 40
0.3751523359
 40
0.5002202648
 40
0.6252635257
 40
0.750234549
 40
0.8127713934
 40
0.8752812471
 40
0.937716268
 40
1.0
 40
1.0
 40
1.0
 40
1.0
 10
94.5900797957
 20
235.7835861613
 30
0.0
 10
94.518033615
 20
235.7835861613
 30
0.0
 10
94.4097900008
 20
235.7784193665
 30
0.0
 10
94.2669956652
 20
235.7583596205
 30
0.0
 10
94.1612383498
 20
235.735347281
 30
0.0
 10
94.0581839876
 20
235.7022713271
 30
0.0
 10
93.9764358511
 20
235.6632515961
 30
0.0
 10
93.9173621851
 20
235.6216891865
 30
0.0
 10
93.8784274142
 20
235.5837972482
 30
0.0
 10
93.8490377636
 20
235.5377435647
 30
0.0
 10
93.8411149238
 20
235.5015299637
 30
0.0
 10
93.8411149238
 20
235.4835861446
 30
0.0
  0
SPLINE
  5
2A4
100
AcDbEntity
  8
0
100
AcDbSpline
 62
7
  6
BYLAYER
 70
0
 71
3
 72
16
 73
12
 74
0
 42
0.0000001
 43
0.0000001
 44
0.0000000001
 40
0.0
 40
0.0
 40
0.0
 40
0.0
 40
0.2361641776
 40
0.3546284724
 40
0.4737295335
 40
0.5941287672
 40
0.717307145
 40
0.7811230832
 40
0.8478170464
 40
0.9198751352
 40
1.0
 40
1.0
 40
1.0
 40
1.0
 10
103.1708606782
 20
235.7835861613
 30
0.0
 10
103.102464808
 20
235.7835861613
 30
0.0
 10
102.9996385714
 20
235.7798795724
 30
0.0
 10
102.8633128043
 20
235.7638252472
 30
0.0
 10
102.7613206773
 20
235.7446080888
 30
0.0
 10
102.660147659
 20
235.7158067321
 30
0.0
 10
102.5779336417
 20
235.6804566389
 30
0.0
 10
102.5156147019
 20
235.6412091254
 30
0.0
 10
102.4709266319
 20
235.6027361674
 30
0.0
 10
102.4326427388
 20
235.5512712298
 30
0.0
 10
102.420887648
 20
235.5067912328
 30
0.0
 10
102.420887648
 20
235.4835861476
 30
0.0
  0
SPLINE
  5
2A5
100
AcDbEntity
  8
0
100
AcDbSpline
 62
7
  6
BYLAYER
 70
0
 71
3
 72
16
 73
12
 74
0
 42
0.0000001
 43
0.0000001
 44
0.0000000001
 40
0.0
 40
0.0
 40
0.0
 40
0.0
 40
0.2361645073
 40
0.3546289748
 40
0.4737302081
 40
0.5941296233
 40
0.7173082134
 40
0.7811242789
 40
0.8478184064
 40
0.9198761474
 40
1.0
 40
1.0
 40
1.0
 40
1.0
 10
93.0911418936
 20
235.7835861613
 30
0.0
 10
93.159537858
 20
235.7835861613
 30
0.0
 10
93.2623642372
 20
235.7798795473
 30
0.0
 10
93.3986901972
 20
235.7638252088
 30
0.0
 10
93.5006824631
 20
235.7446079558
 30
0.0
 10
93.6018556036
 20
235.7158064499
 30
0.0
 10
93.6840697501
 20
235.680456259
 30
0.0
 10
93.7463887318
 20
235.6412085459
 30
0.0
 10
93.7910766956
 20
235.6027354511
 30
0.0
 10
93.8293599028
 20
235.5512704667
 30
0.0
 10
93.8411149238
 20
235.5067909362
 30
0.0
 10
93.8411149238
 20
235.4835861446
 30
0.0
  0
SPLINE
  5
2A6
100
AcDbEntity
  8
0
100
AcDbSpline
 62
7
  6
BYLAYER
 70
0
 71
3
 72
16
 73
12
 74
0
 42
0.0000001
 43
0.0000001
 44
0.0000000001
 40
0.0
 40
0.0
 40
0.0
 40
0.0
 40
0.0622837076
 40
0.1247186672
 40
0.1872284825
 40
0.2497653692
 40
0.3747364109
 40
0.4997796853
 40
0.6248476247
 40
0.7499247223
 40
1.0
 40
1.0
 40
1.0
 40
1.0
 10
102.420887648
 20
235.4835861476
 30
0.0
 10
102.420887648
 20
235.5015299598
 30
0.0
 10
102.4129648385
 20
235.537743542
 30
0.0
 10
102.3835751983
 20
235.5837971912
 30
0.0
 10
102.3446404626
 20
235.6216891396
 30
0.0
 10
102.2855667918
 20
235.663251558
 30
0.0
 10
102.2038186411
 20
235.7022713076
 30
0.0
 10
102.1007642669
 20
235.7353472689
 30
0.0
 10
101.9950069422
 20
235.7583596131
 30
0.0
 10
101.8522125922
 20
235.7784193666
 30
0.0
 10
101.7439689658
 20
235.7835861613
 30
0.0
 10
101.6719227761
 20
235.7835861613
 30
0.0
  0
SPLINE
  5
2A7
100
AcDbEntity
  8
0
100
AcDbSpline
 62
7
  6
BYLAYER
 70
0
 71
3
 72
11
 73
7
 74
0
 42
0.0000001
 43
0.0000001
 44
0.0000000001
 40
0.0
 40
0.0
 40
0.0
 40
0.0
 40
0.2472065573
 40
0.4926670222
 40
0.7420604995
 40
1.0
 40
1.0
 40
1.0
 40
1.0
 10
109.598295646
 20
20.7156225924
 30
0.0
 10
109.5836169508
 20
20.6817918992
 30
0.0
 10
109.5451634945
 20
20.6178600654
 30
0.0
 10
109.4621816845
 20
20.5421801187
 30
0.0
 10
109.3588379185
 20
20.4940818805
 30
0.0
 10
109.2826295857
 20
20.4835861613
 30
0.0
 10
109.244150556
 20
20.4835861613
 30
0.0
  0
SPLINE
  5
2A8
100
AcDbEntity
  8
0
100
AcDbSpline
 62
7
  6
BYLAYER
 70
0
 71
3
 72
9
 73
5
 74
0
 42
0.0000001
 43
0.0000001
 44
0.0000000001
 40
0.0
 40
0.0
 40
0.0
 40
0.0
 40
0.4958761249
 40
1.0
 40
1.0
 40
1.0
 40
1.0
 10
87.823678415
 20
20.6190241342
 30
0.0
 10
87.8517259817
 20
20.5781282772
 30
0.0
 10
87.9283807688
 20
20.5068710634
 30
0.0
 10
88.030596693
 20
20.4835861613
 30
0.0
 10
88.0810111902
 20
20.4835861613
 30
0.0
  0
SPLINE
  5
2A9
100
AcDbEntity
  8
0
100
AcDbSpline
 62
7
  6
BYLAYER
 70
0
 71
3
 72
29
 73
25
 74
0
 42
0.0000001
 43
0.0000001
 44
0.0000000001
 40
0.0
 40
0.0
 40
0.0
 40
0.0
 40
0.002759883
 40
0.0102070783
 40
0.0221749184
 40
0.0385149843
 40
0.0591082843
 40
0.0838373058
 40
0.1449555967
 40
0.2200395567
 40
0.3066901311
 40
0.401753198
 40
0.5012810509
 40
0.6007477528
 40
0.6956362521
 40
0.7820207132
 40
0.8567758311
 40
0.9175173272
 40
0.9420442922
 40
0.9624294465
 40
0.9785427378
 40
0.9902546838
 40
0.9974454483
 40
1.0
 40
1.0
 40
1.0
 40
1.0
 10
106.1309746292
 20
53.6835626274
 30
0.0
 10
106.1298405087
 20
53.6806147832
 30
0.0
 10
106.1278136114
 20
53.6690249552
 30
0.0
 10
106.1213424505
 20
53.6445370041
 30
0.0
 10
106.1124114726
 20
53.6045692946
 30
0.0
 10
106.0998025913
 20
53.5500587537
 30
0.0
 10
106.0847335367
 20
53.481111078
 30
0.0
 10
106.0597537207
 20
53.3618876873
 30
0.0
 10
106.0255167383
 20
53.1808960817
 30
0.0
 10
105.9859496842
 20
52.928893906
 30
0.0
 10
105.9515855458
 20
52.6369368983
 30
0.0
 10
105.9281428249
 20
52.3158132244
 30
0.0
 10
105.9199303877
 20
51.9792454182
 30
0.0
 10
105.9285611439
 20
51.6428881497
 30
0.0
 10
105.9523482675
 20
51.3223663426
 30
0.0
 10
105.9869230918
 20
51.0313220348
 30
0.0
 10
106.0265357391
 20
50.780453746
 30
0.0
 10
106.0607081325
 20
50.6005073096
 30
0.0
 10
106.0855607035
 20
50.4821782532
 30
0.0
 10
106.1004921908
 20
50.4139453141
 30
0.0
 10
106.1129779245
 20
50.3602209545
 30
0.0
 10
106.1216726932
 20
50.3210595917
 30
0.0
 10
106.1280920836
 20
50.2974147121
 30
0.0
 10
106.1299065034
 20
50.2863072452
 30
0.0
 10
106.130992668
 20
50.2835930091
 30
0.0
  0
SPLINE
  5
2AA
100
AcDbEntity
  8
0
100
AcDbSpline
 62
7
  6
BYLAYER
 70
0
 71
3
 72
29
 73
25
 74
0
 42
0.0000001
 43
0.0000001
 44
0.0000000001
 40
0.0
 40
0.0
 40
0.0
 40
0.0
 40
0.002759883
 40
0.0102070783
 40
0.0221749184
 40
0.0385149843
 40
0.0591082843
 40
0.0838373059
 40
0.1449555967
 40
0.2200395568
 40
0.3066901312
 40
0.4017531981
 40
0.501281051
 40
0.6007477529
 40
0.6956362523
 40
0.7820207134
 40
0.8567758313
 40
0.9175173273
 40
0.9420442928
 40
0.9624294474
 40
0.9785427383
 40
0.9902546828
 40
0.9974454462
 40
1.0
 40
1.0
 40
1.0
 40
1.0
 10
106.1309746292
 20
73.6835626274
 30
0.0
 10
106.1298405087
 20
73.6806147832
 30
0.0
 10
106.1278136114
 20
73.6690249552
 30
0.0
 10
106.1213424505
 20
73.6445370041
 30
0.0
 10
106.1124114726
 20
73.6045692946
 30
0.0
 10
106.0998025913
 20
73.5500587537
 30
0.0
 10
106.0847335367
 20
73.4811110781
 30
0.0
 10
106.0597537207
 20
73.3618876873
 30
0.0
 10
106.0255167383
 20
73.1808960818
 30
0.0
 10
105.9859496842
 20
72.928893906
 30
0.0
 10
105.9515855458
 20
72.6369368985
 30
0.0
 10
105.9281428249
 20
72.3158132246
 30
0.0
 10
105.9199303877
 20
71.9792454184
 30
0.0
 10
105.9285611439
 20
71.6428881499
 30
0.0
 10
105.9523482674
 20
71.3223663427
 30
0.0
 10
105.9869230919
 20
71.031322035
 30
0.0
 10
106.0265357386
 20
70.7804537461
 30
0.0
 10
106.0607081336
 20
70.60050731
 30
0.0
 10
106.0855607024
 20
70.4821782519
 30
0.0
 10
106.1004921938
 20
70.4139453142
 30
0.0
 10
106.1129779156
 20
70.3602209516
 30
0.0
 10
106.1216727112
 20
70.3210596033
 30
0.0
 10
106.128092055
 20
70.2974147049
 30
0.0
 10
106.1299065261
 20
70.286307258
 30
0.0
 10
106.130992668
 20
70.2835930102
 30
0.0
  0
SPLINE
  5
2AB
100
AcDbEntity
  8
0
100
AcDbSpline
 62
7
  6
BYLAYER
 70
0
 71
3
 72
29
 73
25
 74
0
 42
0.0000001
 43
0.0000001
 44
0.0000000001
 40
0.0
 40
0.0
 40
0.0
 40
0.0
 40
0.002759883
 40
0.0102070783
 40
0.0221749184
 40
0.0385149843
 40
0.0591082843
 40
0.0838373059
 40
0.1449555967
 40
0.2200395568
 40
0.3066901312
 40
0.4017531981
 40
0.501281051
 40
0.6007477529
 40
0.6956362523
 40
0.7820207134
 40
0.8567758313
 40
0.9175173273
 40
0.9420442928
 40
0.9624294474
 40
0.9785427383
 40
0.9902546828
 40
0.9974454462
 40
1.0
 40
1.0
 40
1.0
 40
1.0
 10
106.1309746292
 20
63.6835626274
 30
0.0
 10
106.1298405087
 20
63.6806147832
 30
0.0
 10
106.1278136114
 20
63.6690249552
 30
0.0
 10
106.1213424505
 20
63.6445370041
 30
0.0
 10
106.1124114726
 20
63.6045692946
 30
0.0
 10
106.0998025913
 20
63.5500587537
 30
0.0
 10
106.0847335367
 20
63.4811110781
 30
0.0
 10
106.0597537207
 20
63.3618876873
 30
0.0
 10
106.0255167383
 20
63.1808960818
 30
0.0
 10
105.9859496842
 20
62.928893906
 30
0.0
 10
105.9515855458
 20
62.6369368985
 30
0.0
 10
105.9281428249
 20
62.3158132246
 30
0.0
 10
105.9199303877
 20
61.9792454184
 30
0.0
 10
105.9285611439
 20
61.6428881499
 30
0.0
 10
105.9523482674
 20
61.3223663427
 30
0.0
 10
105.9869230919
 20
61.031322035
 30
0.0
 10
106.0265357386
 20
60.7804537461
 30
0.0
 10
106.0607081336
 20
60.60050731
 30
0.0
 10
106.0855607024
 20
60.4821782519
 30
0.0
 10
106.1004921937
 20
60.4139453142
 30
0.0
 10
106.1129779156
 20
60.3602209516
 30
0.0
 10
106.1216727112
 20
60.3210596032
 30
0.0
 10
106.1280920551
 20
60.297414705
 30
0.0
 10
106.129906526
 20
60.286307258
 30
0.0
 10
106.130992668
 20
60.2835930102
 30
0.0
  0
SPLINE
  5
2AC
100
AcDbEntity
  8
0
100
AcDbSpline
 62
7
  6
BYLAYER
 70
0
 71
3
 72
23
 73
19
 74
0
 42
0.0000001
 43
0.0000001
 44
0.0000000001
 40
0.0
 40
0.0
 40
0.0
 40
0.0
 40
0.2000931053
 40
0.390917509
 40
0.5647339572
 40
0.6431244595
 40
0.7148932664
 40
0.779561059
 40
0.8366630543
 40
0.8857633053
 40
0.9264473502
 40
0.9584251857
 40
0.9710712061
 40
0.9814496944
 40
0.9895446498
 40
0.995343252
 40
0.9988326574
 40
1.0
 40
1.0
 40
1.0
 40
1.0
 10
90.3392221413
 20
76.9835847801
 30
0.0
 10
90.3394869755
 20
77.0980827705
 30
0.0
 10
90.3336719076
 20
77.3218259127
 30
0.0
 10
90.3096357491
 20
77.6441879153
 30
0.0
 10
90.2798061038
 20
77.8960212885
 30
0.0
 10
90.2524651718
 20
78.0793899269
 30
0.0
 10
90.2321338403
 20
78.2006328319
 30
0.0
 10
90.2121079552
 20
78.3095587315
 30
0.0
 10
90.1931461198
 20
78.4054808798
 30
0.0
 10
90.1758695552
 20
78.4877409756
 30
0.0
 10
90.1608812568
 20
78.5557829275
 30
0.0
 10
90.1500138534
 20
78.6033807532
 30
0.0
 10
90.14280745
 20
78.6340077185
 30
0.0
 10
90.1387857181
 20
78.6513775248
 30
0.0
 10
90.1353896981
 20
78.6647885978
 30
0.0
 10
90.1334788224
 20
78.6746896297
 30
0.0
 10
90.1313516311
 20
78.6801026588
 30
0.0
 10
90.1314691778
 20
78.6831091234
 30
0.0
 10
90.1310012901
 20
78.6835858644
 30
0.0
  0
SPLINE
  5
2AD
100
AcDbEntity
  8
0
100
AcDbSpline
 62
7
  6
BYLAYER
 70
0
 71
3
 72
23
 73
19
 74
0
 42
0.0000001
 43
0.0000001
 44
0.0000000001
 40
0.0
 40
0.0
 40
0.0
 40
0.0
 40
0.2000931053
 40
0.390917509
 40
0.5647339572
 40
0.6431244595
 40
0.7148932664
 40
0.779561059
 40
0.8366630543
 40
0.8857633053
 40
0.9264473502
 40
0.9584251857
 40
0.9710712061
 40
0.9814496944
 40
0.9895446498
 40
0.995343252
 40
0.9988326574
 40
1.0
 40
1.0
 40
1.0
 40
1.0
 10
90.3392221413
 20
66.9835847801
 30
0.0
 10
90.3394869755
 20
67.0980827705
 30
0.0
 10
90.3336719076
 20
67.3218259127
 30
0.0
 10
90.3096357491
 20
67.6441879153
 30
0.0
 10
90.2798061038
 20
67.8960212885
 30
0.0
 10
90.2524651718
 20
68.0793899269
 30
0.0
 10
90.2321338403
 20
68.2006328319
 30
0.0
 10
90.2121079552
 20
68.3095587315
 30
0.0
 10
90.1931461198
 20
68.4054808798
 30
0.0
 10
90.1758695552
 20
68.4877409756
 30
0.0
 10
90.1608812568
 20
68.5557829275
 30
0.0
 10
90.1500138534
 20
68.6033807532
 30
0.0
 10
90.14280745
 20
68.6340077185
 30
0.0
 10
90.1387857181
 20
68.6513775248
 30
0.0
 10
90.1353896981
 20
68.6647885978
 30
0.0
 10
90.1334788224
 20
68.6746896297
 30
0.0
 10
90.1313516311
 20
68.6801026588
 30
0.0
 10
90.1314691778
 20
68.6831091234
 30
0.0
 10
90.1310012901
 20
68.6835858644
 30
0.0
  0
SPLINE
  5
2AE
100
AcDbEntity
  8
0
100
AcDbSpline
 62
7
  6
BYLAYER
 70
0
 71
3
 72
29
 73
25
 74
0
 42
0.0000001
 43
0.0000001
 44
0.0000000001
 40
0.0
 40
0.0
 40
0.0
 40
0.0
 40
0.002759883
 40
0.0102070783
 40
0.0221749184
 40
0.0385149843
 40
0.0591082843
 40
0.0838373058
 40
0.1449555967
 40
0.2200395567
 40
0.3066901311
 40
0.401753198
 40
0.5012810509
 40
0.6007477528
 40
0.6956362521
 40
0.7820207132
 40
0.8567758311
 40
0.9175173272
 40
0.9420442922
 40
0.9624294465
 40
0.9785427378
 40
0.9902546838
 40
0.9974454483
 40
1.0
 40
1.0
 40
1.0
 40
1.0
 10
106.1309746292
 20
43.6835626274
 30
0.0
 10
106.1298405087
 20
43.6806147832
 30
0.0
 10
106.1278136114
 20
43.6690249552
 30
0.0
 10
106.1213424505
 20
43.6445370041
 30
0.0
 10
106.1124114726
 20
43.6045692946
 30
0.0
 10
106.0998025913
 20
43.5500587537
 30
0.0
 10
106.0847335367
 20
43.481111078
 30
0.0
 10
106.0597537207
 20
43.3618876873
 30
0.0
 10
106.0255167383
 20
43.1808960817
 30
0.0
 10
105.9859496842
 20
42.928893906
 30
0.0
 10
105.9515855458
 20
42.6369368984
 30
0.0
 10
105.9281428249
 20
42.3158132244
 30
0.0
 10
105.9199303877
 20
41.9792454182
 30
0.0
 10
105.9285611439
 20
41.6428881497
 30
0.0
 10
105.9523482675
 20
41.3223663426
 30
0.0
 10
105.9869230918
 20
41.0313220348
 30
0.0
 10
106.0265357391
 20
40.780453746
 30
0.0
 10
106.0607081325
 20
40.6005073096
 30
0.0
 10
106.0855607035
 20
40.4821782532
 30
0.0
 10
106.1004921908
 20
40.4139453141
 30
0.0
 10
106.1129779244
 20
40.3602209545
 30
0.0
 10
106.1216726933
 20
40.3210595917
 30
0.0
 10
106.1280920835
 20
40.2974147121
 30
0.0
 10
106.1299065034
 20
40.2863072452
 30
0.0
 10
106.130992668
 20
40.2835930091
 30
0.0
  0
SPLINE
  5
2AF
100
AcDbEntity
  8
0
100
AcDbSpline
 62
7
  6
BYLAYER
 70
0
 71
3
 72
23
 73
19
 74
0
 42
0.0000001
 43
0.0000001
 44
0.0000000001
 40
0.0
 40
0.0
 40
0.0
 40
0.0
 40
0.2000931053
 40
0.390917509
 40
0.5647339572
 40
0.6431244595
 40
0.7148932664
 40
0.779561059
 40
0.8366630543
 40
0.8857633053
 40
0.9264473502
 40
0.9584251857
 40
0.9710712061
 40
0.9814496944
 40
0.9895446498
 40
0.995343252
 40
0.9988326574
 40
1.0
 40
1.0
 40
1.0
 40
1.0
 10
90.3392221413
 20
56.9835847801
 30
0.0
 10
90.3394869755
 20
57.0980827705
 30
0.0
 10
90.3336719076
 20
57.3218259127
 30
0.0
 10
90.3096357491
 20
57.6441879153
 30
0.0
 10
90.2798061038
 20
57.8960212885
 30
0.0
 10
90.2524651718
 20
58.0793899269
 30
0.0
 10
90.2321338403
 20
58.2006328319
 30
0.0
 10
90.2121079552
 20
58.3095587315
 30
0.0
 10
90.1931461198
 20
58.4054808798
 30
0.0
 10
90.1758695552
 20
58.4877409756
 30
0.0
 10
90.1608812568
 20
58.5557829275
 30
0.0
 10
90.1500138534
 20
58.6033807532
 30
0.0
 10
90.14280745
 20
58.6340077185
 30
0.0
 10
90.1387857181
 20
58.6513775248
 30
0.0
 10
90.1353896981
 20
58.6647885978
 30
0.0
 10
90.1334788224
 20
58.6746896297
 30
0.0
 10
90.1313516311
 20
58.6801026588
 30
0.0
 10
90.1314691778
 20
58.6831091234
 30
0.0
 10
90.1310012901
 20
58.6835858644
 30
0.0
  0
SPLINE
  5
2B0
100
AcDbEntity
  8
0
100
AcDbSpline
 62
7
  6
BYLAYER
 70
0
 71
3
 72
23
 73
19
 74
0
 42
0.0000001
 43
0.0000001
 44
0.0000000001
 40
0.0
 40
0.0
 40
0.0
 40
0.0
 40
0.2000931053
 40
0.390917509
 40
0.5647339572
 40
0.6431244595
 40
0.7148932664
 40
0.779561059
 40
0.8366630543
 40
0.8857633053
 40
0.9264473502
 40
0.9584251857
 40
0.9710712061
 40
0.9814496944
 40
0.9895446498
 40
0.995343252
 40
0.9988326574
 40
1.0
 40
1.0
 40
1.0
 40
1.0
 10
90.3392221413
 20
46.9835847801
 30
0.0
 10
90.3394869755
 20
47.0980827705
 30
0.0
 10
90.3336719076
 20
47.3218259127
 30
0.0
 10
90.3096357491
 20
47.6441879153
 30
0.0
 10
90.2798061038
 20
47.8960212885
 30
0.0
 10
90.2524651718
 20
48.0793899269
 30
0.0
 10
90.2321338403
 20
48.2006328319
 30
0.0
 10
90.2121079552
 20
48.3095587315
 30
0.0
 10
90.1931461198
 20
48.4054808798
 30
0.0
 10
90.1758695552
 20
48.4877409756
 30
0.0
 10
90.1608812568
 20
48.5557829275
 30
0.0
 10
90.1500138534
 20
48.6033807532
 30
0.0
 10
90.14280745
 20
48.6340077185
 30
0.0
 10
90.1387857181
 20
48.6513775248
 30
0.0
 10
90.1353896981
 20
48.6647885978
 30
0.0
 10
90.1334788224
 20
48.6746896297
 30
0.0
 10
90.1313516311
 20
48.6801026588
 30
0.0
 10
90.1314691778
 20
48.6831091234
 30
0.0
 10
90.1310012901
 20
48.6835858644
 30
0.0
  0
SPLINE
  5
2B1
100
AcDbEntity
  8
0
100
AcDbSpline
 62
7
  6
BYLAYER
 70
0
 71
3
 72
21
 73
17
 74
0
 42
0.0000001
 43
0.0000001
 44
0.0000000001
 40
0.0
 40
0.0
 40
0.0
 40
0.0
 40
0.0011690684
 40
0.0046575305
 40
0.0104519671
 40
0.0185389902
 40
0.0415372792
 40
0.0734992831
 40
0.1141550569
 40
0.1632178176
 40
0.2203273395
 40
0.2850252018
 40
0.4352061664
 40
0.6089157703
 40
0.7999355219
 40
1.0
 40
1.0
 40
1.0
 40
1.0
 10
90.1310012859
 20
75.2835864684
 30
0.0
 10
90.1310012859
 20
75.2842554335
 30
0.0
 10
90.1320170253
 20
75.2867985521
 30
0.0
 10
90.1330553815
 20
75.292655672
 30
0.0
 10
90.1355853735
 20
75.3022951595
 30
0.0
 10
90.1403459391
 20
75.3228400995
 30
0.0
 10
90.1486784384
 20
75.3579525608
 30
0.0
 10
90.1608622535
 20
75.4112878109
 30
0.0
 10
90.1758584091
 20
75.4792846587
 30
0.0
 10
90.1931227505
 20
75.561510788
 30
0.0
 10
90.2121104426
 20
75.6574279662
 30
0.0
 10
90.2401923229
 20
75.8105152802
 30
0.0
 10
90.2749661815
 20
76.0301869087
 30
0.0
 10
90.3096914697
 20
76.3228644473
 30
0.0
 10
90.3336055714
 20
76.6452722078
 30
0.0
 10
90.3393985043
 20
76.8691038794
 30
0.0
 10
90.3392221413
 20
76.9835847801
 30
0.0
  0
SPLINE
  5
2B2
100
AcDbEntity
  8
0
100
AcDbSpline
 62
7
  6
BYLAYER
 70
0
 71
3
 72
21
 73
17
 74
0
 42
0.0000001
 43
0.0000001
 44
0.0000000001
 40
0.0
 40
0.0
 40
0.0
 40
0.0
 40
0.0011690684
 40
0.0046575305
 40
0.0104519671
 40
0.0185389902
 40
0.0415372792
 40
0.0734992831
 40
0.1141550569
 40
0.1632178176
 40
0.2203273395
 40
0.2850252018
 40
0.4352061664
 40
0.6089157703
 40
0.7999355219
 40
1.0
 40
1.0
 40
1.0
 40
1.0
 10
90.1310012859
 20
65.2835864684
 30
0.0
 10
90.1310012859
 20
65.2842554335
 30
0.0
 10
90.1320170253
 20
65.2867985521
 30
0.0
 10
90.1330553815
 20
65.292655672
 30
0.0
 10
90.1355853735
 20
65.3022951595
 30
0.0
 10
90.1403459391
 20
65.3228400995
 30
0.0
 10
90.1486784384
 20
65.3579525608
 30
0.0
 10
90.1608622535
 20
65.4112878109
 30
0.0
 10
90.1758584091
 20
65.4792846587
 30
0.0
 10
90.1931227505
 20
65.561510788
 30
0.0
 10
90.2121104426
 20
65.6574279662
 30
0.0
 10
90.2401923229
 20
65.8105152802
 30
0.0
 10
90.2749661815
 20
66.0301869087
 30
0.0
 10
90.3096914697
 20
66.3228644473
 30
0.0
 10
90.3336055714
 20
66.6452722078
 30
0.0
 10
90.3393985043
 20
66.8691038794
 30
0.0
 10
90.3392221413
 20
66.9835847801
 30
0.0
  0
SPLINE
  5
2B3
100
AcDbEntity
  8
0
100
AcDbSpline
 62
7
  6
BYLAYER
 70
0
 71
3
 72
21
 73
17
 74
0
 42
0.0000001
 43
0.0000001
 44
0.0000000001
 40
0.0
 40
0.0
 40
0.0
 40
0.0
 40
0.0011690684
 40
0.0046575305
 40
0.0104519671
 40
0.0185389902
 40
0.0415372792
 40
0.0734992831
 40
0.1141550569
 40
0.1632178176
 40
0.2203273395
 40
0.2850252018
 40
0.4352061664
 40
0.6089157703
 40
0.7999355219
 40
1.0
 40
1.0
 40
1.0
 40
1.0
 10
90.1310012859
 20
55.2835864684
 30
0.0
 10
90.1310012859
 20
55.2842554335
 30
0.0
 10
90.1320170253
 20
55.2867985521
 30
0.0
 10
90.1330553815
 20
55.292655672
 30
0.0
 10
90.1355853735
 20
55.3022951595
 30
0.0
 10
90.1403459391
 20
55.3228400995
 30
0.0
 10
90.1486784384
 20
55.3579525608
 30
0.0
 10
90.1608622535
 20
55.4112878109
 30
0.0
 10
90.1758584091
 20
55.4792846587
 30
0.0
 10
90.1931227505
 20
55.561510788
 30
0.0
 10
90.2121104426
 20
55.6574279662
 30
0.0
 10
90.2401923229
 20
55.8105152802
 30
0.0
 10
90.2749661815
 20
56.0301869087
 30
0.0
 10
90.3096914697
 20
56.3228644473
 30
0.0
 10
90.3336055714
 20
56.6452722078
 30
0.0
 10
90.3393985043
 20
56.8691038794
 30
0.0
 10
90.3392221413
 20
56.9835847801
 30
0.0
  0
SPLINE
  5
2B4
100
AcDbEntity
  8
0
100
AcDbSpline
 62
7
  6
BYLAYER
 70
0
 71
3
 72
21
 73
17
 74
0
 42
0.0000001
 43
0.0000001
 44
0.0000000001
 40
0.0
 40
0.0
 40
0.0
 40
0.0
 40
0.0011690684
 40
0.0046575305
 40
0.0104519671
 40
0.0185389902
 40
0.0415372792
 40
0.0734992831
 40
0.1141550569
 40
0.1632178176
 40
0.2203273395
 40
0.2850252018
 40
0.4352061664
 40
0.6089157703
 40
0.7999355219
 40
1.0
 40
1.0
 40
1.0
 40
1.0
 10
90.1310012859
 20
45.2835864684
 30
0.0
 10
90.1310012859
 20
45.2842554335
 30
0.0
 10
90.1320170253
 20
45.2867985521
 30
0.0
 10
90.1330553815
 20
45.292655672
 30
0.0
 10
90.1355853735
 20
45.3022951595
 30
0.0
 10
90.1403459391
 20
45.3228400995
 30
0.0
 10
90.1486784384
 20
45.3579525608
 30
0.0
 10
90.1608622535
 20
45.4112878109
 30
0.0
 10
90.1758584091
 20
45.4792846587
 30
0.0
 10
90.1931227505
 20
45.561510788
 30
0.0
 10
90.2121104426
 20
45.6574279662
 30
0.0
 10
90.2401923229
 20
45.8105152802
 30
0.0
 10
90.2749661815
 20
46.0301869087
 30
0.0
 10
90.3096914697
 20
46.3228644473
 30
0.0
 10
90.3336055714
 20
46.6452722078
 30
0.0
 10
90.3393985043
 20
46.8691038794
 30
0.0
 10
90.3392221413
 20
46.9835847801
 30
0.0
  0
SPLINE
  5
2B5
100
AcDbEntity
  8
0
100
AcDbSpline
 62
7
  6
BYLAYER
 70
0
 71
3
 72
9
 73
5
 74
0
 42
0.0000001
 43
0.0000001
 44
0.0000000001
 40
0.0
 40
0.0
 40
0.0
 40
0.0
 40
0.5239195412
 40
1.0
 40
1.0
 40
1.0
 40
1.0
 10
87.7657783094
 20
20.9835861613
 30
0.0
 10
87.752729486
 20
20.9191457772
 30
0.0
 10
87.7461796535
 20
20.7911467677
 30
0.0
 10
87.7898871928
 20
20.6682947539
 30
0.0
 10
87.823678415
 20
20.6190241342
 30
0.0
  0
ENDSEC
  0
SECTION
  2
OBJECTS
  0
DICTIONARY
  5
C
100
AcDbDictionary
280
0
281
1
  3
ACAD_GROUP
350
D
  3
ACAD_MLINESTYLE
350
17
  3
ACAD_LAYOUT
350
1A
  3
ACAD_PLOTSETTINGS
350
19
  3
ACAD_PLOTSTYLENAME
350
E
  0
DICTIONARY
  5
D
102
{ACAD_REACTORS
330
C
102
}
100
AcDbDictionary
280
0
281
1
  0
ACDBDICTIONARYWDFLT
  5
E
102
{ACAD_REACTORS
330
C
102
}
100
AcDbDictionary
281
1
  3
Normal
350
F
100
AcDbDictionaryWithDefault
340
F
  0
DICTIONARY
  5
17
102
{ACAD_REACTORS
330
C
102
}
100
AcDbDictionary
280
0
281
1
  3
Standard
350
18
  0
DICTIONARY
  5
19
102
{ACAD_REACTORS
330
C
102
}
100
AcDbDictionary
281
1
  0
DICTIONARY
  5
1A
102
{ACAD_REACTORS
330
C
102
}
100
AcDbDictionary
281
1
  3
Model
350
2B6
  3
Layout1
350
2B7
  0
ACDBPLACEHOLDER
  5
F
102
{ACAD_REACTORS
330
E
102
}
  0
MLINESTYLE
  5
18
102
{ACAD_REACTORS
330
17
102
}
100
AcDbMlineStyle
  2
STANDARD
 70
0
  3

 62
256
 51
90.0
 52
90.0
 71
2
 49
0.5
 62
256
  6
BYLAYER
 49
-0.5
 62
256
  6
BYLAYER
  0
LAYOUT
  5
2B6
102
{ACAD_REACTORS
330
1A
102
}
100
AcDbPlotSettings
  1

  2
none_device
  4

  6

 40
0.0
 41
0.0
 42
0.0
 43
0.0
 44
210.0
 45
297.0
 46
0.0
 47
0.0
 48
0.0
 49
0.0
140
0.0
141
0.0
142
1.0
143
1.0
 70
1024
 72
1
 73
0
 74
0
  7

 75
0
147
1.0
148
0.0
149
0.0
100
AcDbLayout
  1
Model
 70
0
 71
0
 10
0.0
 20
0.0
 11
210.0
 21
297.0
 12
0.0
 22
0.0
 32
0.0
 14
0.0
 24
0.0
 34
0.0
 15
0.0
 25
0.0
 35
0.0
146
0.0
 13
0.0
 23
0.0
 33
0.0
 16
1.0
 26
0.0
 36
0.0
 17
0.0
 27
1.0
 37
0.0
 76
0
330
210
345
0
346
0
  0
LAYOUT
  5
2B7
102
{ACAD_REACTORS
330
1A
102
}
100
AcDbPlotSettings
  1

  2
none_device
  4

  6

 40
0.0
 41
0.0
 42
0.0
 43
0.0
 44
210.0
 45
297.0
 46
0.0
 47
0.0
 48
0.0
 49
0.0
140
0.0
141
0.0
142
1.0
143
1.0
 70
0
 72
1
 73
0
 74
0
  7

 75
0
147
1.0
148
0.0
149
0.0
100
AcDbLayout
  1
Layout1
 70
0
 71
1
 10
0.0
 20
0.0
 11
210.0
 21
297.0
 12
0.0
 22
0.0
 32
0.0
 14
0.0
 24
0.0
 34
0.0
 15
0.0
 25
0.0
 35
0.0
146
0.0
 13
0.0
 23
0.0
 33
0.0
 16
1.0
 26
0.0
 36
0.0
 17
0.0
 27
1.0
 37
0.0
 76
0
330
211
345
0
346
0
  0
ENDSEC
  0
EOF
