999
DXF file: C:\Users\sesa63760\Dev\_Creo\CAD\MCADPD0004419_3D-CAD\drw0001_5.dxf
999
Pro/ENGINEER 2019471 by Parametric Technology Corporation
  0
SECTION
  2
HEADER
  9
$ACADVER
  1
AC1024
  9
$DWGCODEPAGE
  3
ANSI_1252
  9
$EXTMAX
 10
263.0380053255
 20
372.0108932461
 30
0.0
  9
$EXTMIN
 10
0.0
 20
0.0
 30
0.0
  9
$LIMMIN
 10
0.0
 20
0.0
  9
$LIMMAX
 10
263.0380053255
 20
372.0108932461
  9
$VIEWCTR
 10
131.5190026628
 20
186.005446623
  9
$VIEWSIZE
 40
372.0108932461
  9
$CLAYER
  8
0
  9
$LTSCALE
 40
24.2495989672
  9
$CELTYPE
  6
BYLAYER
  9
$DIMSCALE
 40
1.0
  9
$DIMASZ
 40
3.1314048253
  9
$DIMEXO
 40
1.0
  9
$DIMDLI
 40
16.7542683773
  9
$DIMEXE
 40
1.0
  9
$DIMCEN
 40
3.9681161946
  9
$DIMLFAC
 40
1.0
  9
$DIMBLK
  1
_FILLED
  9
$DIMALT
 70
0
  9
$DIMALTF
 40
0.0393700787
  9
$DIMTXT
 40
4.3839667554
  9
$DIMTOL
 70
1
  9
$DIMLIM
 70
0
  9
$DIMTFAC
 40
1.0
  9
$DIMTP
 40
0.01
  9
$DIMTM
 40
0.01
  9
$DIMGAP
 40
0.625
  9
$DIMDSEP
 70
46
  9
$AUNITS
 70
0
  9
$PDMODE
 70
3
  9
$PDSIZE
 40
0.3125
  9
$HANDSEED
  5
331
  9
$TILEMODE
 70
1
  9
$MEASUREMENT
 70
1
  9
$INSUNITS
 70
4
  0
ENDSEC
  0
SECTION
  2
CLASSES
  0
CLASS
  1
ACDBDICTIONARYWDFLT
  2
AcDbDictionaryWithDefault
  3
AutoCAD 2000
 90
0
 91
1
280
0
281
0
  0
CLASS
  1
ACDBPLACEHOLDER
  2
AcDbPlaceHolder
  3
AutoCAD 2000
 90
0
 91
1
280
0
281
0
  0
CLASS
  1
LAYOUT
  2
AcDbLayout
  3
AutoCAD 2000
 90
0
 91
0
280
0
281
0
  0
ENDSEC
  0
SECTION
  2
TABLES
  0
TABLE
  2
VPORT
  5
8
100
AcDbSymbolTable
 70
2
  0
VPORT
  5
1F4
100
AcDbSymbolTableRecord
100
AcDbViewportTableRecord
  2
*ACTIVE
 70
0
 10
0.0
 20
0.0
 11
1.0
 21
1.0
 12
131.5190026628
 22
186.005446623
 13
0.0
 23
0.0
 14
1.0
 24
1.0
 15
0.0
 25
0.0
 16
0.0
 26
0.0
 36
1.0
 17
0.0
 27
0.0
 37
0.0
 40
372.0108932461
 41
0.7070707071
 42
50.0
 43
0.0
 44
0.0
 50
0.0
 51
0.0
 71
0
 72
100
 73
1
 74
1
 75
0
 76
0
 77
0
 78
0
  0
ENDTAB
  0
TABLE
  2
LTYPE
  5
5
100
AcDbSymbolTable
 70
6
  0
LTYPE
  5
14
100
AcDbSymbolTableRecord
100
AcDbLinetypeTableRecord
  2
BYBLOCK
 70
0
  3

 72
65
 73
0
 40
0.0
  0
LTYPE
  5
15
100
AcDbSymbolTableRecord
100
AcDbLinetypeTableRecord
  2
BYLAYER
 70
0
  3

 72
65
 73
0
 40
0.0
  0
LTYPE
  5
16
100
AcDbSymbolTableRecord
100
AcDbLinetypeTableRecord
  2
CONTINUOUS
 70
64
  3
Solid line
 72
65
 73
0
 40
0.0
  0
LTYPE
  5
1F5
100
AcDbSymbolTableRecord
100
AcDbLinetypeTableRecord
  2
CENTER
 70
64
  3
____ _ ____ _ ____ _ ____ _ ____ _ ____ _ ____
 72
65
 73
4
 40
0.6
 49
0.375
 74
0
 49
-0.075
 74
0
 49
0.075
 74
0
 49
-0.075
 74
0
  0
LTYPE
  5
1F6
100
AcDbSymbolTableRecord
100
AcDbLinetypeTableRecord
  2
HIDDEN
 70
64
  3
- - - - - - - - - - - - - - - - - - - -
 72
65
 73
2
 40
0.2
 49
0.1
 74
0
 49
-0.1
 74
0
  0
LTYPE
  5
1F7
100
AcDbSymbolTableRecord
100
AcDbLinetypeTableRecord
  2
PHANTOM
 70
64
  3
_____ _ _ _____ _ _ _____ _ _ _____
 72
65
 73
6
 40
0.8
 49
0.45
 74
0
 49
-0.05
 74
0
 49
0.1
 74
0
 49
-0.05
 74
0
 49
0.1
 74
0
 49
-0.05
 74
0
  0
LTYPE
  5
1F8
100
AcDbSymbolTableRecord
100
AcDbLinetypeTableRecord
  2
DOT
 70
64
  3
. . . . . . . . . . . . . . . . . . . .
 72
65
 73
2
 40
0.2
 49
0.1
 74
0
 49
-0.1
 74
0
  0
LTYPE
  5
1F9
100
AcDbSymbolTableRecord
100
AcDbLinetypeTableRecord
  2
DASHED
 70
64
  3
- - - - - - - - - - - - - - - - - - - -
 72
65
 73
2
 40
0.2
 49
0.1
 74
0
 49
-0.1
 74
0
  0
ENDTAB
  0
TABLE
  2
LAYER
  5
2
100
AcDbSymbolTable
 70
36
  0
LAYER
  5
10
100
AcDbSymbolTableRecord
100
AcDbLayerTableRecord
  2
0
 70
0
 62
7
  6
CONTINUOUS
370
-3
390
F
  0
LAYER
  5
1FA
100
AcDbSymbolTableRecord
100
AcDbLayerTableRecord
  2
DEFAULT_1
 70
0
 62
7
  6
CENTER
370
-3
390
F
  0
LAYER
  5
1FB
100
AcDbSymbolTableRecord
100
AcDbLayerTableRecord
  2
DEFAULT_2
 70
0
 62
7
  6
HIDDEN
370
-3
390
F
  0
LAYER
  5
1FC
100
AcDbSymbolTableRecord
100
AcDbLayerTableRecord
  2
DEFAULT_3
 70
0
 62
7
  6
PHANTOM
370
-3
390
F
  0
LAYER
  5
1FD
100
AcDbSymbolTableRecord
100
AcDbLayerTableRecord
  2
00_COMPONENTS
 70
0
 62
7
  6
CONTINUOUS
370
-3
390
F
  0
LAYER
  5
1FE
100
AcDbSymbolTableRecord
100
AcDbLayerTableRecord
  2
01_1_DEFAULT_DATUMS
 70
0
 62
7
  6
CONTINUOUS
370
-3
390
F
  0
LAYER
  5
1FF
100
AcDbSymbolTableRecord
100
AcDbLayerTableRecord
  2
01_PLANES
 70
0
 62
7
  6
CONTINUOUS
370
-3
390
F
  0
LAYER
  5
200
100
AcDbSymbolTableRecord
100
AcDbLayerTableRecord
  2
02_COORD_SYS
 70
0
 62
7
  6
CONTINUOUS
370
-3
390
F
  0
LAYER
  5
201
100
AcDbSymbolTableRecord
100
AcDbLayerTableRecord
  2
03_AXES
 70
0
 62
7
  6
CONTINUOUS
370
-3
390
F
  0
LAYER
  5
202
100
AcDbSymbolTableRecord
100
AcDbLayerTableRecord
  2
04_POINTS
 70
0
 62
7
  6
CONTINUOUS
370
-3
390
F
  0
LAYER
  5
203
100
AcDbSymbolTableRecord
100
AcDbLayerTableRecord
  2
05_CURVES
 70
0
 62
7
  6
CONTINUOUS
370
-3
390
F
  0
LAYER
  5
204
100
AcDbSymbolTableRecord
100
AcDbLayerTableRecord
  2
06_SURFS
 70
0
 62
7
  6
CONTINUOUS
370
-3
390
F
  0
LAYER
  5
205
100
AcDbSymbolTableRecord
100
AcDbLayerTableRecord
  2
07_COSMETICS
 70
0
 62
7
  6
CONTINUOUS
370
-3
390
F
  0
LAYER
  5
206
100
AcDbSymbolTableRecord
100
AcDbLayerTableRecord
  2
10_NOTES
 70
0
 62
7
  6
CONTINUOUS
370
-3
390
F
  0
LAYER
  5
207
100
AcDbSymbolTableRecord
100
AcDbLayerTableRecord
  2
11_NOTES_PUB
 70
0
 62
7
  6
CONTINUOUS
370
-3
390
F
  0
LAYER
  5
208
100
AcDbSymbolTableRecord
100
AcDbLayerTableRecord
  2
13_REF_GTOL
 70
0
 62
7
  6
CONTINUOUS
370
-3
390
F
  0
LAYER
  5
209
100
AcDbSymbolTableRecord
100
AcDbLayerTableRecord
  2
16_MISC
 70
0
 62
7
  6
CONTINUOUS
370
-3
390
F
  0
LAYER
  5
20A
100
AcDbSymbolTableRecord
100
AcDbLayerTableRecord
  2
17_NO_PRINT
 70
0
 62
7
  6
CONTINUOUS
370
-3
390
F
  0
LAYER
  5
20B
100
AcDbSymbolTableRecord
100
AcDbLayerTableRecord
  2
18_DATUM_CAMS_JOINTS
 70
0
 62
7
  6
CONTINUOUS
370
-3
390
F
  0
LAYER
  5
20C
100
AcDbSymbolTableRecord
100
AcDbLayerTableRecord
  2
19_DATUM_FUNCTIONAL
 70
0
 62
7
  6
CONTINUOUS
370
-3
390
F
  0
LAYER
  5
20D
100
AcDbSymbolTableRecord
100
AcDbLayerTableRecord
  2
20_DATUM_KINEMATIC_SCHEME
 70
0
 62
7
  6
CONTINUOUS
370
-3
390
F
  0
ENDTAB
  0
TABLE
  2
STYLE
  5
3
100
AcDbSymbolTable
 70
1
  0
STYLE
  5
11
100
AcDbSymbolTableRecord
100
AcDbTextStyleTableRecord
  2
STANDARD
 70
0
 40
0.0
 41
1.0
 50
0.0
 71
0
 42
0.2
  3
ARIAL.TTF
  4

  0
STYLE
  5
20E
100
AcDbSymbolTableRecord
100
AcDbTextStyleTableRecord
  2
TEXTSTYLE_1
 70
0
 40
0.0
 41
0.8
 50
0.0
 71
0
 42
0.2
  3
gdt
  4

  0
ENDTAB
  0
TABLE
  2
VIEW
  5
6
100
AcDbSymbolTable
 70
0
  0
ENDTAB
  0
TABLE
  2
UCS
  5
7
100
AcDbSymbolTable
 70
0
  0
ENDTAB
  0
TABLE
  2
APPID
  5
9
100
AcDbSymbolTable
 70
1
  0
APPID
  5
20F
100
AcDbSymbolTableRecord
100
AcDbRegAppTableRecord
  2
ACAD
 70
0
  0
ENDTAB
  0
TABLE
  2
BLOCK_RECORD
  5
1
100
AcDbSymbolTable
 70
0
  0
BLOCK_RECORD
  5
210
100
AcDbSymbolTableRecord
100
AcDbBlockTableRecord
  2
*Model_Space
  0
BLOCK_RECORD
  5
211
100
AcDbSymbolTableRecord
100
AcDbBlockTableRecord
  2
*Paper_Space
  0
BLOCK_RECORD
  5
212
100
AcDbSymbolTableRecord
100
AcDbBlockTableRecord
  2
_FILLED
  0
ENDTAB
  0
TABLE
  2
DIMSTYLE
  5
A
100
AcDbSymbolTable
 70
1
100
AcDbDimStyleTable
 71
0
  0
DIMSTYLE
105
213
100
AcDbSymbolTableRecord
100
AcDbDimStyleTableRecord
  2
STANDARD
 70
0
  3

  4

 40
1.0
 41
3.1314048253
 42
1.0
 43
0.38
 44
1.0
 45
0.0
 46
0.0
 47
0.01
 48
0.01
140
4.3839667554
141
0.09
142
0.0
143
25.4
144
1.0
145
0.0
146
1.0
147
0.625
 71
1
 72
0
 73
0
 74
0
 75
0
 76
0
 77
1
 78
8
 79
2
170
0
171
1
172
0
173
0
174
0
175
0
176
0
177
0
178
0
270
2
179
2
271
2
272
2
273
2
274
2
275
0
280
0
281
0
282
0
283
1
284
8
285
0
286
0
287
3
288
0
340
11
278
46
341
212
342
212
343
212
344
212
  0
ENDTAB
  0
ENDSEC
  0
SECTION
  2
BLOCKS
  0
BLOCK
  5
20
100
AcDbEntity
  8
0
100
AcDbBlockBegin
  2
*Model_Space
 70
0
 10
0.0
 20
0.0
 30
0.0
  3
*Model_Space
  1

  0
ENDBLK
  5
21
100
AcDbEntity
  8
0
100
AcDbBlockEnd
  0
BLOCK
  5
1C
100
AcDbEntity
  8
0
100
AcDbBlockBegin
  2
*Paper_Space
 70
0
 10
0.0
 20
0.0
 30
0.0
  3
*Paper_Space
  1

  0
ENDBLK
  5
1D
100
AcDbEntity
  8
0
100
AcDbBlockEnd
  0
BLOCK
  5
214
100
AcDbEntity
  8
0
100
AcDbBlockBegin
  2
_FILLED
 70
64
 10
0.0
 20
0.0
  3
_FILLED
  1

  0
SOLID
  5
215
100
AcDbEntity
  8
0
  6
BYBLOCK
 62
0
100
AcDbTrace
 10
0.0
 20
0.0
 11
-1.0
 21
0.25
 12
-1.0
 22
-0.25
 13
-1.0
 23
-0.25
  0
ENDBLK
  5
216
100
AcDbEntity
  8
0
  6
BYBLOCK
 62
0
100
AcDbBlockEnd
  0
ENDSEC
  0
SECTION
  2
ENTITIES
  0
LINE
  5
217
100
AcDbEntity
  8
0
100
AcDbLine
 62
7
  6
BYLAYER
 10
46.1617041878
 20
72.0436893536
 11
201.6617041878
 21
72.0436893536
  0
LINE
  5
218
100
AcDbEntity
  8
0
100
AcDbLine
 62
7
  6
BYLAYER
 10
201.6617041878
 20
73.5436893536
 11
123.4117041878
 21
73.5436893536
  0
LINE
  5
219
100
AcDbEntity
  8
0
100
AcDbLine
 62
7
  6
BYLAYER
 10
110.9117041878
 20
73.5436893536
 11
46.1617041878
 21
73.5436893536
  0
LINE
  5
21A
100
AcDbEntity
  8
0
100
AcDbLine
 62
7
  6
BYLAYER
 10
30.6617041878
 20
146.7436893678
 11
30.6617041878
 21
200.0936893536
  0
LINE
  5
21B
100
AcDbEntity
  8
0
100
AcDbLine
 62
7
  6
BYLAYER
 10
31.6617041878
 20
194.1757401611
 11
31.6617041878
 21
200.0936893536
  0
LINE
  5
21C
100
AcDbEntity
  8
0
100
AcDbLine
 62
7
  6
BYLAYER
 10
32.1441197328
 20
145.7777839035
 11
32.1440728112
 21
147.8459091843
  0
LINE
  5
21D
100
AcDbEntity
  8
0
100
AcDbLine
 62
7
  6
BYLAYER
 10
32.6617041878
 20
148.7436893536
 11
32.6617041878
 21
194.4436893536
  0
LINE
  5
21E
100
AcDbEntity
  8
0
100
AcDbLine
 62
7
  6
BYLAYER
 10
41.6617041878
 20
74.4436893536
 11
46.1617041878
 21
74.4436893536
  0
LINE
  5
21F
100
AcDbEntity
  8
0
100
AcDbLine
 62
7
  6
BYLAYER
 10
46.1617041878
 20
74.5436893536
 11
110.9117041878
 21
74.5436893536
  0
LINE
  5
220
100
AcDbEntity
  8
0
100
AcDbLine
 62
7
  6
BYLAYER
 10
123.4117041878
 20
74.5436893536
 11
201.6617041878
 21
74.5436893536
  0
LINE
  5
221
100
AcDbEntity
  8
0
100
AcDbLine
 62
7
  6
BYLAYER
 10
46.1617041878
 20
76.0436893536
 11
201.6617041878
 21
76.0436893536
  0
LINE
  5
222
100
AcDbEntity
  8
0
100
AcDbLine
 62
7
  6
BYLAYER
 10
48.4617041878
 20
76.4436893523
 11
40.6617041878
 21
76.4436893536
  0
LINE
  5
223
100
AcDbEntity
  8
0
100
AcDbLine
 62
7
  6
BYLAYER
 10
201.6617041878
 20
78.0436893536
 11
48.4617041878
 21
78.0436893536
  0
LINE
  5
224
100
AcDbEntity
  8
0
100
AcDbLine
 62
7
  6
BYLAYER
 10
201.6617041878
 20
80.0436893536
 11
48.4617041878
 21
80.0436893536
  0
LINE
  5
225
100
AcDbEntity
  8
0
100
AcDbLine
 62
7
  6
BYLAYER
 10
39.9205232329
 20
147.7436893536
 11
39.9205232309
 21
145.7436895873
  0
LINE
  5
226
100
AcDbEntity
  8
0
100
AcDbLine
 62
7
  6
BYLAYER
 10
40.6617041878
 20
75.4436985834
 11
40.6617041878
 21
147.7436893536
  0
LINE
  5
227
100
AcDbEntity
  8
0
100
AcDbLine
 62
7
  6
BYLAYER
 10
41.6617041878
 20
74.4436893536
 11
41.6617041878
 21
148.7436893536
  0
LINE
  5
228
100
AcDbEntity
  8
0
100
AcDbLine
 62
7
  6
BYLAYER
 10
51.4138068821
 20
213.5436893536
 11
51.315193276
 21
224.8436893536
  0
LINE
  5
229
100
AcDbEntity
  8
0
100
AcDbLine
 62
7
  6
BYLAYER
 10
46.164338766
 20
194.3436893079
 11
46.0638068813
 21
213.5436894933
  0
LINE
  5
22A
100
AcDbEntity
  8
0
100
AcDbLine
 62
7
  6
BYLAYER
 10
51.0636469595
 20
213.5436893536
 11
51.1382271274
 21
199.3000566761
  0
LINE
  5
22B
100
AcDbEntity
  8
0
100
AcDbLine
 62
7
  6
BYLAYER
 10
46.0638068821
 20
287.3436893536
 11
46.0638068821
 21
224.8436893536
  0
LINE
  5
22C
100
AcDbEntity
  8
0
100
AcDbLine
 62
7
  6
BYLAYER
 10
46.1617041878
 20
72.0436893536
 11
46.1617041878
 21
76.0436893536
  0
LINE
  5
22D
100
AcDbEntity
  8
0
100
AcDbLine
 62
7
  6
BYLAYER
 10
46.1617041878
 20
181.4436893536
 11
46.1617041878
 21
194.059654845
  0
LINE
  5
22E
100
AcDbEntity
  8
0
100
AcDbLine
 62
7
  6
BYLAYER
 10
46.9138068821
 20
296.0495831595
 11
46.9138068821
 21
292.3436893536
  0
LINE
  5
22F
100
AcDbEntity
  8
0
100
AcDbLine
 62
7
  6
BYLAYER
 10
48.4617041878
 20
181.4436893536
 11
48.4617041878
 21
76.0436893536
  0
LINE
  5
230
100
AcDbEntity
  8
0
100
AcDbLine
 62
7
  6
BYLAYER
 10
48.9138070453
 20
292.3436893536
 11
48.9138070045
 21
296.049583186
  0
LINE
  5
231
100
AcDbEntity
  8
0
100
AcDbLine
 62
7
  6
BYLAYER
 10
49.4138068821
 20
194.3436893536
 11
49.4138068821
 21
194.0436893536
  0
LINE
  5
232
100
AcDbEntity
  8
0
100
AcDbLine
 62
7
  6
BYLAYER
 10
51.0638068821
 20
224.8436893536
 11
51.0638068821
 21
292.3436893536
  0
LINE
  5
233
100
AcDbEntity
  8
0
100
AcDbLine
 62
7
  6
BYLAYER
 10
52.4138068821
 20
224.8436893536
 11
52.4138068821
 21
291.3436893536
  0
LINE
  5
234
100
AcDbEntity
  8
0
100
AcDbLine
 62
7
  6
BYLAYER
 10
46.0638068828
 20
213.5436894933
 11
46.1229740844
 21
224.8436893536
  0
LINE
  5
235
100
AcDbEntity
  8
0
100
AcDbLine
 62
7
  6
BYLAYER
 10
51.1228141619
 20
224.8436893536
 11
51.0636469595
 21
213.5436893536
  0
LINE
  5
236
100
AcDbEntity
  8
0
100
AcDbLine
 62
7
  6
BYLAYER
 10
51.2647739844
 20
196.4662107807
 11
51.4138068821
 21
213.5436893536
  0
LINE
  5
237
100
AcDbEntity
  8
0
100
AcDbLine
 62
7
  6
BYLAYER
 10
74.1617041878
 20
98.2936893536
 11
70.1117041878
 21
98.2936893536
  0
LINE
  5
238
100
AcDbEntity
  8
0
100
AcDbLine
 62
7
  6
BYLAYER
 10
48.9138068821
 20
296.0495831595
 11
48.7009554764
 21
298.0382244743
  0
LINE
  5
239
100
AcDbEntity
  8
0
100
AcDbLine
 62
7
  6
BYLAYER
 10
57.1457373133
 20
217.3436893536
 11
57.0802858049
 21
224.8436893536
  0
LINE
  5
23A
100
AcDbEntity
  8
0
100
AcDbLine
 62
7
  6
BYLAYER
 10
57.6457399716
 20
217.3433847439
 11
57.5802858049
 21
224.8436893536
  0
LINE
  5
23B
100
AcDbEntity
  8
0
100
AcDbLine
 62
7
  6
BYLAYER
 10
57.6806447845
 20
217.3436893536
 11
57.7138068821
 21
213.5436893536
  0
LINE
  5
23C
100
AcDbEntity
  8
0
100
AcDbLine
 62
7
  6
BYLAYER
 10
56.4138068821
 20
217.3436893536
 11
56.4138068821
 21
219.8436893536
  0
LINE
  5
23D
100
AcDbEntity
  8
0
100
AcDbLine
 62
7
  6
BYLAYER
 10
57.9138068821
 20
213.5436893536
 11
57.9138068821
 21
217.5436893536
  0
LINE
  5
23E
100
AcDbEntity
  8
0
100
AcDbLine
 62
7
  6
BYLAYER
 10
58.4138068821
 20
224.8436893536
 11
58.4138068821
 21
292.3436893536
  0
LINE
  5
23F
100
AcDbEntity
  8
0
100
AcDbLine
 62
7
  6
BYLAYER
 10
57.5462510205
 20
194.3436893536
 11
57.7138068821
 21
213.5436893536
  0
LINE
  5
240
100
AcDbEntity
  8
0
100
AcDbLine
 62
7
  6
BYLAYER
 10
70.1117041878
 20
112.9936893536
 11
74.1617041878
 21
112.9936893536
  0
LINE
  5
241
100
AcDbEntity
  8
0
100
AcDbLine
 62
7
  6
BYLAYER
 10
66.8617041878
 20
101.5436893536
 11
66.8617041878
 21
109.7436893536
  0
LINE
  5
242
100
AcDbEntity
  8
0
100
AcDbLine
 62
7
  6
BYLAYER
 10
83.2813627573
 20
194.3436877897
 11
83.1138068821
 21
213.5436893536
  0
LINE
  5
243
100
AcDbEntity
  8
0
100
AcDbLine
 62
7
  6
BYLAYER
 10
77.4117041878
 20
109.7436893536
 11
77.4117041878
 21
101.5436893536
  0
LINE
  5
244
100
AcDbEntity
  8
0
100
AcDbLine
 62
7
  6
BYLAYER
 10
82.4138068821
 20
292.3436893536
 11
82.4138068821
 21
224.8436893536
  0
LINE
  5
245
100
AcDbEntity
  8
0
100
AcDbLine
 62
7
  6
BYLAYER
 10
82.9138068821
 20
213.5436893536
 11
82.9138068821
 21
217.5436893536
  0
LINE
  5
246
100
AcDbEntity
  8
0
100
AcDbLine
 62
7
  6
BYLAYER
 10
84.4138068821
 20
219.8436893536
 11
84.4138068821
 21
217.3436893536
  0
LINE
  5
247
100
AcDbEntity
  8
0
100
AcDbLine
 62
7
  6
BYLAYER
 10
84.4138068821
 20
194.0436893536
 11
84.4138068821
 21
194.3436893536
  0
LINE
  5
248
100
AcDbEntity
  8
0
100
AcDbLine
 62
7
  6
BYLAYER
 10
83.1469689797
 20
217.3436893536
 11
83.1138068821
 21
213.5436893536
  0
LINE
  5
249
100
AcDbEntity
  8
0
100
AcDbLine
 62
7
  6
BYLAYER
 10
83.1818737926
 20
217.3433847439
 11
83.2473279593
 21
224.8436893536
  0
LINE
  5
24A
100
AcDbEntity
  8
0
100
AcDbLine
 62
7
  6
BYLAYER
 10
83.7473279593
 20
224.8436893536
 11
83.6818764509
 21
217.3436893536
  0
LINE
  5
24B
100
AcDbEntity
  8
0
100
AcDbLine
 62
7
  6
BYLAYER
 10
89.5541612059
 20
197.460676848
 11
89.4138068777
 21
213.5436898583
  0
LINE
  5
24C
100
AcDbEntity
  8
0
100
AcDbLine
 62
7
  6
BYLAYER
 10
90.0541089537
 20
197.2543318149
 11
89.9137878392
 21
213.5436898341
  0
LINE
  5
24D
100
AcDbEntity
  8
0
100
AcDbLine
 62
7
  6
BYLAYER
 10
88.4136621999
 20
224.8436893536
 11
88.4144081631
 21
224.7427915367
  0
LINE
  5
24E
100
AcDbEntity
  8
0
100
AcDbLine
 62
7
  6
BYLAYER
 10
88.4138068821
 20
224.8436893536
 11
88.4138068821
 21
291.3436893536
  0
LINE
  5
24F
100
AcDbEntity
  8
0
100
AcDbLine
 62
7
  6
BYLAYER
 10
89.4138068865
 20
213.5436898582
 11
89.5124204881
 21
224.8436893536
  0
LINE
  5
250
100
AcDbEntity
  8
0
100
AcDbLine
 62
7
  6
BYLAYER
 10
90.0124014496
 20
224.8436893536
 11
89.9137878392
 21
213.543689834
  0
LINE
  5
251
100
AcDbEntity
  8
0
100
AcDbLine
 62
7
  6
BYLAYER
 10
190.6617041878
 20
141.2436893536
 11
213.9599982656
 21
141.2436893536
  0
LINE
  5
252
100
AcDbEntity
  8
0
100
AcDbLine
 62
7
  6
BYLAYER
 10
39.6617042404
 20
144.7436893536
 11
32.6617140639
 21
144.7436893536
  0
LINE
  5
253
100
AcDbEntity
  8
0
100
AcDbLine
 62
7
  6
BYLAYER
 10
40.6617041878
 20
145.7436891682
 11
32.4028305249
 21
145.7436870768
  0
LINE
  5
254
100
AcDbEntity
  8
0
100
AcDbLine
 62
7
  6
BYLAYER
 10
98.9138259252
 20
213.5436887977
 11
98.8152123145
 21
224.8436893536
  0
LINE
  5
255
100
AcDbEntity
  8
0
100
AcDbLine
 62
7
  6
BYLAYER
 10
99.315193276
 20
224.8436893536
 11
99.4138068865
 21
213.5436888447
  0
LINE
  5
256
100
AcDbEntity
  8
0
100
AcDbLine
 62
7
  6
BYLAYER
 10
105.1457373133
 20
217.3436893536
 11
105.0802858049
 21
224.8436893536
  0
LINE
  5
257
100
AcDbEntity
  8
0
100
AcDbLine
 62
7
  6
BYLAYER
 10
100.4138068821
 20
291.3436893536
 11
100.4138068821
 21
224.8436893536
  0
LINE
  5
258
100
AcDbEntity
  8
0
100
AcDbLine
 62
7
  6
BYLAYER
 10
104.4138068821
 20
219.8436893536
 11
104.4138068821
 21
217.3436893536
  0
LINE
  5
259
100
AcDbEntity
  8
0
100
AcDbLine
 62
7
  6
BYLAYER
 10
100.4132056601
 20
224.742791375
 11
100.4139515643
 21
224.8436893536
  0
LINE
  5
25A
100
AcDbEntity
  8
0
100
AcDbLine
 62
7
  6
BYLAYER
 10
98.7734724641
 20
197.2560696993
 11
98.9138259252
 21
213.5436887978
  0
LINE
  5
25B
100
AcDbEntity
  8
0
100
AcDbLine
 62
7
  6
BYLAYER
 10
99.4138068777
 20
213.5436888448
 11
99.2734516471
 21
197.4605724357
  0
LINE
  5
25C
100
AcDbEntity
  8
0
100
AcDbLine
 62
7
  6
BYLAYER
 10
105.5462509969
 20
194.3436866472
 11
105.7138068821
 21
213.5436893536
  0
LINE
  5
25D
100
AcDbEntity
  8
0
100
AcDbLine
 62
7
  6
BYLAYER
 10
32.9205231285
 20
147.7436893535
 11
48.4617041878
 21
147.7436893536
  0
LINE
  5
25E
100
AcDbEntity
  8
0
100
AcDbLine
 62
7
  6
BYLAYER
 10
190.6617041878
 20
148.2436893536
 11
218.0014501499
 21
148.2436893536
  0
LINE
  5
25F
100
AcDbEntity
  8
0
100
AcDbLine
 62
7
  6
BYLAYER
 10
32.6617042228
 20
148.7436893536
 11
48.4617041878
 21
148.7436893536
  0
LINE
  5
260
100
AcDbEntity
  8
0
100
AcDbLine
 62
7
  6
BYLAYER
 10
190.6617041878
 20
150.2436893536
 11
219.1561506883
 21
150.2436893536
  0
LINE
  5
261
100
AcDbEntity
  8
0
100
AcDbLine
 62
7
  6
BYLAYER
 10
48.4617041878
 20
150.280485918
 11
190.6617041878
 21
150.280485918
  0
LINE
  5
262
100
AcDbEntity
  8
0
100
AcDbLine
 62
7
  6
BYLAYER
 10
190.6617041878
 20
153.1089130427
 11
48.4617041878
 21
153.1089130427
  0
LINE
  5
263
100
AcDbEntity
  8
0
100
AcDbLine
 62
7
  6
BYLAYER
 10
48.4617041878
 20
156.7436893538
 11
30.6617041878
 21
156.7436893536
  0
LINE
  5
264
100
AcDbEntity
  8
0
100
AcDbLine
 62
7
  6
BYLAYER
 10
105.6457399716
 20
217.3433847439
 11
105.5802858049
 21
224.8436893536
  0
LINE
  5
265
100
AcDbEntity
  8
0
100
AcDbLine
 62
7
  6
BYLAYER
 10
105.6806447845
 20
217.3436893536
 11
105.7138068821
 21
213.5436893536
  0
LINE
  5
266
100
AcDbEntity
  8
0
100
AcDbLine
 62
7
  6
BYLAYER
 10
105.9138068821
 20
213.5436893536
 11
105.9138068821
 21
217.5436893536
  0
LINE
  5
267
100
AcDbEntity
  8
0
100
AcDbLine
 62
7
  6
BYLAYER
 10
106.4138068821
 20
224.8436893536
 11
106.4138068821
 21
292.3436893536
  0
LINE
  5
268
100
AcDbEntity
  8
0
100
AcDbLine
 62
7
  6
BYLAYER
 10
110.9117041878
 20
73.5436893536
 11
110.9117041878
 21
74.5436893536
  0
LINE
  5
269
100
AcDbEntity
  8
0
100
AcDbLine
 62
7
  6
BYLAYER
 10
113.9117041878
 20
72.0436893536
 11
113.9117041878
 21
76.0436893536
  0
LINE
  5
26A
100
AcDbEntity
  8
0
100
AcDbLine
 62
7
  6
BYLAYER
 10
223.7749528418
 20
158.2436893536
 11
190.6617041878
 21
158.2436893536
  0
LINE
  5
26B
100
AcDbEntity
  8
0
100
AcDbLine
 62
7
  6
BYLAYER
 10
48.4617041878
 20
166.2480003392
 11
190.6617041878
 21
166.2480003392
  0
LINE
  5
26C
100
AcDbEntity
  8
0
100
AcDbLine
 62
7
  6
BYLAYER
 10
120.4117041878
 20
76.0436893536
 11
120.4117041878
 21
72.0436893536
  0
LINE
  5
26D
100
AcDbEntity
  8
0
100
AcDbLine
 62
7
  6
BYLAYER
 10
123.4117041878
 20
73.5436893536
 11
123.4117041878
 21
74.5436893536
  0
LINE
  5
26E
100
AcDbEntity
  8
0
100
AcDbLine
 62
7
  6
BYLAYER
 10
190.6617041878
 20
167.308660511
 11
48.4617041878
 21
167.308660511
  0
LINE
  5
26F
100
AcDbEntity
  8
0
100
AcDbLine
 62
7
  6
BYLAYER
 10
131.1138068821
 20
213.5436893536
 11
131.2813627707
 21
194.3436862574
  0
LINE
  5
270
100
AcDbEntity
  8
0
100
AcDbLine
 62
7
  6
BYLAYER
 10
130.4138068821
 20
292.3436893536
 11
130.4138068821
 21
224.8436893536
  0
LINE
  5
271
100
AcDbEntity
  8
0
100
AcDbLine
 62
7
  6
BYLAYER
 10
130.9138068821
 20
213.5436893536
 11
130.9138068821
 21
217.5436893536
  0
LINE
  5
272
100
AcDbEntity
  8
0
100
AcDbLine
 62
7
  6
BYLAYER
 10
132.4138068821
 20
219.8436893536
 11
132.4138068821
 21
217.3436893536
  0
LINE
  5
273
100
AcDbEntity
  8
0
100
AcDbLine
 62
7
  6
BYLAYER
 10
136.4138068821
 20
224.8436893536
 11
136.4138068821
 21
291.3436893536
  0
LINE
  5
274
100
AcDbEntity
  8
0
100
AcDbLine
 62
7
  6
BYLAYER
 10
131.1138068821
 20
213.5436893536
 11
131.1469689797
 21
217.3436893536
  0
LINE
  5
275
100
AcDbEntity
  8
0
100
AcDbLine
 62
7
  6
BYLAYER
 10
131.1818737926
 20
217.3433847439
 11
131.2473279593
 21
224.8436893536
  0
LINE
  5
276
100
AcDbEntity
  8
0
100
AcDbLine
 62
7
  6
BYLAYER
 10
131.7473279593
 20
224.8436893536
 11
131.6818764509
 21
217.3436893536
  0
LINE
  5
277
100
AcDbEntity
  8
0
100
AcDbLine
 62
7
  6
BYLAYER
 10
48.4617041878
 20
181.4436893536
 11
46.1617041878
 21
181.4436893536
  0
LINE
  5
278
100
AcDbEntity
  8
0
100
AcDbLine
 62
7
  6
BYLAYER
 10
145.3923348884
 20
194.0436893536
 11
145.3854611776
 21
194.3436893536
  0
LINE
  5
279
100
AcDbEntity
  8
0
100
AcDbLine
 62
7
  6
BYLAYER
 10
137.5541612059
 20
197.460676848
 11
137.4138068777
 21
213.5436898583
  0
LINE
  5
27A
100
AcDbEntity
  8
0
100
AcDbLine
 62
7
  6
BYLAYER
 10
138.0541089532
 20
197.2543318649
 11
137.9137878392
 21
213.5436898341
  0
LINE
  5
27B
100
AcDbEntity
  8
0
100
AcDbLine
 62
7
  6
BYLAYER
 10
136.4144089072
 20
224.7427916845
 11
136.4136621999
 21
224.8436893536
  0
LINE
  5
27C
100
AcDbEntity
  8
0
100
AcDbLine
 62
7
  6
BYLAYER
 10
137.4138068865
 20
213.5436898582
 11
137.5124204881
 21
224.8436893536
  0
LINE
  5
27D
100
AcDbEntity
  8
0
100
AcDbLine
 62
7
  6
BYLAYER
 10
138.0124014496
 20
224.8436893536
 11
137.9137878392
 21
213.543689834
  0
LINE
  5
27E
100
AcDbEntity
  8
0
100
AcDbLine
 62
7
  6
BYLAYER
 10
146.7734724641
 20
197.2560696969
 11
146.9138259252
 21
213.5436887978
  0
LINE
  5
27F
100
AcDbEntity
  8
0
100
AcDbLine
 62
7
  6
BYLAYER
 10
139.4421525892
 20
194.3436893536
 11
139.4352788757
 21
194.0436893536
  0
LINE
  5
280
100
AcDbEntity
  8
0
100
AcDbLine
 62
7
  6
BYLAYER
 10
30.6617041878
 20
192.4436893536
 11
46.1617041878
 21
192.4436893536
  0
LINE
  5
281
100
AcDbEntity
  8
0
100
AcDbLine
 62
7
  6
BYLAYER
 10
46.1617041878
 20
192.5436893536
 11
190.6617041878
 21
192.5436893536
  0
LINE
  5
282
100
AcDbEntity
  8
0
100
AcDbLine
 62
7
  6
BYLAYER
 10
190.6617041878
 20
194.0436893536
 11
46.1659095764
 21
194.0436893536
  0
LINE
  5
283
100
AcDbEntity
  8
0
100
AcDbLine
 62
7
  6
BYLAYER
 10
46.164347488
 20
194.3436893536
 11
139.1651200671
 21
194.3436893536
  0
LINE
  5
284
100
AcDbEntity
  8
0
100
AcDbLine
 62
7
  6
BYLAYER
 10
145.6624929617
 20
194.3436893536
 11
190.6630865997
 21
194.3436893536
  0
LINE
  5
285
100
AcDbEntity
  8
0
100
AcDbLine
 62
7
  6
BYLAYER
 10
46.1617041878
 20
194.4436893536
 11
32.6617041878
 21
194.4436893536
  0
LINE
  5
286
100
AcDbEntity
  8
0
100
AcDbLine
 62
7
  6
BYLAYER
 10
153.5505763767
 20
194.8393260858
 11
148.3555621176
 21
194.8393260858
  0
LINE
  5
287
100
AcDbEntity
  8
0
100
AcDbLine
 62
7
  6
BYLAYER
 10
136.4720545462
 20
194.8393260858
 11
131.2770373874
 21
194.8393260858
  0
LINE
  5
288
100
AcDbEntity
  8
0
100
AcDbLine
 62
7
  6
BYLAYER
 10
105.5505763767
 20
194.8393260858
 11
100.3555621174
 21
194.8393260858
  0
LINE
  5
289
100
AcDbEntity
  8
0
100
AcDbLine
 62
7
  6
BYLAYER
 10
88.4720545462
 20
194.8393260858
 11
83.2770373874
 21
194.8393260858
  0
LINE
  5
28A
100
AcDbEntity
  8
0
100
AcDbLine
 62
7
  6
BYLAYER
 10
146.9138259252
 20
213.5436887977
 11
146.8152123145
 21
224.8436893536
  0
LINE
  5
28B
100
AcDbEntity
  8
0
100
AcDbLine
 62
7
  6
BYLAYER
 10
147.315193276
 20
224.8436893536
 11
147.4138068865
 21
213.5436888447
  0
LINE
  5
28C
100
AcDbEntity
  8
0
100
AcDbLine
 62
7
  6
BYLAYER
 10
153.1457373133
 20
217.3436893536
 11
153.0802858049
 21
224.8436893536
  0
LINE
  5
28D
100
AcDbEntity
  8
0
100
AcDbLine
 62
7
  6
BYLAYER
 10
153.5802858049
 20
224.8436893536
 11
153.6457399716
 21
217.3433847439
  0
LINE
  5
28E
100
AcDbEntity
  8
0
100
AcDbLine
 62
7
  6
BYLAYER
 10
153.7138068821
 20
213.5436893536
 11
153.6806447845
 21
217.3436893536
  0
LINE
  5
28F
100
AcDbEntity
  8
0
100
AcDbLine
 62
7
  6
BYLAYER
 10
148.4138068821
 20
224.8436893536
 11
148.4138068821
 21
291.3436893536
  0
LINE
  5
290
100
AcDbEntity
  8
0
100
AcDbLine
 62
7
  6
BYLAYER
 10
152.4138068821
 20
219.8436893536
 11
152.4138068821
 21
217.3436893536
  0
LINE
  5
291
100
AcDbEntity
  8
0
100
AcDbLine
 62
7
  6
BYLAYER
 10
153.9138068821
 20
213.5436893536
 11
153.9138068821
 21
217.5436893536
  0
LINE
  5
292
100
AcDbEntity
  8
0
100
AcDbLine
 62
7
  6
BYLAYER
 10
154.4138068821
 20
224.8436893536
 11
154.4138068821
 21
292.3436893536
  0
LINE
  5
293
100
AcDbEntity
  8
0
100
AcDbLine
 62
7
  6
BYLAYER
 10
148.4139515643
 20
224.8436893536
 11
148.4132042896
 21
224.7427917972
  0
LINE
  5
294
100
AcDbEntity
  8
0
100
AcDbLine
 62
7
  6
BYLAYER
 10
147.4138068777
 20
213.5436888448
 11
147.2734516471
 21
197.4605724357
  0
LINE
  5
295
100
AcDbEntity
  8
0
100
AcDbLine
 62
7
  6
BYLAYER
 10
153.5462509969
 20
194.3436866472
 11
153.7138068821
 21
213.5436893536
  0
LINE
  5
296
100
AcDbEntity
  8
0
100
AcDbLine
 62
7
  6
BYLAYER
 10
156.913812661
 20
297.8436893536
 11
156.8033480275
 21
295.8436893536
  0
LINE
  5
297
100
AcDbEntity
  8
0
100
AcDbLine
 62
7
  6
BYLAYER
 10
226.6617041878
 20
199.2936893536
 11
190.6891933747
 21
199.2936893536
  0
LINE
  5
298
100
AcDbEntity
  8
0
100
AcDbLine
 62
7
  6
BYLAYER
 10
146.7895598845
 20
199.3000564408
 11
138.0380902521
 21
199.3000403498
  0
LINE
  5
299
100
AcDbEntity
  8
0
100
AcDbLine
 62
7
  6
BYLAYER
 10
185.6893866368
 20
199.3000566761
 11
185.5381091813
 21
199.3000566761
  0
LINE
  5
29A
100
AcDbEntity
  8
0
100
AcDbLine
 62
7
  6
BYLAYER
 10
51.2895045828
 20
199.3000566761
 11
51.1382271274
 21
199.3000566761
  0
LINE
  5
29B
100
AcDbEntity
  8
0
100
AcDbLine
 62
7
  6
BYLAYER
 10
98.7895598594
 20
199.3000533496
 11
90.0380902522
 21
199.3000403469
  0
LINE
  5
29C
100
AcDbEntity
  8
0
100
AcDbLine
 62
7
  6
BYLAYER
 10
30.6617041878
 20
200.0936893536
 11
46.1617041878
 21
200.0936893536
  0
LINE
  5
29D
100
AcDbEntity
  8
0
100
AcDbLine
 62
7
  6
BYLAYER
 10
159.0138068821
 20
297.8436893536
 11
159.0138068821
 21
298.9436893536
  0
LINE
  5
29E
100
AcDbEntity
  8
0
100
AcDbLine
 62
7
  6
BYLAYER
 10
239.6617041878
 20
209.7936893536
 11
190.7441717486
 21
209.7936893536
  0
LINE
  5
29F
100
AcDbEntity
  8
0
100
AcDbLine
 62
7
  6
BYLAYER
 10
239.6617041878
 20
212.2936893536
 11
190.7572618376
 21
212.2936893536
  0
LINE
  5
2A0
100
AcDbEntity
  8
0
100
AcDbLine
 62
7
  6
BYLAYER
 10
89.9137878392
 20
213.543689834
 11
98.9138259252
 21
213.5436887977
  0
LINE
  5
2A1
100
AcDbEntity
  8
0
100
AcDbLine
 62
7
  6
BYLAYER
 10
46.0638068814
 20
213.543689494
 11
89.4138068821
 21
213.5436893536
  0
LINE
  5
2A2
100
AcDbEntity
  8
0
100
AcDbLine
 62
7
  6
BYLAYER
 10
99.4138068821
 20
213.5436893536
 11
137.4138068821
 21
213.5436893536
  0
LINE
  5
2A3
100
AcDbEntity
  8
0
100
AcDbLine
 62
7
  6
BYLAYER
 10
137.9137878392
 20
213.543689834
 11
146.9138259252
 21
213.5436887977
  0
LINE
  5
2A4
100
AcDbEntity
  8
0
100
AcDbLine
 62
7
  6
BYLAYER
 10
190.7638068805
 20
213.5436890725
 11
147.4138068821
 21
213.5436893536
  0
LINE
  5
2A5
100
AcDbEntity
  8
0
100
AcDbLine
 62
7
  6
BYLAYER
 10
190.7632832785
 20
213.6436893536
 11
239.6617041878
 21
213.6436893536
  0
LINE
  5
2A6
100
AcDbEntity
  8
0
100
AcDbLine
 62
7
  6
BYLAYER
 10
228.6617041878
 20
215.7436893536
 11
226.7617041878
 21
215.7436893536
  0
LINE
  5
2A7
100
AcDbEntity
  8
0
100
AcDbLine
 62
7
  6
BYLAYER
 10
208.5617041878
 20
215.7436893536
 11
206.6617041878
 21
215.7436893536
  0
LINE
  5
2A8
100
AcDbEntity
  8
0
100
AcDbLine
 62
7
  6
BYLAYER
 10
56.4138068821
 20
217.3436893536
 11
57.6806447845
 21
217.3436893536
  0
LINE
  5
2A9
100
AcDbEntity
  8
0
100
AcDbLine
 62
7
  6
BYLAYER
 10
83.1469689797
 20
217.3436893536
 11
84.4138068821
 21
217.3436893536
  0
LINE
  5
2AA
100
AcDbEntity
  8
0
100
AcDbLine
 62
7
  6
BYLAYER
 10
104.4138068821
 20
217.3436893536
 11
105.6806447845
 21
217.3436893536
  0
LINE
  5
2AB
100
AcDbEntity
  8
0
100
AcDbLine
 62
7
  6
BYLAYER
 10
131.1469689797
 20
217.3436893536
 11
132.4138068821
 21
217.3436893536
  0
LINE
  5
2AC
100
AcDbEntity
  8
0
100
AcDbLine
 62
7
  6
BYLAYER
 10
152.4138068821
 20
217.3436893536
 11
153.6806447845
 21
217.3436893536
  0
LINE
  5
2AD
100
AcDbEntity
  8
0
100
AcDbLine
 62
7
  6
BYLAYER
 10
179.1469689797
 20
217.3436893536
 11
180.4138068821
 21
217.3436893536
  0
LINE
  5
2AE
100
AcDbEntity
  8
0
100
AcDbLine
 62
7
  6
BYLAYER
 10
178.9138068821
 20
217.5436893536
 11
153.9138068821
 21
217.5436893536
  0
LINE
  5
2AF
100
AcDbEntity
  8
0
100
AcDbLine
 62
7
  6
BYLAYER
 10
130.9138068821
 20
217.5436893536
 11
105.9138068821
 21
217.5436893536
  0
LINE
  5
2B0
100
AcDbEntity
  8
0
100
AcDbLine
 62
7
  6
BYLAYER
 10
82.9138068821
 20
217.5436893536
 11
57.9138068821
 21
217.5436893536
  0
LINE
  5
2B1
100
AcDbEntity
  8
0
100
AcDbLine
 62
7
  6
BYLAYER
 10
206.6617041878
 20
218.1436893536
 11
190.7397211183
 21
218.1436893536
  0
LINE
  5
2B2
100
AcDbEntity
  8
0
100
AcDbLine
 62
7
  6
BYLAYER
 10
206.6617041878
 20
218.6436893536
 11
212.6617041878
 21
218.6436893536
  0
LINE
  5
2B3
100
AcDbEntity
  8
0
100
AcDbLine
 62
7
  6
BYLAYER
 10
222.6617041878
 20
218.6436893536
 11
228.6617041878
 21
218.6436893536
  0
LINE
  5
2B4
100
AcDbEntity
  8
0
100
AcDbLine
 62
7
  6
BYLAYER
 10
222.6617041878
 20
220.1436893536
 11
212.6617041878
 21
220.1436893536
  0
LINE
  5
2B5
100
AcDbEntity
  8
0
100
AcDbLine
 62
7
  6
BYLAYER
 10
190.7638068821
 20
224.8436893536
 11
46.0638068821
 21
224.8436893536
  0
LINE
  5
2B6
100
AcDbEntity
  8
0
100
AcDbLine
 62
7
  6
BYLAYER
 10
179.1138068821
 20
213.5436893536
 11
179.2813627437
 21
194.3436893536
  0
LINE
  5
2B7
100
AcDbEntity
  8
0
100
AcDbLine
 62
7
  6
BYLAYER
 10
185.5628397798
 20
196.4662107807
 11
185.4138068821
 21
213.5436893536
  0
LINE
  5
2B8
100
AcDbEntity
  8
0
100
AcDbLine
 62
7
  6
BYLAYER
 10
185.7639668046
 20
213.5436893663
 11
185.7047996022
 21
224.8436893536
  0
LINE
  5
2B9
100
AcDbEntity
  8
0
100
AcDbLine
 62
7
  6
BYLAYER
 10
178.4138068821
 20
292.3436893536
 11
178.4138068821
 21
224.8436893536
  0
LINE
  5
2BA
100
AcDbEntity
  8
0
100
AcDbLine
 62
7
  6
BYLAYER
 10
178.9138068821
 20
213.5436893536
 11
178.9138068821
 21
217.5436893536
  0
LINE
  5
2BB
100
AcDbEntity
  8
0
100
AcDbLine
 62
7
  6
BYLAYER
 10
180.4138068821
 20
219.8436893536
 11
180.4138068821
 21
217.3436893536
  0
LINE
  5
2BC
100
AcDbEntity
  8
0
100
AcDbLine
 62
7
  6
BYLAYER
 10
180.8138068821
 20
298.9436893536
 11
180.8138068821
 21
297.8436893536
  0
LINE
  5
2BD
100
AcDbEntity
  8
0
100
AcDbLine
 62
7
  6
BYLAYER
 10
184.4138068821
 20
224.8436893536
 11
184.4138068821
 21
291.3436893536
  0
LINE
  5
2BE
100
AcDbEntity
  8
0
100
AcDbLine
 62
7
  6
BYLAYER
 10
185.7638068821
 20
292.3436893536
 11
185.7638068821
 21
224.8436893536
  0
LINE
  5
2BF
100
AcDbEntity
  8
0
100
AcDbLine
 62
7
  6
BYLAYER
 10
187.9138068821
 20
297.8436893536
 11
187.9138068821
 21
292.3436893536
  0
LINE
  5
2C0
100
AcDbEntity
  8
0
100
AcDbLine
 62
7
  6
BYLAYER
 10
185.6893866368
 20
199.3000566761
 11
185.7639668046
 21
213.5436893663
  0
LINE
  5
2C1
100
AcDbEntity
  8
0
100
AcDbLine
 62
7
  6
BYLAYER
 10
179.1138068821
 20
213.5436893536
 11
179.1469689797
 21
217.3436893536
  0
LINE
  5
2C2
100
AcDbEntity
  8
0
100
AcDbLine
 62
7
  6
BYLAYER
 10
179.1818737926
 20
217.3433847439
 11
179.2473279593
 21
224.8436893536
  0
LINE
  5
2C3
100
AcDbEntity
  8
0
100
AcDbLine
 62
7
  6
BYLAYER
 10
179.7473279593
 20
224.8436893536
 11
179.6818764509
 21
217.3436893536
  0
LINE
  5
2C4
100
AcDbEntity
  8
0
100
AcDbLine
 62
7
  6
BYLAYER
 10
185.5124204881
 20
224.8436893536
 11
185.4138068821
 21
213.5436893536
  0
LINE
  5
2C5
100
AcDbEntity
  8
0
100
AcDbLine
 62
7
  6
BYLAYER
 10
190.7046396797
 20
224.8436893536
 11
190.7638068821
 21
213.5436893536
  0
LINE
  5
2C6
100
AcDbEntity
  8
0
100
AcDbLine
 62
7
  6
BYLAYER
 10
189.9138068821
 20
292.3436893536
 11
189.9138068821
 21
295.8436893536
  0
LINE
  5
2C7
100
AcDbEntity
  8
0
100
AcDbLine
 62
7
  6
BYLAYER
 10
190.6617041878
 20
141.2436893536
 11
190.6617041878
 21
194.3436893536
  0
LINE
  5
2C8
100
AcDbEntity
  8
0
100
AcDbLine
 62
7
  6
BYLAYER
 10
190.7638068821
 20
224.8436893536
 11
190.7638068821
 21
287.3436893536
  0
LINE
  5
2C9
100
AcDbEntity
  8
0
100
AcDbLine
 62
7
  6
BYLAYER
 10
190.7638068821
 20
213.5436893536
 11
190.6632749985
 21
194.3436893536
  0
LINE
  5
2CA
100
AcDbEntity
  8
0
100
AcDbLine
 62
7
  6
BYLAYER
 10
237.1617041878
 20
209.7936893536
 11
226.6617041878
 21
199.2936893536
  0
LINE
  5
2CB
100
AcDbEntity
  8
0
100
AcDbLine
 62
7
  6
BYLAYER
 10
201.6617041878
 20
141.2436893536
 11
201.6617041878
 21
72.0436893536
  0
LINE
  5
2CC
100
AcDbEntity
  8
0
100
AcDbLine
 62
7
  6
BYLAYER
 10
204.1617041878
 20
141.2436893536
 11
204.1617041878
 21
148.2436893536
  0
LINE
  5
2CD
100
AcDbEntity
  8
0
100
AcDbLine
 62
7
  6
BYLAYER
 10
206.6617041878
 20
218.6436893536
 11
206.6617041878
 21
215.7436893536
  0
LINE
  5
2CE
100
AcDbEntity
  8
0
100
AcDbLine
 62
7
  6
BYLAYER
 10
208.5617041878
 20
215.7436893536
 11
208.5617041878
 21
213.6436893536
  0
LINE
  5
2CF
100
AcDbEntity
  8
0
100
AcDbLine
 62
7
  6
BYLAYER
 10
210.5617041878
 20
218.6436893536
 11
210.5617041878
 21
213.6436893536
  0
LINE
  5
2D0
100
AcDbEntity
  8
0
100
AcDbLine
 62
7
  6
BYLAYER
 10
212.6617041878
 20
220.1436893536
 11
212.6617041878
 21
218.6436893536
  0
LINE
  5
2D1
100
AcDbEntity
  8
0
100
AcDbLine
 62
7
  6
BYLAYER
 10
222.6617041878
 20
220.1436893536
 11
222.6617041878
 21
218.6436893536
  0
LINE
  5
2D2
100
AcDbEntity
  8
0
100
AcDbLine
 62
7
  6
BYLAYER
 10
224.7617041878
 20
218.6436893536
 11
224.7617041878
 21
213.6436893536
  0
LINE
  5
2D3
100
AcDbEntity
  8
0
100
AcDbLine
 62
7
  6
BYLAYER
 10
226.6617041878
 20
199.2936893536
 11
226.6617041878
 21
163.2436893536
  0
LINE
  5
2D4
100
AcDbEntity
  8
0
100
AcDbLine
 62
7
  6
BYLAYER
 10
226.7617041878
 20
215.7436893536
 11
226.7617041878
 21
213.6436893536
  0
LINE
  5
2D5
100
AcDbEntity
  8
0
100
AcDbLine
 62
7
  6
BYLAYER
 10
228.6617041878
 20
215.7436893536
 11
228.6617041878
 21
218.6436893536
  0
LINE
  5
2D6
100
AcDbEntity
  8
0
100
AcDbLine
 62
7
  6
BYLAYER
 10
213.9599982656
 20
141.2436893536
 11
226.6617041878
 21
163.2436893536
  0
LINE
  5
2D7
100
AcDbEntity
  8
0
100
AcDbLine
 62
7
  6
BYLAYER
 10
239.6617041878
 20
209.7936893536
 11
239.6617041878
 21
213.6436893536
  0
LINE
  5
2D8
100
AcDbEntity
  8
0
100
AcDbLine
 62
7
  6
BYLAYER
 10
46.0638068821
 20
287.3436893536
 11
52.4138068821
 21
287.3436893536
  0
LINE
  5
2D9
100
AcDbEntity
  8
0
100
AcDbLine
 62
7
  6
BYLAYER
 10
88.4138068821
 20
287.3436893536
 11
100.4138068821
 21
287.3436893536
  0
LINE
  5
2DA
100
AcDbEntity
  8
0
100
AcDbLine
 62
7
  6
BYLAYER
 10
136.4138068821
 20
287.3436893536
 11
148.4138068821
 21
287.3436893536
  0
LINE
  5
2DB
100
AcDbEntity
  8
0
100
AcDbLine
 62
7
  6
BYLAYER
 10
184.4138068821
 20
287.3436893536
 11
190.7638068821
 21
287.3436893536
  0
LINE
  5
2DC
100
AcDbEntity
  8
0
100
AcDbLine
 62
7
  6
BYLAYER
 10
226.8603902157
 20
213.670132195
 11
226.7617041878
 21
214.0384334653
  0
LINE
  5
2DD
100
AcDbEntity
  8
0
100
AcDbLine
 62
7
  6
BYLAYER
 10
189.9138068821
 20
292.3436893536
 11
46.9138068821
 21
292.3436893536
  0
LINE
  5
2DE
100
AcDbEntity
  8
0
100
AcDbLine
 62
7
  6
BYLAYER
 10
156.8033482374
 20
295.8436903239
 11
189.9138068821
 21
295.8436893536
  0
LINE
  5
2DF
100
AcDbEntity
  8
0
100
AcDbLine
 62
7
  6
BYLAYER
 10
46.9138068821
 20
296.0495831595
 11
48.9138068821
 21
296.0495831595
  0
LINE
  5
2E0
100
AcDbEntity
  8
0
100
AcDbLine
 62
7
  6
BYLAYER
 10
187.9138068821
 20
297.8436893536
 11
156.9138067549
 21
297.8436893536
  0
LINE
  5
2E1
100
AcDbEntity
  8
0
100
AcDbLine
 62
7
  6
BYLAYER
 10
180.8138068821
 20
298.9436893536
 11
159.0138068821
 21
298.9436893536
  0
ARC
  5
2E2
100
AcDbEntity
  8
0
100
AcDbCircle
 62
7
  6
BYLAYER
 10
101.9138068821
 20
-199.1221042379
 40
500.0000000001
100
AcDbArc
 50
83.6846844416
 51
96.109313616
  0
ARC
  5
2E3
100
AcDbEntity
  8
0
100
AcDbCircle
 62
7
  6
BYLAYER
 10
101.9138068821
 20
-199.1221042379
 40
498.0
100
AcDbArc
 50
83.6720043962
 51
96.1093136017
  0
ARC
  5
2E4
100
AcDbEntity
  8
0
100
AcDbCircle
 62
7
  6
BYLAYER
 10
51.0638068821
 20
287.3436893536
 40
5.0
100
AcDbArc
 50
90.0
 51
180.0
  0
ARC
  5
2E5
100
AcDbEntity
  8
0
100
AcDbCircle
 62
7
  6
BYLAYER
 10
99.4138068821
 20
219.8436893536
 40
5.0
100
AcDbArc
 50
0.0
 51
80.1774466573
  0
ARC
  5
2E6
100
AcDbEntity
  8
0
100
AcDbCircle
 62
7
  6
BYLAYER
 10
89.4138068821
 20
219.8436893536
 40
5.0
100
AcDbArc
 50
99.6445629044
 51
180.0
  0
ARC
  5
2E7
100
AcDbEntity
  8
0
100
AcDbCircle
 62
7
  6
BYLAYER
 10
51.4138068821
 20
219.8436893536
 40
5.0
100
AcDbArc
 50
0.0
 51
80.3835683976
  0
ARC
  5
2E8
100
AcDbEntity
  8
0
100
AcDbCircle
 62
7
  6
BYLAYER
 10
74.1617041878
 20
109.7436893536
 40
3.25
100
AcDbArc
 50
0.0
 51
90.0
  0
ARC
  5
2E9
100
AcDbEntity
  8
0
100
AcDbCircle
 62
7
  6
BYLAYER
 10
74.1617041878
 20
101.5436893536
 40
3.25
100
AcDbArc
 50
270.0
 51
360.0
  0
ARC
  5
2EA
100
AcDbEntity
  8
0
100
AcDbCircle
 62
7
  6
BYLAYER
 10
70.1117041878
 20
101.5436893536
 40
3.25
100
AcDbArc
 50
180.0
 51
270.0
  0
ARC
  5
2EB
100
AcDbEntity
  8
0
100
AcDbCircle
 62
7
  6
BYLAYER
 10
70.1117041878
 20
109.7436893536
 40
3.25
100
AcDbArc
 50
90.0
 51
180.0
  0
ARC
  5
2EC
100
AcDbEntity
  8
0
100
AcDbCircle
 62
7
  6
BYLAYER
 10
32.9221531685
 20
150.7560954325
 40
3.01240652
100
AcDbArc
 50
255.0312633328
 51
269.9689967414
  0
ARC
  5
2ED
100
AcDbEntity
  8
0
100
AcDbCircle
 62
7
  6
BYLAYER
 10
48.9138068821
 20
296.0495831595
 40
2.0
100
AcDbArc
 50
96.1093136157
 51
180.0
  0
ARC
  5
2EE
100
AcDbEntity
  8
0
100
AcDbCircle
 62
7
  6
BYLAYER
 10
32.6617041878
 20
192.4436893536
 40
2.0
100
AcDbArc
 50
90.0
 51
180.0
  0
ARC
  5
2EF
100
AcDbEntity
  8
0
100
AcDbCircle
 62
7
  6
BYLAYER
 10
32.6617041878
 20
150.7436893536
 40
2.0
100
AcDbArc
 50
180.0000000001
 51
270.0000030036
  0
ARC
  5
2F0
100
AcDbEntity
  8
0
100
AcDbCircle
 62
7
  6
BYLAYER
 10
32.6617041878
 20
146.7436893536
 40
2.0
100
AcDbArc
 50
180.0
 51
270.0001453073
  0
ARC
  5
2F1
100
AcDbEntity
  8
0
100
AcDbCircle
 62
7
  6
BYLAYER
 10
32.4035408744
 20
146.7476136041
 40
1.0039267787
100
AcDbArc
 50
255.0244732729
 51
269.9594591637
  0
ARC
  5
2F2
100
AcDbEntity
  8
0
100
AcDbCircle
 62
7
  6
BYLAYER
 10
41.6617041878
 20
75.4436893535
 40
1.0
100
AcDbArc
 50
179.9999999974
 51
270.0000000003
  0
ARC
  5
2F3
100
AcDbEntity
  8
0
100
AcDbCircle
 62
7
  6
BYLAYER
 10
39.6617041878
 20
147.7436893536
 40
1.0
100
AcDbArc
 50
0.0
 51
89.9999999998
  0
ARC
  5
2F4
100
AcDbEntity
  8
0
100
AcDbCircle
 62
7
  6
BYLAYER
 10
39.6617041878
 20
143.7436893536
 40
1.0
100
AcDbArc
 50
0.0000000203
 51
90.0
  0
ARC
  5
2F5
100
AcDbEntity
  8
0
100
AcDbCircle
 62
7
  6
BYLAYER
 10
185.7638068821
 20
287.3436893536
 40
5.0
100
AcDbArc
 50
0.0
 51
90.0
  0
ARC
  5
2F6
100
AcDbEntity
  8
0
100
AcDbCircle
 62
7
  6
BYLAYER
 10
147.4138068821
 20
219.8436893536
 40
5.0
100
AcDbArc
 50
0.0
 51
80.1774466573
  0
ARC
  5
2F7
100
AcDbEntity
  8
0
100
AcDbCircle
 62
7
  6
BYLAYER
 10
137.4138068821
 20
219.8436893536
 40
5.0
100
AcDbArc
 50
99.6435718791
 51
180.0
  0
ARC
  5
2F8
100
AcDbEntity
  8
0
100
AcDbCircle
 62
7
  6
BYLAYER
 10
185.4138068821
 20
219.8436893536
 40
5.0
100
AcDbArc
 50
99.6445629044
 51
180.0
  0
ARC
  5
2F9
100
AcDbEntity
  8
0
100
AcDbCircle
 62
7
  6
BYLAYER
 10
187.9138068821
 20
295.8436893536
 40
2.0
100
AcDbArc
 50
0.0
 51
90.0
  0
ARC
  5
2FA
100
AcDbEntity
  8
0
100
AcDbCircle
 62
7
  6
BYLAYER
 10
206.1617041878
 20
148.2436893536
 40
2.0
100
AcDbArc
 50
90.0
 51
180.0
  0
SPLINE
  5
2FB
100
AcDbEntity
  8
0
100
AcDbSpline
 62
7
  6
BYLAYER
 70
0
 71
3
 72
8
 73
4
 74
0
 42
0.0000001
 43
0.0000001
 44
0.0000000001
 40
0.0
 40
0.0
 40
0.0
 40
0.0
 40
1.0
 40
1.0
 40
1.0
 40
1.0
 10
132.398918448
 20
194.3436893536
 30
0.0
 10
132.398918448
 20
194.2435662818
 30
0.0
 10
132.4138068821
 20
194.1438124253
 30
0.0
 10
132.4138068821
 20
194.0436893536
 30
0.0
  0
SPLINE
  5
2FC
100
AcDbEntity
  8
0
100
AcDbSpline
 62
7
  6
BYLAYER
 70
0
 71
3
 72
11
 73
7
 74
0
 42
0.0000001
 43
0.0000001
 44
0.0000000001
 40
0.0
 40
0.0
 40
0.0
 40
0.0
 40
0.2437931004
 40
0.4999999928
 40
0.756206893
 40
1.0
 40
1.0
 40
1.0
 40
1.0
 10
145.6624956432
 20
194.3436893536
 30
0.0
 10
145.1344180227
 20
194.3436893239
 30
0.0
 10
144.0517321429
 20
194.3777370809
 30
0.0
 10
142.4138078872
 20
194.4069042959
 30
0.0
 10
140.775883615
 20
194.3777371506
 30
0.0
 10
139.6931977057
 20
194.3436893536
 30
0.0
 10
139.165120071
 20
194.3436893536
 30
0.0
  0
SPLINE
  5
2FD
100
AcDbEntity
  8
0
100
AcDbSpline
 62
7
  6
BYLAYER
 70
0
 71
3
 72
8
 73
4
 74
0
 42
0.0000001
 43
0.0000001
 44
0.0000000001
 40
0.0
 40
0.0
 40
0.0
 40
0.0
 40
1.0
 40
1.0
 40
1.0
 40
1.0
 10
187.398918448
 20
194.3436893536
 30
0.0
 10
187.398918448
 20
194.2435662818
 30
0.0
 10
187.4138068821
 20
194.1438124253
 30
0.0
 10
187.4138068821
 20
194.0436893536
 30
0.0
  0
SPLINE
  5
2FE
100
AcDbEntity
  8
0
100
AcDbSpline
 62
7
  6
BYLAYER
 70
0
 71
3
 72
8
 73
4
 74
0
 42
0.0000001
 43
0.0000001
 44
0.0000000001
 40
0.0
 40
0.0
 40
0.0
 40
0.0
 40
1.0
 40
1.0
 40
1.0
 40
1.0
 10
152.4138068821
 20
194.0436893536
 30
0.0
 10
152.4138068821
 20
194.143812837
 30
0.0
 10
152.4287202134
 20
194.2435658701
 30
0.0
 10
152.4287202134
 20
194.3436893536
 30
0.0
  0
SPLINE
  5
2FF
100
AcDbEntity
  8
0
100
AcDbSpline
 62
7
  6
BYLAYER
 70
0
 71
3
 72
8
 73
4
 74
0
 42
0.0000001
 43
0.0000001
 44
0.0000000001
 40
0.0
 40
0.0
 40
0.0
 40
0.0
 40
1.0
 40
1.0
 40
1.0
 40
1.0
 10
104.4138068821
 20
194.0436893536
 30
0.0
 10
104.4138068821
 20
194.1438125142
 30
0.0
 10
104.4287006924
 20
194.243566193
 30
0.0
 10
104.4287006924
 20
194.3436893536
 30
0.0
  0
SPLINE
  5
300
100
AcDbEntity
  8
0
100
AcDbSpline
 62
7
  6
BYLAYER
 70
0
 71
3
 72
14
 73
10
 74
0
 42
0.0000001
 43
0.0000001
 44
0.0000000001
 40
0.0
 40
0.0
 40
0.0
 40
0.0
 40
0.0194713822
 40
0.0763336341
 40
0.1685176939
 40
0.2928196081
 40
0.4443335935
 40
0.6178251987
 40
1.0
 40
1.0
 40
1.0
 40
1.0
 10
137.4138068865
 20
213.5436898568
 30
0.0
 10
137.4137785684
 20
213.540444582
 30
0.0
 10
137.4342683336
 20
213.5463690081
 30
0.0
 10
137.4550239613
 20
213.53990942
 30
0.0
 10
137.5046176556
 20
213.5429684219
 30
0.0
 10
137.5642614286
 20
213.5414922675
 30
0.0
 10
137.6397604645
 20
213.5421172961
 30
0.0
 10
137.7573713837
 20
213.5423554007
 30
0.0
 10
137.8500916569
 20
213.5430813739
 30
0.0
 10
137.9137878478
 20
213.543689834
 30
0.0
  0
SPLINE
  5
301
100
AcDbEntity
  8
0
100
AcDbSpline
 62
7
  6
BYLAYER
 70
0
 71
3
 72
12
 73
8
 74
0
 42
0.0000001
 43
0.0000001
 44
0.0000000001
 40
0.0
 40
0.0
 40
0.0
 40
0.0
 40
0.3015047152
 40
0.5358101212
 40
0.6412227226
 40
0.7494230212
 40
1.0
 40
1.0
 40
1.0
 40
1.0
 10
136.4138068821
 20
291.3436893536
 30
0.0
 10
136.4138068821
 20
291.4923644393
 30
0.0
 10
136.4002866668
 20
291.7573585043
 30
0.0
 10
136.2826230087
 20
292.0636516173
 30
0.0
 10
136.1211584624
 20
292.2193538326
 30
0.0
 10
135.9150777074
 20
292.3249535659
 30
0.0
 10
135.7335213982
 20
292.3436893536
 30
0.0
 10
135.6099593048
 20
292.3436893536
 30
0.0
  0
SPLINE
  5
302
100
AcDbEntity
  8
0
100
AcDbSpline
 62
7
  6
BYLAYER
 70
0
 71
3
 72
12
 73
8
 74
0
 42
0.0000001
 43
0.0000001
 44
0.0000000001
 40
0.0
 40
0.0
 40
0.0
 40
0.0
 40
0.301515829
 40
0.535842545
 40
0.6412507055
 40
0.7494423995
 40
1.0
 40
1.0
 40
1.0
 40
1.0
 10
148.4138068821
 20
291.3436893536
 30
0.0
 10
148.4138068821
 20
291.4923701709
 30
0.0
 10
148.4273877496
 20
291.7573877605
 30
0.0
 10
148.5450653104
 20
292.0636550634
 30
0.0
 10
148.7064584323
 20
292.2194453214
 30
0.0
 10
148.9125721189
 20
292.3249691607
 30
0.0
 10
149.0941017127
 20
292.3436893536
 30
0.0
 10
149.2176544594
 20
292.3436893536
 30
0.0
  0
SPLINE
  5
303
100
AcDbEntity
  8
0
100
AcDbSpline
 62
7
  6
BYLAYER
 70
0
 71
3
 72
12
 73
8
 74
0
 42
0.0000001
 43
0.0000001
 44
0.0000000001
 40
0.0
 40
0.0
 40
0.0
 40
0.0
 40
0.2505576165
 40
0.3587493037
 40
0.4641574522
 40
0.6984841672
 40
1.0
 40
1.0
 40
1.0
 40
1.0
 10
183.6099593048
 20
292.3436893536
 30
0.0
 10
183.7335120575
 20
292.3436893536
 30
0.0
 10
183.9150416568
 20
292.3249691819
 30
0.0
 10
184.1211553368
 20
292.2194453292
 30
0.0
 10
184.2825484059
 20
292.0636550358
 30
0.0
 10
184.4002259502
 20
291.7573877567
 30
0.0
 10
184.4138068821
 20
291.4923701706
 30
0.0
 10
184.4138068821
 20
291.3436893536
 30
0.0
  0
SPLINE
  5
304
100
AcDbEntity
  8
0
100
AcDbSpline
 62
7
  6
BYLAYER
 70
0
 71
3
 72
10
 73
6
 74
0
 42
0.0000001
 43
0.0000001
 44
0.0000000001
 40
0.0
 40
0.0
 40
0.0
 40
0.0
 40
0.337475006
 40
0.6341213929
 40
1.0
 40
1.0
 40
1.0
 40
1.0
 10
138.0540943645
 20
197.2561921101
 30
0.0
 10
137.9903666134
 20
197.2557257265
 30
0.0
 10
137.867883372
 20
197.2658023553
 30
0.0
 10
137.6939746851
 20
197.3050902539
 30
0.0
 10
137.5547883967
 20
197.3914991558
 30
0.0
 10
137.5541878583
 20
197.4605897966
 30
0.0
  0
SPLINE
  5
305
100
AcDbEntity
  8
0
100
AcDbSpline
 62
7
  6
BYLAYER
 70
0
 71
3
 72
13
 73
9
 74
0
 42
0.0000001
 43
0.0000001
 44
0.0000000001
 40
0.0
 40
0.0
 40
0.0
 40
0.0
 40
0.0963234988
 40
0.1840735561
 40
0.3769747359
 40
0.5021001494
 40
0.6491190445
 40
1.0
 40
1.0
 40
1.0
 40
1.0
 10
136.8949096382
 20
194.3436893536
 30
0.0
 10
137.0073282443
 20
194.3436875202
 30
0.0
 10
137.2239765335
 20
194.365985273
 30
0.0
 10
137.632793935
 20
194.5591981115
 30
0.0
 10
137.8755706404
 20
195.0095853119
 30
0.0
 10
137.9859141257
 20
195.5373940936
 30
0.0
 10
138.0580733446
 20
196.2635909456
 30
0.0
 10
138.0573270175
 20
196.844833347
 30
0.0
 10
138.0541089532
 20
197.2543318649
 30
0.0
  0
SPLINE
  5
306
100
AcDbEntity
  8
0
100
AcDbSpline
 62
7
  6
BYLAYER
 70
0
 71
3
 72
10
 73
6
 74
0
 42
0.0000001
 43
0.0000001
 44
0.0000000001
 40
0.0
 40
0.0
 40
0.0
 40
0.0
 40
0.2633729229
 40
0.5325014736
 40
1.0
 40
1.0
 40
1.0
 40
1.0
 10
136.4720395413
 20
194.8393259487
 30
0.0
 10
136.4725000923
 20
194.7771163959
 30
0.0
 10
136.4966051337
 20
194.6511089427
 30
0.0
 10
136.6054762061
 20
194.4381876302
 30
0.0
 10
136.7844827017
 20
194.3436955264
 30
0.0
 10
136.8949104211
 20
194.3436998632
 30
0.0
  0
SPLINE
  5
307
100
AcDbEntity
  8
0
100
AcDbSpline
 62
7
  6
BYLAYER
 70
0
 71
3
 72
13
 73
9
 74
0
 42
0.0000001
 43
0.0000001
 44
0.0000000001
 40
0.0
 40
0.0
 40
0.0
 40
0.0
 40
0.3417395223
 40
0.4883421551
 40
0.6139911222
 40
0.7192986046
 40
0.8114741552
 40
1.0
 40
1.0
 40
1.0
 40
1.0
 10
137.5541618272
 20
197.4606056518
 30
0.0
 10
137.5573196519
 20
197.0987444016
 30
0.0
 10
137.5575709845
 20
196.5808205542
 30
0.0
 10
137.4946856338
 20
195.9330323038
 30
0.0
 10
137.4105513757
 20
195.5405872868
 30
0.0
 10
137.2699815488
 20
195.2245267095
 30
0.0
 10
136.9881269114
 20
194.9150748904
 30
0.0
 10
136.6716414565
 20
194.8436575309
 30
0.0
 10
136.4720545462
 20
194.8393260858
 30
0.0
  0
SPLINE
  5
308
100
AcDbEntity
  8
0
100
AcDbSpline
 62
7
  6
BYLAYER
 70
0
 71
3
 72
15
 73
11
 74
0
 42
0.0000001
 43
0.0000001
 44
0.0000000001
 40
0.0
 40
0.0
 40
0.0
 40
0.0
 40
0.0194658893
 40
0.0433302604
 40
0.0762725754
 40
0.1683099375
 40
0.2923574078
 40
0.4437918921
 40
0.6175265682
 40
1.0
 40
1.0
 40
1.0
 40
1.0
 10
137.5381094076
 20
199.3000307818
 30
0.0
 10
137.5381241696
 20
199.2967863518
 30
0.0
 10
137.5503601038
 20
199.3007700972
 30
0.0
 10
137.5605214867
 20
199.2982909569
 30
0.0
 10
137.5867391494
 20
199.299136015
 30
0.0
 10
137.6272252941
 20
199.298021706
 30
0.0
 10
137.6889503362
 20
199.2983543677
 30
0.0
 10
137.7636537294
 20
199.298332151
 30
0.0
 10
137.8816705858
 20
199.2987716846
 30
0.0
 10
137.9743455754
 20
199.2993391732
 30
0.0
 10
138.0380906018
 20
199.3000040858
 30
0.0
  0
SPLINE
  5
309
100
AcDbEntity
  8
0
100
AcDbSpline
 62
7
  6
BYLAYER
 70
0
 71
3
 72
14
 73
10
 74
0
 42
0.0000001
 43
0.0000001
 44
0.0000000001
 40
0.0
 40
0.0
 40
0.0
 40
0.0
 40
0.0194712314
 40
0.0763333801
 40
0.1685173842
 40
0.2928192925
 40
0.4443333149
 40
0.6178249918
 40
1.0
 40
1.0
 40
1.0
 40
1.0
 10
147.4138068776
 20
213.5436888458
 30
0.0
 10
147.4138355069
 20
213.5469340927
 30
0.0
 10
147.3933450731
 20
213.5410097334
 30
0.0
 10
147.3725901928
 20
213.5474692865
 30
0.0
 10
147.3229961356
 20
213.5444102978
 30
0.0
 10
147.2633525315
 20
213.5458864398
 30
0.0
 10
147.1878534184
 20
213.5452614004
 30
0.0
 10
147.0702424715
 20
213.5450232719
 30
0.0
 10
146.9775221412
 20
213.5442972765
 30
0.0
 10
146.9138259157
 20
213.5436887977
 30
0.0
  0
SPLINE
  5
30A
100
AcDbEntity
  8
0
100
AcDbSpline
 62
7
  6
BYLAYER
 70
0
 71
3
 72
15
 73
11
 74
0
 42
0.0000001
 43
0.0000001
 44
0.0000000001
 40
0.0
 40
0.0
 40
0.0
 40
0.0
 40
0.0194935835
 40
0.0433901169
 40
0.0763797579
 40
0.1685754529
 40
0.2928747794
 40
0.4443770297
 40
0.6178530813
 40
1.0
 40
1.0
 40
1.0
 40
1.0
 10
147.2895044844
 20
199.3000453908
 30
0.0
 10
147.2894764718
 20
199.2967964299
 30
0.0
 10
147.2772445182
 20
199.3007826879
 30
0.0
 10
147.2670581136
 20
199.298301275
 30
0.0
 10
147.2408045372
 20
199.299143575
 30
0.0
 10
147.2002399062
 20
199.2980109068
 30
0.0
 10
147.1384362945
 20
199.298321656
 30
0.0
 10
147.0637219487
 20
199.2983098912
 30
0.0
 10
146.9457920196
 20
199.2988666233
 30
0.0
 10
146.8532152762
 20
199.2994970115
 30
0.0
 10
146.789523568
 20
199.3000505608
 30
0.0
  0
SPLINE
  5
30B
100
AcDbEntity
  8
0
100
AcDbSpline
 62
7
  6
BYLAYER
 70
0
 71
3
 72
14
 73
10
 74
0
 42
0.0000001
 43
0.0000001
 44
0.0000000001
 40
0.0
 40
0.0
 40
0.0
 40
0.0
 40
0.3501265778
 40
0.4968748971
 40
0.6216433298
 40
0.7259869778
 40
0.8165865358
 40
0.9046496226
 40
1.0
 40
1.0
 40
1.0
 40
1.0
 10
146.7734724641
 20
197.2560696969
 30
0.0
 10
146.7624229662
 20
196.8464811241
 30
0.0
 10
146.7700939321
 20
196.2637805495
 30
0.0
 10
146.8420995476
 20
195.5393689704
 30
0.0
 10
146.9327543466
 20
195.1073628042
 30
0.0
 10
147.0825506864
 20
194.7602539538
 30
0.0
 10
147.3072278975
 20
194.5062737269
 30
0.0
 10
147.604636944
 20
194.3669851977
 30
0.0
 10
147.8211202834
 20
194.3436893296
 30
0.0
 10
147.9327045962
 20
194.3436893536
 30
0.0
  0
SPLINE
  5
30C
100
AcDbEntity
  8
0
100
AcDbSpline
 62
7
  6
BYLAYER
 70
0
 71
3
 72
10
 73
6
 74
0
 42
0.0000001
 43
0.0000001
 44
0.0000000001
 40
0.0
 40
0.0
 40
0.0
 40
0.0
 40
0.3659498976
 40
0.6728498729
 40
1.0
 40
1.0
 40
1.0
 40
1.0
 10
147.2734447776
 20
197.4605370365
 30
0.0
 10
147.2728478043
 20
197.3914461344
 30
0.0
 10
147.1316771317
 20
197.3034914221
 30
0.0
 10
146.9574559431
 20
197.2667314503
 30
0.0
 10
146.8352392254
 20
197.2556930478
 30
0.0
 10
146.7734729674
 20
197.2561375749
 30
0.0
  0
SPLINE
  5
30D
100
AcDbEntity
  8
0
100
AcDbSpline
 62
7
  6
BYLAYER
 70
0
 71
3
 72
13
 73
9
 74
0
 42
0.0000001
 43
0.0000001
 44
0.0000000001
 40
0.0
 40
0.0
 40
0.0
 40
0.0
 40
0.1885352692
 40
0.2806742184
 40
0.3859675288
 40
0.5116261646
 40
0.6582463146
 40
1.0
 40
1.0
 40
1.0
 40
1.0
 10
148.3555621176
 20
194.8393260858
 30
0.0
 10
148.1559744818
 20
194.844092529
 30
0.0
 10
147.8395821096
 20
194.9150650409
 30
0.0
 10
147.557551958
 20
195.2243898213
 30
0.0
 10
147.4170092318
 20
195.5404162763
 30
0.0
 10
147.332894151
 20
195.9328817672
 30
0.0
 10
147.2700595294
 20
196.5807204588
 30
0.0
 10
147.2702934396
 20
197.098677708
 30
0.0
 10
147.2734514962
 20
197.4605551462
 30
0.0
  0
SPLINE
  5
30E
100
AcDbEntity
  8
0
100
AcDbSpline
 62
7
  6
BYLAYER
 70
0
 71
3
 72
10
 73
6
 74
0
 42
0.0000001
 43
0.0000001
 44
0.0000000001
 40
0.0
 40
0.0
 40
0.0
 40
0.0
 40
0.2633751952
 40
0.5325047005
 40
1.0
 40
1.0
 40
1.0
 40
1.0
 10
148.355588221
 20
194.8393258412
 30
0.0
 10
148.3551266203
 20
194.7771154553
 30
0.0
 10
148.3310186618
 20
194.6511070738
 30
0.0
 10
148.2221422507
 20
194.4381870137
 30
0.0
 10
148.043132394
 20
194.343699944
 30
0.0
 10
147.9327048974
 20
194.3437076411
 30
0.0
  0
SPLINE
  5
30F
100
AcDbEntity
  8
0
100
AcDbSpline
 62
7
  6
BYLAYER
 70
0
 71
3
 72
12
 73
8
 74
0
 42
0.0000001
 43
0.0000001
 44
0.0000000001
 40
0.0
 40
0.0
 40
0.0
 40
0.0
 40
0.3497176019
 40
0.6689100995
 40
0.7942577106
 40
0.8901025593
 40
1.0
 40
1.0
 40
1.0
 40
1.0
 10
32.144091034
 20
147.8459079402
 30
0.0
 10
32.172372821
 20
147.9590501937
 30
0.0
 10
32.2167137901
 20
148.1781838779
 30
0.0
 10
32.2446165022
 20
148.4415662538
 30
0.0
 10
32.2357047419
 20
148.6238183501
 30
0.0
 10
32.2183971034
 20
148.7288908781
 30
0.0
 10
32.1794416267
 20
148.8023477036
 30
0.0
 10
32.1440391986
 20
148.8118228916
 30
0.0
  0
SPLINE
  5
310
100
AcDbEntity
  8
0
100
AcDbSpline
 62
7
  6
BYLAYER
 70
0
 71
3
 72
13
 73
9
 74
0
 42
0.0000001
 43
0.0000001
 44
0.0000000001
 40
0.0
 40
0.0
 40
0.0
 40
0.0
 40
0.2397759952
 40
0.4831475481
 40
0.6071997073
 40
0.7335136885
 40
0.8637004294
 40
1.0
 40
1.0
 40
1.0
 40
1.0
 10
30.6617041878
 20
150.743689412
 30
0.0
 10
30.6617041878
 20
150.4689742456
 30
0.0
 10
30.7127154382
 20
149.9144225205
 30
0.0
 10
30.9053222296
 20
149.2403908299
 30
0.0
 10
31.1530505387
 20
148.7302919676
 30
0.0
 10
31.4006578186
 20
148.3685971359
 30
0.0
 10
31.7293540061
 20
148.0554298463
 30
0.0
 10
31.9994086457
 20
147.9046461229
 30
0.0
 10
32.1440962731
 20
147.8458956492
 30
0.0
  0
SPLINE
  5
311
100
AcDbEntity
  8
0
100
AcDbSpline
 62
7
  6
BYLAYER
 70
0
 71
3
 72
12
 73
8
 74
0
 42
0.0000001
 43
0.0000001
 44
0.0000000001
 40
0.0
 40
0.0
 40
0.0
 40
0.0
 40
0.3441766141
 40
0.6653171146
 40
0.7923491567
 40
0.8894775813
 40
1.0
 40
1.0
 40
1.0
 40
1.0
 10
32.9205235784
 20
147.7436893536
 30
0.0
 10
32.9205234442
 20
147.8665368162
 30
0.0
 10
32.908911566
 20
148.1043028225
 30
0.0
 10
32.86767653
 20
148.3841206457
 30
0.0
 10
32.8088290622
 20
148.5722496047
 30
0.0
 10
32.7620924405
 20
148.6774901029
 30
0.0
 10
32.7011537205
 20
148.7436872138
 30
0.0
 10
32.6617047918
 20
148.7436872009
 30
0.0
  0
SPLINE
  5
312
100
AcDbEntity
  8
0
100
AcDbSpline
 62
7
  6
BYLAYER
 70
0
 71
3
 72
14
 73
10
 74
0
 42
0.0000001
 43
0.0000001
 44
0.0000000001
 40
0.0
 40
0.0
 40
0.0
 40
0.0
 40
0.1180849409
 40
0.2231112119
 40
0.3216440858
 40
0.4240034326
 40
0.5396872982
 40
0.6739174399
 40
1.0
 40
1.0
 40
1.0
 40
1.0
 10
184.3005496118
 20
194.3436893536
 30
0.0
 10
184.4126491802
 20
194.3436893536
 30
0.0
 10
184.6251629264
 20
194.358242408
 30
0.0
 10
184.9214683251
 20
194.4461391374
 30
0.0
 10
185.1646972866
 20
194.6147684502
 30
0.0
 10
185.3439741002
 20
194.8620052813
 30
0.0
 10
185.4613570812
 20
195.1780440119
 30
0.0
 10
185.5598150926
 20
195.7174906671
 30
0.0
 10
185.5655411173
 20
196.1566681574
 30
0.0
 10
185.5628397798
 20
196.4662107807
 30
0.0
  0
SPLINE
  5
313
100
AcDbEntity
  8
0
100
AcDbSpline
 62
7
  6
BYLAYER
 70
0
 71
3
 72
12
 73
8
 74
0
 42
0.0000001
 43
0.0000001
 44
0.0000000001
 40
0.0
 40
0.0
 40
0.0
 40
0.0
 40
0.1166565322
 40
0.2125890888
 40
0.3342615272
 40
0.6418305566
 40
1.0
 40
1.0
 40
1.0
 40
1.0
 10
39.661704184
 20
148.7436893536
 30
0.0
 10
39.703328094
 20
148.7436893547
 30
0.0
 10
39.7643462356
 20
148.6734022372
 30
0.0
 10
39.810320713
 20
148.5684314018
 30
0.0
 10
39.8663130109
 20
148.3870079196
 30
0.0
 10
39.9085981625
 20
148.1094327944
 30
0.0
 10
39.9205232329
 20
147.8714868496
 30
0.0
 10
39.9205232329
 20
147.7436893536
 30
0.0
  0
SPLINE
  5
314
100
AcDbEntity
  8
0
100
AcDbSpline
 62
7
  6
BYLAYER
 70
0
 71
3
 72
22
 73
18
 74
0
 42
0.0000001
 43
0.0000001
 44
0.0000000001
 40
0.0
 40
0.0
 40
0.0
 40
0.0
 40
0.1682749185
 40
0.3340992943
 40
0.49429415
 40
0.6451723434
 40
0.7154481705
 40
0.7811539859
 40
0.8410943111
 40
0.8938415848
 40
0.9378447424
 40
0.9559969024
 40
0.971270447
 40
0.9834459505
 40
0.9923753905
 40
0.9979330684
 40
1.0
 40
1.0
 40
1.0
 40
1.0
 10
185.6893866368
 20
199.3000566761
 30
0.0
 10
185.9671674208
 20
199.0208283024
 30
0.0
 10
186.5189305303
 20
198.4666833386
 30
0.0
 10
187.3358600755
 20
197.6474389793
 30
0.0
 10
188.1246009009
 20
196.8575896215
 30
0.0
 10
188.7559521348
 20
196.2266287911
 30
0.0
 10
189.2313844203
 20
195.7525185645
 30
0.0
 10
189.5563861686
 20
195.4289993926
 30
0.0
 10
189.8526346156
 20
195.1347343819
 30
0.0
 10
190.1132617117
 20
194.876738859
 30
0.0
 10
190.3047569734
 20
194.687808465
 30
0.0
 10
190.4342542211
 20
194.5611698842
 30
0.0
 10
190.5105725557
 20
194.4862214033
 30
0.0
 10
190.5721155477
 20
194.428255311
 30
0.0
 10
190.6165317988
 20
194.3823469527
 30
0.0
 10
190.6463113027
 20
194.3612179891
 30
0.0
 10
190.6582487148
 20
194.3436893536
 30
0.0
 10
190.6630865997
 20
194.3436893536
 30
0.0
  0
SPLINE
  5
315
100
AcDbEntity
  8
0
100
AcDbSpline
 62
7
  6
BYLAYER
 70
0
 71
3
 72
12
 73
8
 74
0
 42
0.0000001
 43
0.0000001
 44
0.0000000001
 40
0.0
 40
0.0
 40
0.0
 40
0.0
 40
0.3782834991
 40
0.686484929
 40
0.8024158266
 40
0.8913228086
 40
1.0
 40
1.0
 40
1.0
 40
1.0
 10
39.9205231066
 20
145.743688332
 30
0.0
 10
39.9194810204
 20
145.6086622507
 30
0.0
 10
39.9047733483
 20
145.3635562585
 30
0.0
 10
39.8624021991
 20
145.0799968593
 30
0.0
 10
39.8041195103
 20
144.9040978611
 30
0.0
 10
39.7594996831
 20
144.8055478785
 30
0.0
 10
39.7004970285
 20
144.7436893536
 30
0.0
 10
39.6617041858
 20
144.7436893536
 30
0.0
  0
SPLINE
  5
316
100
AcDbEntity
  8
0
100
AcDbSpline
 62
7
  6
BYLAYER
 70
0
 71
3
 72
9
 73
5
 74
0
 42
0.0000001
 43
0.0000001
 44
0.0000000001
 40
0.0
 40
0.0
 40
0.0
 40
0.0
 40
0.5363876497
 40
1.0
 40
1.0
 40
1.0
 40
1.0
 10
32.4028668061
 20
145.743688332
 30
0.0
 10
32.419640524
 20
145.6193676163
 30
0.0
 10
32.4082508552
 20
145.3840838977
 30
0.0
 10
32.4482250876
 20
145.1518678831
 30
0.0
 10
32.4758357868
 20
145.0470153725
 30
0.0
  0
SPLINE
  5
317
100
AcDbEntity
  8
0
100
AcDbSpline
 62
7
  6
BYLAYER
 70
0
 71
3
 72
10
 73
6
 74
0
 42
0.0000001
 43
0.0000001
 44
0.0000000001
 40
0.0
 40
0.0
 40
0.0
 40
0.0
 40
0.3653238265
 40
0.6526685541
 40
1.0
 40
1.0
 40
1.0
 40
1.0
 10
32.4758357868
 20
145.0470153725
 30
0.0
 10
32.4872639401
 20
145.0036165957
 30
0.0
 10
32.5113182923
 20
144.9255640702
 30
0.0
 10
32.5568651701
 20
144.8170411662
 30
0.0
 10
32.6190459334
 20
144.7436905261
 30
0.0
 10
32.6617138986
 20
144.7436893536
 30
0.0
  0
SPLINE
  5
318
100
AcDbEntity
  8
0
100
AcDbSpline
 62
7
  6
BYLAYER
 70
0
 71
3
 72
12
 73
8
 74
0
 42
0.0000001
 43
0.0000001
 44
0.0000000001
 40
0.0
 40
0.0
 40
0.0
 40
0.0
 40
0.1098759206
 40
0.2057229084
 40
0.3310736752
 40
0.6502707943
 40
1.0
 40
1.0
 40
1.0
 40
1.0
 10
32.1441109895
 20
144.8119340675
 30
0.0
 10
32.108726677
 20
144.8214289716
 30
0.0
 10
32.0698463847
 20
144.8949039858
 30
0.0
 10
32.052578131
 20
144.99995642
 30
0.0
 10
32.0437206739
 20
145.1821905735
 30
0.0
 10
32.0716556139
 20
145.4455339491
 30
0.0
 10
32.1160047748
 20
145.6646394159
 30
0.0
 10
32.1442856549
 20
145.777768765
 30
0.0
  0
SPLINE
  5
319
100
AcDbEntity
  8
0
100
AcDbSpline
 62
7
  6
BYLAYER
 70
0
 71
3
 72
11
 73
7
 74
0
 42
0.0000001
 43
0.0000001
 44
0.0000000001
 40
0.0
 40
0.0
 40
0.0
 40
0.0
 40
0.3358429486
 40
0.6136183187
 40
0.8285359381
 40
1.0
 40
1.0
 40
1.0
 40
1.0
 10
32.1440962731
 20
145.7777757197
 30
0.0
 10
31.9339926041
 20
145.8054905774
 30
0.0
 10
31.5529509743
 20
145.8898011878
 30
0.0
 10
31.073688892
 20
146.1091335429
 30
0.0
 10
30.7501308339
 20
146.3908900394
 30
0.0
 10
30.6617041878
 20
146.6354921388
 30
0.0
 10
30.6617041878
 20
146.7436894459
 30
0.0
  0
SPLINE
  5
31A
100
AcDbEntity
  8
0
100
AcDbSpline
 62
7
  6
BYLAYER
 70
0
 71
3
 72
22
 73
18
 74
0
 42
0.0000001
 43
0.0000001
 44
0.0000000001
 40
0.0
 40
0.0
 40
0.0
 40
0.0
 40
0.1682738714
 40
0.3340972231
 40
0.4942911183
 40
0.6451683077
 40
0.7154437121
 40
0.7811492354
 40
0.8410892047
 40
0.8938356406
 40
0.9378377451
 40
0.955989877
 40
0.9712640959
 40
0.9834411483
 40
0.9923725812
 40
0.9979320784
 40
1.0
 40
1.0
 40
1.0
 40
1.0
 10
51.1382271274
 20
199.3000566761
 30
0.0
 10
50.8604461188
 20
199.0208280766
 30
0.0
 10
50.3087738345
 20
198.4665918346
 30
0.0
 10
49.4919555439
 20
197.647234985
 30
0.0
 10
48.7031208896
 20
196.8574780581
 30
0.0
 10
48.0717013601
 20
196.2265846392
 30
0.0
 10
47.5962437788
 20
195.7524988006
 30
0.0
 10
47.2712359846
 20
195.4289846901
 30
0.0
 10
46.9749969974
 20
195.1347109473
 30
0.0
 10
46.7143983024
 20
194.8766905527
 30
0.0
 10
46.5229429445
 20
194.6877234952
 30
0.0
 10
46.3934569471
 20
194.5610727628
 30
0.0
 10
46.3171275215
 20
194.4861275748
 30
0.0
 10
46.2555511226
 20
194.4281799528
 30
0.0
 10
46.2110857553
 20
194.3823061484
 30
0.0
 10
46.1812725535
 20
194.3611935732
 30
0.0
 10
46.1693069337
 20
194.3436893462
 30
0.0
 10
46.1644666976
 20
194.3436893536
 30
0.0
  0
SPLINE
  5
31B
100
AcDbEntity
  8
0
100
AcDbSpline
 62
7
  6
BYLAYER
 70
0
 71
3
 72
14
 73
10
 74
0
 42
0.0000001
 43
0.0000001
 44
0.0000000001
 40
0.0
 40
0.0
 40
0.0
 40
0.0
 40
0.3261247033
 40
0.4603614786
 40
0.5760347979
 40
0.6783793327
 40
0.7769004926
 40
0.8819175565
 40
1.0
 40
1.0
 40
1.0
 40
1.0
 10
51.2647739844
 20
196.4662107807
 30
0.0
 10
51.2620722905
 20
196.156627328
 30
0.0
 10
51.2677824073
 20
195.7173994359
 30
0.0
 10
51.366297838
 20
195.1779221364
 30
0.0
 10
51.4836953216
 20
194.8619116617
 30
0.0
 10
51.6629476433
 20
194.6146940142
 30
0.0
 10
51.9061863445
 20
194.4461386136
 30
0.0
 10
52.202460378
 20
194.3582320686
 30
0.0
 10
52.4149666935
 20
194.3436893514
 30
0.0
 10
52.5270641894
 20
194.3436893536
 30
0.0
  0
SPLINE
  5
31C
100
AcDbEntity
  8
0
100
AcDbSpline
 62
7
  6
BYLAYER
 70
0
 71
3
 72
12
 73
8
 74
0
 42
0.0000001
 43
0.0000001
 44
0.0000000001
 40
0.0
 40
0.0
 40
0.0
 40
0.0
 40
0.2505576165
 40
0.3587493037
 40
0.4641574522
 40
0.6984841672
 40
1.0
 40
1.0
 40
1.0
 40
1.0
 10
87.6099593048
 20
292.3436893536
 30
0.0
 10
87.7335120575
 20
292.3436893536
 30
0.0
 10
87.9150416568
 20
292.3249691819
 30
0.0
 10
88.1211553368
 20
292.2194453292
 30
0.0
 10
88.2825484059
 20
292.0636550358
 30
0.0
 10
88.4002259502
 20
291.7573877567
 30
0.0
 10
88.4138068821
 20
291.4923701706
 30
0.0
 10
88.4138068821
 20
291.3436893536
 30
0.0
  0
SPLINE
  5
31D
100
AcDbEntity
  8
0
100
AcDbSpline
 62
7
  6
BYLAYER
 70
0
 71
3
 72
12
 73
8
 74
0
 42
0.0000001
 43
0.0000001
 44
0.0000000001
 40
0.0
 40
0.0
 40
0.0
 40
0.0
 40
0.301515829
 40
0.535842545
 40
0.6412507055
 40
0.7494423995
 40
1.0
 40
1.0
 40
1.0
 40
1.0
 10
100.4138068821
 20
291.3436893536
 30
0.0
 10
100.4138068821
 20
291.4923701709
 30
0.0
 10
100.4273877496
 20
291.7573877605
 30
0.0
 10
100.5450653104
 20
292.0636550634
 30
0.0
 10
100.7064584323
 20
292.2194453214
 30
0.0
 10
100.9125721189
 20
292.3249691607
 30
0.0
 10
101.0941017127
 20
292.3436893536
 30
0.0
 10
101.2176544594
 20
292.3436893536
 30
0.0
  0
SPLINE
  5
31E
100
AcDbEntity
  8
0
100
AcDbSpline
 62
7
  6
BYLAYER
 70
0
 71
3
 72
12
 73
8
 74
0
 42
0.0000001
 43
0.0000001
 44
0.0000000001
 40
0.0
 40
0.0
 40
0.0
 40
0.0
 40
0.301515829
 40
0.535842545
 40
0.6412507055
 40
0.7494423995
 40
1.0
 40
1.0
 40
1.0
 40
1.0
 10
52.4138068821
 20
291.3436893536
 30
0.0
 10
52.4138068821
 20
291.4923701709
 30
0.0
 10
52.4273877496
 20
291.7573877605
 30
0.0
 10
52.5450653104
 20
292.0636550634
 30
0.0
 10
52.7064584323
 20
292.2194453214
 30
0.0
 10
52.9125721189
 20
292.3249691607
 30
0.0
 10
53.0941017127
 20
292.3436893536
 30
0.0
 10
53.2176544594
 20
292.3436893536
 30
0.0
  0
SPLINE
  5
31F
100
AcDbEntity
  8
0
100
AcDbSpline
 62
7
  6
BYLAYER
 70
0
 71
3
 72
14
 73
10
 74
0
 42
0.0000001
 43
0.0000001
 44
0.0000000001
 40
0.0
 40
0.0
 40
0.0
 40
0.0
 40
0.0194713822
 40
0.0763336341
 40
0.1685176939
 40
0.2928196081
 40
0.4443335935
 40
0.6178251987
 40
1.0
 40
1.0
 40
1.0
 40
1.0
 10
89.4138068865
 20
213.5436898568
 30
0.0
 10
89.4137785684
 20
213.540444582
 30
0.0
 10
89.4342683336
 20
213.5463690081
 30
0.0
 10
89.4550239613
 20
213.53990942
 30
0.0
 10
89.5046176556
 20
213.5429684219
 30
0.0
 10
89.5642614286
 20
213.5414922675
 30
0.0
 10
89.6397604645
 20
213.5421172961
 30
0.0
 10
89.7573713837
 20
213.5423554007
 30
0.0
 10
89.8500916569
 20
213.5430813739
 30
0.0
 10
89.9137878478
 20
213.543689834
 30
0.0
  0
SPLINE
  5
320
100
AcDbEntity
  8
0
100
AcDbSpline
 62
7
  6
BYLAYER
 70
0
 71
3
 72
15
 73
11
 74
0
 42
0.0000001
 43
0.0000001
 44
0.0000000001
 40
0.0
 40
0.0
 40
0.0
 40
0.0
 40
0.0194658893
 40
0.0433302606
 40
0.0762725756
 40
0.1683099381
 40
0.2923574089
 40
0.4437918933
 40
0.6175265688
 40
1.0
 40
1.0
 40
1.0
 40
1.0
 10
89.5381094076
 20
199.3000307818
 30
0.0
 10
89.5381241696
 20
199.2967863518
 30
0.0
 10
89.5503601038
 20
199.3007700972
 30
0.0
 10
89.5605214868
 20
199.2982909568
 30
0.0
 10
89.5867391495
 20
199.2991360149
 30
0.0
 10
89.6272252944
 20
199.2980217061
 30
0.0
 10
89.6889503366
 20
199.2983543682
 30
0.0
 10
89.7636537299
 20
199.2983321513
 30
0.0
 10
89.8816705861
 20
199.2987716832
 30
0.0
 10
89.9743455755
 20
199.2993391702
 30
0.0
 10
90.0380906018
 20
199.3000040827
 30
0.0
  0
SPLINE
  5
321
100
AcDbEntity
  8
0
100
AcDbSpline
 62
7
  6
BYLAYER
 70
0
 71
3
 72
14
 73
10
 74
0
 42
0.0000001
 43
0.0000001
 44
0.0000000001
 40
0.0
 40
0.0
 40
0.0
 40
0.0
 40
0.0194712314
 40
0.0763333801
 40
0.1685173843
 40
0.2928192926
 40
0.444333315
 40
0.6178249918
 40
1.0
 40
1.0
 40
1.0
 40
1.0
 10
99.4138068776
 20
213.5436888458
 30
0.0
 10
99.4138355069
 20
213.5469340927
 30
0.0
 10
99.3933450732
 20
213.5410097334
 30
0.0
 10
99.3725901927
 20
213.5474692865
 30
0.0
 10
99.3229961356
 20
213.5444102978
 30
0.0
 10
99.2633525315
 20
213.5458864398
 30
0.0
 10
99.1878534184
 20
213.5452614004
 30
0.0
 10
99.0702424715
 20
213.5450232719
 30
0.0
 10
98.9775221412
 20
213.5442972765
 30
0.0
 10
98.9138259157
 20
213.5436887977
 30
0.0
  0
SPLINE
  5
322
100
AcDbEntity
  8
0
100
AcDbSpline
 62
7
  6
BYLAYER
 70
0
 71
3
 72
15
 73
11
 74
0
 42
0.0000001
 43
0.0000001
 44
0.0000000001
 40
0.0
 40
0.0
 40
0.0
 40
0.0
 40
0.382146032
 40
0.5556214456
 40
0.7071233837
 40
0.8314226176
 40
0.9236183941
 40
0.9566082971
 40
0.9805051966
 40
1.0
 40
1.0
 40
1.0
 40
1.0
 10
98.789523621
 20
199.3000566344
 30
0.0
 10
98.8532152417
 20
199.2995008484
 30
0.0
 10
98.9457918368
 20
199.2988680914
 30
0.0
 10
99.0637215885
 20
199.2983094355
 30
0.0
 10
99.1384358781
 20
199.2983201692
 30
0.0
 10
99.2002394465
 20
199.2980102817
 30
0.0
 10
99.2408043091
 20
199.2991433278
 30
0.0
 10
99.2670578154
 20
199.2983052175
 30
0.0
 10
99.2772447731
 20
199.3007858412
 30
0.0
 10
99.2894765656
 20
199.2968074702
 30
0.0
 10
99.2895045825
 20
199.3000566384
 30
0.0
  0
SPLINE
  5
323
100
AcDbEntity
  8
0
100
AcDbSpline
 62
7
  6
BYLAYER
 70
0
 71
3
 72
13
 73
9
 74
0
 42
0.0000001
 43
0.0000001
 44
0.0000000001
 40
0.0
 40
0.0
 40
0.0
 40
0.0
 40
0.1885352692
 40
0.2806742184
 40
0.3859675288
 40
0.5116261646
 40
0.6582463146
 40
1.0
 40
1.0
 40
1.0
 40
1.0
 10
100.3555621174
 20
194.8393260858
 30
0.0
 10
100.1559744816
 20
194.8440925291
 30
0.0
 10
99.8395821094
 20
194.915065041
 30
0.0
 10
99.5575519579
 20
195.2243898214
 30
0.0
 10
99.4170092318
 20
195.5404162764
 30
0.0
 10
99.332894151
 20
195.9328817673
 30
0.0
 10
99.2700595294
 20
196.5807204588
 30
0.0
 10
99.2702934396
 20
197.0986777081
 30
0.0
 10
99.2734514962
 20
197.4605551462
 30
0.0
  0
SPLINE
  5
324
100
AcDbEntity
  8
0
100
AcDbSpline
 62
7
  6
BYLAYER
 70
0
 71
3
 72
10
 73
6
 74
0
 42
0.0000001
 43
0.0000001
 44
0.0000000001
 40
0.0
 40
0.0
 40
0.0
 40
0.0
 40
0.3659498977
 40
0.6728498729
 40
1.0
 40
1.0
 40
1.0
 40
1.0
 10
99.2734447776
 20
197.4605370365
 30
0.0
 10
99.2728478043
 20
197.3914461343
 30
0.0
 10
99.1316771317
 20
197.3034914221
 30
0.0
 10
98.957455943
 20
197.2667314503
 30
0.0
 10
98.8352392253
 20
197.2556930478
 30
0.0
 10
98.7734729674
 20
197.2561375749
 30
0.0
  0
SPLINE
  5
325
100
AcDbEntity
  8
0
100
AcDbSpline
 62
7
  6
BYLAYER
 70
0
 71
3
 72
14
 73
10
 74
0
 42
0.0000001
 43
0.0000001
 44
0.0000000001
 40
0.0
 40
0.0
 40
0.0
 40
0.0
 40
0.3501265783
 40
0.4968748976
 40
0.6216433298
 40
0.7259869774
 40
0.8165865352
 40
0.9046496223
 40
1.0
 40
1.0
 40
1.0
 40
1.0
 10
98.7734724641
 20
197.2560696993
 30
0.0
 10
98.7624229662
 20
196.846481123
 30
0.0
 10
98.7700939321
 20
196.2637805436
 30
0.0
 10
98.8420995491
 20
195.5393689593
 30
0.0
 10
98.9327543502
 20
195.1073627914
 30
0.0
 10
99.0825506938
 20
194.7602539407
 30
0.0
 10
99.3072279112
 20
194.5062737162
 30
0.0
 10
99.6046369633
 20
194.3669851924
 30
0.0
 10
99.8211203053
 20
194.3436893277
 30
0.0
 10
99.9327046192
 20
194.3436893536
 30
0.0
  0
SPLINE
  5
326
100
AcDbEntity
  8
0
100
AcDbSpline
 62
7
  6
BYLAYER
 70
0
 71
3
 72
10
 73
6
 74
0
 42
0.0000001
 43
0.0000001
 44
0.0000000001
 40
0.0
 40
0.0
 40
0.0
 40
0.0
 40
0.4674952987
 40
0.7366248041
 40
1.0
 40
1.0
 40
1.0
 40
1.0
 10
99.9327049282
 20
194.3437076411
 30
0.0
 10
100.0431324242
 20
194.3436999439
 30
0.0
 10
100.22214228
 20
194.438187014
 30
0.0
 10
100.3310186894
 20
194.651107074
 30
0.0
 10
100.3551266473
 20
194.7771154554
 30
0.0
 10
100.3555882476
 20
194.8393258412
 30
0.0
  0
SPLINE
  5
327
100
AcDbEntity
  8
0
100
AcDbSpline
 62
7
  6
BYLAYER
 70
0
 71
3
 72
13
 73
9
 74
0
 42
0.0000001
 43
0.0000001
 44
0.0000000001
 40
0.0
 40
0.0
 40
0.0
 40
0.0
 40
0.3417395223
 40
0.4883421551
 40
0.6139911222
 40
0.7192986046
 40
0.8114741552
 40
1.0
 40
1.0
 40
1.0
 40
1.0
 10
89.5541618272
 20
197.4606056518
 30
0.0
 10
89.5573196519
 20
197.0987444016
 30
0.0
 10
89.5575709845
 20
196.5808205542
 30
0.0
 10
89.4946856338
 20
195.9330323038
 30
0.0
 10
89.4105513757
 20
195.5405872868
 30
0.0
 10
89.2699815488
 20
195.2245267095
 30
0.0
 10
88.9881269114
 20
194.9150748904
 30
0.0
 10
88.6716414565
 20
194.8436575309
 30
0.0
 10
88.4720545462
 20
194.8393260858
 30
0.0
  0
SPLINE
  5
328
100
AcDbEntity
  8
0
100
AcDbSpline
 62
7
  6
BYLAYER
 70
0
 71
3
 72
10
 73
6
 74
0
 42
0.0000001
 43
0.0000001
 44
0.0000000001
 40
0.0
 40
0.0
 40
0.0
 40
0.0
 40
0.2633729229
 40
0.5325014738
 40
1.0
 40
1.0
 40
1.0
 40
1.0
 10
88.4720395413
 20
194.8393259487
 30
0.0
 10
88.4725000923
 20
194.7771163959
 30
0.0
 10
88.4966051339
 20
194.6511089428
 30
0.0
 10
88.605476206
 20
194.43818763
 30
0.0
 10
88.7844827018
 20
194.3436955269
 30
0.0
 10
88.8949104211
 20
194.3436998632
 30
0.0
  0
SPLINE
  5
329
100
AcDbEntity
  8
0
100
AcDbSpline
 62
7
  6
BYLAYER
 70
0
 71
3
 72
13
 73
9
 74
0
 42
0.0000001
 43
0.0000001
 44
0.0000000001
 40
0.0
 40
0.0
 40
0.0
 40
0.0
 40
0.0963235007
 40
0.1840735543
 40
0.3769747267
 40
0.5021001373
 40
0.6491190325
 40
1.0
 40
1.0
 40
1.0
 40
1.0
 10
88.894909392
 20
194.3436893536
 30
0.0
 10
89.0073280064
 20
194.3436875074
 30
0.0
 10
89.2239763063
 20
194.3659852157
 30
0.0
 10
89.6327937758
 20
194.5591979428
 30
0.0
 10
89.8755705826
 20
195.0095851197
 30
0.0
 10
89.9859141022
 20
195.5373939126
 30
0.0
 10
90.0580733417
 20
196.2635908137
 30
0.0
 10
90.0573270183
 20
196.8448332609
 30
0.0
 10
90.0541089537
 20
197.2543318149
 30
0.0
  0
SPLINE
  5
32A
100
AcDbEntity
  8
0
100
AcDbSpline
 62
7
  6
BYLAYER
 70
0
 71
3
 72
10
 73
6
 74
0
 42
0.0000001
 43
0.0000001
 44
0.0000000001
 40
0.0
 40
0.0
 40
0.0
 40
0.0
 40
0.337475006
 40
0.6341213929
 40
1.0
 40
1.0
 40
1.0
 40
1.0
 10
90.0540943647
 20
197.2561921101
 30
0.0
 10
89.9903666136
 20
197.2557257265
 30
0.0
 10
89.8678833721
 20
197.2658023552
 30
0.0
 10
89.6939746852
 20
197.3050902539
 30
0.0
 10
89.5547883967
 20
197.3914991558
 30
0.0
 10
89.5541878583
 20
197.4605897966
 30
0.0
  0
ELLIPSE
  5
32B
100
AcDbEntity
  8
0
100
AcDbEllipse
 62
7
  6
BYLAYER
 10
121.9117041878
 20
73.5436893536
 30
0.0
 11
0.0
 21
1.5
 31
0.0
 40
1.0
 41
-3.1415926536
 42
-1.5707963268
  0
ELLIPSE
  5
32C
100
AcDbEntity
  8
0
100
AcDbEllipse
 62
7
  6
BYLAYER
 10
121.9117041878
 20
74.5436893536
 30
0.0
 11
-0.0
 21
1.5
 31
0.0
 40
1.0
 41
-1.5707963268
 42
-0.0
  0
ELLIPSE
  5
32D
100
AcDbEntity
  8
0
100
AcDbEllipse
 62
7
  6
BYLAYER
 10
112.4117041878
 20
73.5436893536
 30
0.0
 11
-0.0
 21
1.5
 31
0.0
 40
1.0
 41
1.5707963268
 42
3.1415926536
  0
ELLIPSE
  5
32E
100
AcDbEntity
  8
0
100
AcDbEllipse
 62
7
  6
BYLAYER
 10
112.4117041878
 20
74.5436893536
 30
0.0
 11
0.0
 21
1.5
 31
0.0
 40
1.0
 41
0.0
 42
1.5707963268
  0
ENDSEC
  0
SECTION
  2
OBJECTS
  0
DICTIONARY
  5
C
100
AcDbDictionary
280
0
281
1
  3
ACAD_GROUP
350
D
  3
ACAD_MLINESTYLE
350
17
  3
ACAD_LAYOUT
350
1A
  3
ACAD_PLOTSETTINGS
350
19
  3
ACAD_PLOTSTYLENAME
350
E
  0
DICTIONARY
  5
D
102
{ACAD_REACTORS
330
C
102
}
100
AcDbDictionary
280
0
281
1
  0
ACDBDICTIONARYWDFLT
  5
E
102
{ACAD_REACTORS
330
C
102
}
100
AcDbDictionary
281
1
  3
Normal
350
F
100
AcDbDictionaryWithDefault
340
F
  0
DICTIONARY
  5
17
102
{ACAD_REACTORS
330
C
102
}
100
AcDbDictionary
280
0
281
1
  3
Standard
350
18
  0
DICTIONARY
  5
19
102
{ACAD_REACTORS
330
C
102
}
100
AcDbDictionary
281
1
  0
DICTIONARY
  5
1A
102
{ACAD_REACTORS
330
C
102
}
100
AcDbDictionary
281
1
  3
Model
350
32F
  3
Layout1
350
330
  0
ACDBPLACEHOLDER
  5
F
102
{ACAD_REACTORS
330
E
102
}
  0
MLINESTYLE
  5
18
102
{ACAD_REACTORS
330
17
102
}
100
AcDbMlineStyle
  2
STANDARD
 70
0
  3

 62
256
 51
90.0
 52
90.0
 71
2
 49
0.5
 62
256
  6
BYLAYER
 49
-0.5
 62
256
  6
BYLAYER
  0
LAYOUT
  5
32F
102
{ACAD_REACTORS
330
1A
102
}
100
AcDbPlotSettings
  1

  2
none_device
  4

  6

 40
0.0
 41
0.0
 42
0.0
 43
0.0
 44
210.0
 45
297.0
 46
0.0
 47
0.0
 48
0.0
 49
0.0
140
0.0
141
0.0
142
1.0
143
1.0
 70
1024
 72
1
 73
0
 74
0
  7

 75
0
147
1.0
148
0.0
149
0.0
100
AcDbLayout
  1
Model
 70
0
 71
0
 10
0.0
 20
0.0
 11
210.0
 21
297.0
 12
0.0
 22
0.0
 32
0.0
 14
0.0
 24
0.0
 34
0.0
 15
0.0
 25
0.0
 35
0.0
146
0.0
 13
0.0
 23
0.0
 33
0.0
 16
1.0
 26
0.0
 36
0.0
 17
0.0
 27
1.0
 37
0.0
 76
0
330
210
345
0
346
0
  0
LAYOUT
  5
330
102
{ACAD_REACTORS
330
1A
102
}
100
AcDbPlotSettings
  1

  2
none_device
  4

  6

 40
0.0
 41
0.0
 42
0.0
 43
0.0
 44
210.0
 45
297.0
 46
0.0
 47
0.0
 48
0.0
 49
0.0
140
0.0
141
0.0
142
1.0
143
1.0
 70
0
 72
1
 73
0
 74
0
  7

 75
0
147
1.0
148
0.0
149
0.0
100
AcDbLayout
  1
Layout1
 70
0
 71
1
 10
0.0
 20
0.0
 11
210.0
 21
297.0
 12
0.0
 22
0.0
 32
0.0
 14
0.0
 24
0.0
 34
0.0
 15
0.0
 25
0.0
 35
0.0
146
0.0
 13
0.0
 23
0.0
 33
0.0
 16
1.0
 26
0.0
 36
0.0
 17
0.0
 27
1.0
 37
0.0
 76
0
330
211
345
0
346
0
  0
ENDSEC
  0
EOF
