999
DXF file: C:\Users\sesa63760\Dev\_Creo\CAD\MCADPD0004654_3D-CAD\drw0001_5.dxf
999
Pro/ENGINEER 2019471 by Parametric Technology Corporation
  0
SECTION
  2
HEADER
  9
$ACADVER
  1
AC1024
  9
$DWGCODEPAGE
  3
ANSI_1252
  9
$EXTMAX
 10
88.7897927022
 20
125.5741353932
 30
0.0
  9
$EXTMIN
 10
0.0
 20
0.0
 30
0.0
  9
$LIMMIN
 10
0.0
 20
0.0
  9
$LIMMAX
 10
88.7897927022
 20
125.5741353932
  9
$VIEWCTR
 10
44.3948963511
 20
62.7870676966
  9
$VIEWSIZE
 40
125.5741353932
  9
$CLAYER
  8
0
  9
$LTSCALE
 40
8.1855732701
  9
$CELTYPE
  6
BYLAYER
  9
$DIMSCALE
 40
1.0
  9
$DIMASZ
 40
1.0570213417
  9
$DIMEXO
 40
1.0
  9
$DIMDLI
 40
5.6554869866
  9
$DIMEXE
 40
1.0
  9
$DIMCEN
 40
1.3394574442
  9
$DIMLFAC
 40
1.0
  9
$DIMBLK
  1
_FILLED
  9
$DIMALT
 70
0
  9
$DIMALTF
 40
0.0393700787
  9
$DIMTXT
 40
1.4798298784
  9
$DIMTOL
 70
1
  9
$DIMLIM
 70
0
  9
$DIMTFAC
 40
1.0
  9
$DIMTP
 40
0.01
  9
$DIMTM
 40
0.01
  9
$DIMGAP
 40
0.625
  9
$DIMDSEP
 70
46
  9
$AUNITS
 70
0
  9
$PDMODE
 70
3
  9
$PDSIZE
 40
0.3125
  9
$HANDSEED
  5
26E
  9
$TILEMODE
 70
1
  9
$MEASUREMENT
 70
1
  9
$INSUNITS
 70
4
  0
ENDSEC
  0
SECTION
  2
CLASSES
  0
CLASS
  1
ACDBDICTIONARYWDFLT
  2
AcDbDictionaryWithDefault
  3
AutoCAD 2000
 90
0
 91
1
280
0
281
0
  0
CLASS
  1
ACDBPLACEHOLDER
  2
AcDbPlaceHolder
  3
AutoCAD 2000
 90
0
 91
1
280
0
281
0
  0
CLASS
  1
LAYOUT
  2
AcDbLayout
  3
AutoCAD 2000
 90
0
 91
0
280
0
281
0
  0
ENDSEC
  0
SECTION
  2
TABLES
  0
TABLE
  2
VPORT
  5
8
100
AcDbSymbolTable
 70
2
  0
VPORT
  5
1F4
100
AcDbSymbolTableRecord
100
AcDbViewportTableRecord
  2
*ACTIVE
 70
0
 10
0.0
 20
0.0
 11
1.0
 21
1.0
 12
44.3948963511
 22
62.7870676966
 13
0.0
 23
0.0
 14
1.0
 24
1.0
 15
0.0
 25
0.0
 16
0.0
 26
0.0
 36
1.0
 17
0.0
 27
0.0
 37
0.0
 40
125.5741353932
 41
0.7070707071
 42
50.0
 43
0.0
 44
0.0
 50
0.0
 51
0.0
 71
0
 72
100
 73
1
 74
1
 75
0
 76
0
 77
0
 78
0
  0
ENDTAB
  0
TABLE
  2
LTYPE
  5
5
100
AcDbSymbolTable
 70
6
  0
LTYPE
  5
14
100
AcDbSymbolTableRecord
100
AcDbLinetypeTableRecord
  2
BYBLOCK
 70
0
  3

 72
65
 73
0
 40
0.0
  0
LTYPE
  5
15
100
AcDbSymbolTableRecord
100
AcDbLinetypeTableRecord
  2
BYLAYER
 70
0
  3

 72
65
 73
0
 40
0.0
  0
LTYPE
  5
16
100
AcDbSymbolTableRecord
100
AcDbLinetypeTableRecord
  2
CONTINUOUS
 70
64
  3
Solid line
 72
65
 73
0
 40
0.0
  0
LTYPE
  5
1F5
100
AcDbSymbolTableRecord
100
AcDbLinetypeTableRecord
  2
CENTER
 70
64
  3
____ _ ____ _ ____ _ ____ _ ____ _ ____ _ ____
 72
65
 73
4
 40
0.6
 49
0.375
 74
0
 49
-0.075
 74
0
 49
0.075
 74
0
 49
-0.075
 74
0
  0
LTYPE
  5
1F6
100
AcDbSymbolTableRecord
100
AcDbLinetypeTableRecord
  2
HIDDEN
 70
64
  3
- - - - - - - - - - - - - - - - - - - -
 72
65
 73
2
 40
0.2
 49
0.1
 74
0
 49
-0.1
 74
0
  0
LTYPE
  5
1F7
100
AcDbSymbolTableRecord
100
AcDbLinetypeTableRecord
  2
PHANTOM
 70
64
  3
_____ _ _ _____ _ _ _____ _ _ _____
 72
65
 73
6
 40
0.8
 49
0.45
 74
0
 49
-0.05
 74
0
 49
0.1
 74
0
 49
-0.05
 74
0
 49
0.1
 74
0
 49
-0.05
 74
0
  0
LTYPE
  5
1F8
100
AcDbSymbolTableRecord
100
AcDbLinetypeTableRecord
  2
DOT
 70
64
  3
. . . . . . . . . . . . . . . . . . . .
 72
65
 73
2
 40
0.2
 49
0.1
 74
0
 49
-0.1
 74
0
  0
LTYPE
  5
1F9
100
AcDbSymbolTableRecord
100
AcDbLinetypeTableRecord
  2
DASHED
 70
64
  3
- - - - - - - - - - - - - - - - - - - -
 72
65
 73
2
 40
0.2
 49
0.1
 74
0
 49
-0.1
 74
0
  0
ENDTAB
  0
TABLE
  2
LAYER
  5
2
100
AcDbSymbolTable
 70
36
  0
LAYER
  5
10
100
AcDbSymbolTableRecord
100
AcDbLayerTableRecord
  2
0
 70
0
 62
7
  6
CONTINUOUS
370
-3
390
F
  0
LAYER
  5
1FA
100
AcDbSymbolTableRecord
100
AcDbLayerTableRecord
  2
DEFAULT_1
 70
0
 62
7
  6
CENTER
370
-3
390
F
  0
LAYER
  5
1FB
100
AcDbSymbolTableRecord
100
AcDbLayerTableRecord
  2
DEFAULT_2
 70
0
 62
7
  6
HIDDEN
370
-3
390
F
  0
LAYER
  5
1FC
100
AcDbSymbolTableRecord
100
AcDbLayerTableRecord
  2
DEFAULT_3
 70
0
 62
7
  6
PHANTOM
370
-3
390
F
  0
LAYER
  5
1FD
100
AcDbSymbolTableRecord
100
AcDbLayerTableRecord
  2
00_COMPONENTS
 70
0
 62
7
  6
CONTINUOUS
370
-3
390
F
  0
LAYER
  5
1FE
100
AcDbSymbolTableRecord
100
AcDbLayerTableRecord
  2
01_1_DEFAULT_DATUMS
 70
0
 62
7
  6
CONTINUOUS
370
-3
390
F
  0
LAYER
  5
1FF
100
AcDbSymbolTableRecord
100
AcDbLayerTableRecord
  2
01_PLANES
 70
0
 62
7
  6
CONTINUOUS
370
-3
390
F
  0
LAYER
  5
200
100
AcDbSymbolTableRecord
100
AcDbLayerTableRecord
  2
02_COORD_SYS
 70
0
 62
7
  6
CONTINUOUS
370
-3
390
F
  0
LAYER
  5
201
100
AcDbSymbolTableRecord
100
AcDbLayerTableRecord
  2
03_AXES
 70
0
 62
7
  6
CONTINUOUS
370
-3
390
F
  0
LAYER
  5
202
100
AcDbSymbolTableRecord
100
AcDbLayerTableRecord
  2
04_POINTS
 70
0
 62
7
  6
CONTINUOUS
370
-3
390
F
  0
LAYER
  5
203
100
AcDbSymbolTableRecord
100
AcDbLayerTableRecord
  2
05_CURVES
 70
0
 62
7
  6
CONTINUOUS
370
-3
390
F
  0
LAYER
  5
204
100
AcDbSymbolTableRecord
100
AcDbLayerTableRecord
  2
06_SURFS
 70
0
 62
7
  6
CONTINUOUS
370
-3
390
F
  0
LAYER
  5
205
100
AcDbSymbolTableRecord
100
AcDbLayerTableRecord
  2
07_COSMETICS
 70
0
 62
7
  6
CONTINUOUS
370
-3
390
F
  0
LAYER
  5
206
100
AcDbSymbolTableRecord
100
AcDbLayerTableRecord
  2
10_NOTES
 70
0
 62
7
  6
CONTINUOUS
370
-3
390
F
  0
LAYER
  5
207
100
AcDbSymbolTableRecord
100
AcDbLayerTableRecord
  2
11_NOTES_PUB
 70
0
 62
7
  6
CONTINUOUS
370
-3
390
F
  0
LAYER
  5
208
100
AcDbSymbolTableRecord
100
AcDbLayerTableRecord
  2
13_REF_GTOL
 70
0
 62
7
  6
CONTINUOUS
370
-3
390
F
  0
LAYER
  5
209
100
AcDbSymbolTableRecord
100
AcDbLayerTableRecord
  2
16_MISC
 70
0
 62
7
  6
CONTINUOUS
370
-3
390
F
  0
LAYER
  5
20A
100
AcDbSymbolTableRecord
100
AcDbLayerTableRecord
  2
17_NO_PRINT
 70
0
 62
7
  6
CONTINUOUS
370
-3
390
F
  0
LAYER
  5
20B
100
AcDbSymbolTableRecord
100
AcDbLayerTableRecord
  2
18_DATUM_CAMS_JOINTS
 70
0
 62
7
  6
CONTINUOUS
370
-3
390
F
  0
LAYER
  5
20C
100
AcDbSymbolTableRecord
100
AcDbLayerTableRecord
  2
19_DATUM_FUNCTIONAL
 70
0
 62
7
  6
CONTINUOUS
370
-3
390
F
  0
LAYER
  5
20D
100
AcDbSymbolTableRecord
100
AcDbLayerTableRecord
  2
20_DATUM_KINEMATIC_SCHEME
 70
0
 62
7
  6
CONTINUOUS
370
-3
390
F
  0
ENDTAB
  0
TABLE
  2
STYLE
  5
3
100
AcDbSymbolTable
 70
1
  0
STYLE
  5
11
100
AcDbSymbolTableRecord
100
AcDbTextStyleTableRecord
  2
STANDARD
 70
0
 40
0.0
 41
1.0
 50
0.0
 71
0
 42
0.2
  3
ARIAL.TTF
  4

  0
STYLE
  5
20E
100
AcDbSymbolTableRecord
100
AcDbTextStyleTableRecord
  2
TEXTSTYLE_1
 70
0
 40
0.0
 41
0.8
 50
0.0
 71
0
 42
0.2
  3
gdt
  4

  0
ENDTAB
  0
TABLE
  2
VIEW
  5
6
100
AcDbSymbolTable
 70
0
  0
ENDTAB
  0
TABLE
  2
UCS
  5
7
100
AcDbSymbolTable
 70
0
  0
ENDTAB
  0
TABLE
  2
APPID
  5
9
100
AcDbSymbolTable
 70
1
  0
APPID
  5
20F
100
AcDbSymbolTableRecord
100
AcDbRegAppTableRecord
  2
ACAD
 70
0
  0
ENDTAB
  0
TABLE
  2
BLOCK_RECORD
  5
1
100
AcDbSymbolTable
 70
0
  0
BLOCK_RECORD
  5
210
100
AcDbSymbolTableRecord
100
AcDbBlockTableRecord
  2
*Model_Space
  0
BLOCK_RECORD
  5
211
100
AcDbSymbolTableRecord
100
AcDbBlockTableRecord
  2
*Paper_Space
  0
BLOCK_RECORD
  5
212
100
AcDbSymbolTableRecord
100
AcDbBlockTableRecord
  2
_FILLED
  0
ENDTAB
  0
TABLE
  2
DIMSTYLE
  5
A
100
AcDbSymbolTable
 70
1
100
AcDbDimStyleTable
 71
0
  0
DIMSTYLE
105
213
100
AcDbSymbolTableRecord
100
AcDbDimStyleTableRecord
  2
STANDARD
 70
0
  3

  4

 40
1.0
 41
1.0570213417
 42
1.0
 43
0.38
 44
1.0
 45
0.0
 46
0.0
 47
0.01
 48
0.01
140
1.4798298784
141
0.09
142
0.0
143
25.4
144
1.0
145
0.0
146
1.0
147
0.625
 71
1
 72
0
 73
0
 74
0
 75
0
 76
0
 77
1
 78
8
 79
2
170
0
171
1
172
0
173
0
174
0
175
0
176
0
177
0
178
0
270
2
179
2
271
2
272
2
273
2
274
2
275
0
280
0
281
0
282
0
283
1
284
8
285
0
286
0
287
3
288
0
340
11
278
46
341
212
342
212
343
212
344
212
  0
ENDTAB
  0
ENDSEC
  0
SECTION
  2
BLOCKS
  0
BLOCK
  5
20
100
AcDbEntity
  8
0
100
AcDbBlockBegin
  2
*Model_Space
 70
0
 10
0.0
 20
0.0
 30
0.0
  3
*Model_Space
  1

  0
ENDBLK
  5
21
100
AcDbEntity
  8
0
100
AcDbBlockEnd
  0
BLOCK
  5
1C
100
AcDbEntity
  8
0
100
AcDbBlockBegin
  2
*Paper_Space
 70
0
 10
0.0
 20
0.0
 30
0.0
  3
*Paper_Space
  1

  0
ENDBLK
  5
1D
100
AcDbEntity
  8
0
100
AcDbBlockEnd
  0
BLOCK
  5
214
100
AcDbEntity
  8
0
100
AcDbBlockBegin
  2
_FILLED
 70
64
 10
0.0
 20
0.0
  3
_FILLED
  1

  0
SOLID
  5
215
100
AcDbEntity
  8
0
  6
BYBLOCK
 62
0
100
AcDbTrace
 10
0.0
 20
0.0
 11
-1.0
 21
0.25
 12
-1.0
 22
-0.25
 13
-1.0
 23
-0.25
  0
ENDBLK
  5
216
100
AcDbEntity
  8
0
  6
BYBLOCK
 62
0
100
AcDbBlockEnd
  0
ENDSEC
  0
SECTION
  2
ENTITIES
  0
LINE
  5
217
100
AcDbEntity
  8
0
100
AcDbLine
 62
7
  6
BYLAYER
 10
10.3500114189
 20
34.9707715099
 11
13.1500114189
 21
32.1707715099
  0
LINE
  5
218
100
AcDbEntity
  8
0
100
AcDbLine
 62
7
  6
BYLAYER
 10
10.3500114189
 20
34.9707715099
 11
10.3500114189
 21
85.5661502243
  0
LINE
  5
219
100
AcDbEntity
  8
0
100
AcDbLine
 62
7
  6
BYLAYER
 10
13.1500114189
 20
32.1707715099
 11
13.4500114189
 21
32.1207715099
  0
LINE
  5
21A
100
AcDbEntity
  8
0
100
AcDbLine
 62
7
  6
BYLAYER
 10
11.3500114189
 20
77.9457715099
 11
11.3500114189
 21
85.8777862308
  0
LINE
  5
21B
100
AcDbEntity
  8
0
100
AcDbLine
 62
7
  6
BYLAYER
 10
13.4500114189
 20
32.1207715099
 11
13.4500114189
 21
31.1207715099
  0
LINE
  5
21C
100
AcDbEntity
  8
0
100
AcDbLine
 62
7
  6
BYLAYER
 10
12.3504850725
 20
85.8777866541
 11
12.3500114189
 21
78.8457715099
  0
LINE
  5
21D
100
AcDbEntity
  8
0
100
AcDbLine
 62
7
  6
BYLAYER
 10
53.9200111008
 20
30.9207715099
 11
57.1050448798
 21
30.9232789011
  0
LINE
  5
21E
100
AcDbEntity
  8
0
100
AcDbLine
 62
7
  6
BYLAYER
 10
17.5486308597
 20
30.4207715099
 11
14.9513764744
 21
30.4207715099
  0
LINE
  5
21F
100
AcDbEntity
  8
0
100
AcDbLine
 62
7
  6
BYLAYER
 10
13.9500114189
 20
30.6207715099
 11
53.9200114189
 21
30.6207715099
  0
LINE
  5
220
100
AcDbEntity
  8
0
100
AcDbLine
 62
7
  6
BYLAYER
 10
28.5000114189
 20
81.6207715099
 11
28.5000114189
 21
77.9447715099
  0
LINE
  5
221
100
AcDbEntity
  8
0
100
AcDbLine
 62
7
  6
BYLAYER
 10
29.0000114189
 20
77.9447715099
 11
29.0000114189
 21
82.1207715099
  0
LINE
  5
222
100
AcDbEntity
  8
0
100
AcDbLine
 62
7
  6
BYLAYER
 10
57.7700114189
 20
44.8957715099
 11
64.3700114189
 21
44.8957715099
  0
LINE
  5
223
100
AcDbEntity
  8
0
100
AcDbLine
 62
7
  6
BYLAYER
 10
57.2700114189
 20
45.4957715099
 11
57.7700114189
 21
45.4957715099
  0
LINE
  5
224
100
AcDbEntity
  8
0
100
AcDbLine
 62
7
  6
BYLAYER
 10
56.0700114189
 20
45.6957715099
 11
57.7700114189
 21
45.6957715099
  0
LINE
  5
225
100
AcDbEntity
  8
0
100
AcDbLine
 62
7
  6
BYLAYER
 10
64.3700114189
 20
45.6957715099
 11
68.2700114201
 21
45.6957715099
  0
LINE
  5
226
100
AcDbEntity
  8
0
100
AcDbLine
 62
7
  6
BYLAYER
 10
72.1495937205
 20
46.4957715099
 11
68.2700114201
 21
46.4957715099
  0
LINE
  5
227
100
AcDbEntity
  8
0
100
AcDbLine
 62
7
  6
BYLAYER
 10
56.0700114189
 20
46.4957715099
 11
54.2811182101
 21
46.4957715099
  0
LINE
  5
228
100
AcDbEntity
  8
0
100
AcDbLine
 62
7
  6
BYLAYER
 10
13.3500114189
 20
77.9457715099
 11
12.3500114189
 21
78.8457715099
  0
LINE
  5
229
100
AcDbEntity
  8
0
100
AcDbLine
 62
7
  6
BYLAYER
 10
37.2800114189
 20
83.6207715099
 11
37.2800114189
 21
88.1207715099
  0
LINE
  5
22A
100
AcDbEntity
  8
0
100
AcDbLine
 62
7
  6
BYLAYER
 10
38.7800114189
 20
82.1207715099
 11
38.7800114189
 21
83.6207715099
  0
LINE
  5
22B
100
AcDbEntity
  8
0
100
AcDbLine
 62
7
  6
BYLAYER
 10
77.1684122726
 20
57.6457715099
 11
69.4993517258
 21
57.6457715099
  0
LINE
  5
22C
100
AcDbEntity
  8
0
100
AcDbLine
 62
7
  6
BYLAYER
 10
80.9197218006
 20
59.9957715099
 11
77.16728365
 21
59.9957715099
  0
LINE
  5
22D
100
AcDbEntity
  8
0
100
AcDbLine
 62
7
  6
BYLAYER
 10
46.1500114189
 20
95.4607715099
 11
46.1500114189
 21
82.1207715099
  0
LINE
  5
22E
100
AcDbEntity
  8
0
100
AcDbLine
 62
7
  6
BYLAYER
 10
48.4500114189
 20
95.4607715099
 11
48.4500114189
 21
82.1207715099
  0
LINE
  5
22F
100
AcDbEntity
  8
0
100
AcDbLine
 62
7
  6
BYLAYER
 10
77.1649783781
 20
64.7957715099
 11
80.9197218006
 21
64.7957715099
  0
LINE
  5
230
100
AcDbEntity
  8
0
100
AcDbLine
 62
7
  6
BYLAYER
 10
42.2800114189
 20
82.1207715099
 11
40.0961900133
 21
88.1207715099
  0
LINE
  5
231
100
AcDbEntity
  8
0
100
AcDbLine
 62
7
  6
BYLAYER
 10
53.9200114189
 20
30.6207715099
 11
53.9200111008
 21
30.9207715099
  0
LINE
  5
232
100
AcDbEntity
  8
0
100
AcDbLine
 62
7
  6
BYLAYER
 10
54.2811182101
 20
46.4957715099
 11
54.2811182101
 21
30.9210557884
  0
LINE
  5
233
100
AcDbEntity
  8
0
100
AcDbLine
 62
7
  6
BYLAYER
 10
55.266458666
 20
30.9218314895
 11
55.266458666
 21
46.4957715099
  0
LINE
  5
234
100
AcDbEntity
  8
0
100
AcDbLine
 62
7
  6
BYLAYER
 10
76.8265874961
 20
71.6707715099
 11
79.3566066995
 21
71.6707715099
  0
LINE
  5
235
100
AcDbEntity
  8
0
100
AcDbLine
 62
7
  6
BYLAYER
 10
57.2300114189
 20
45.6957715099
 11
57.2700114189
 21
45.4957715099
  0
LINE
  5
236
100
AcDbEntity
  8
0
100
AcDbLine
 62
7
  6
BYLAYER
 10
56.0700114189
 20
46.4957715099
 11
56.0700114189
 21
45.6957715099
  0
LINE
  5
237
100
AcDbEntity
  8
0
100
AcDbLine
 62
7
  6
BYLAYER
 10
57.1050448798
 20
30.9232789011
 11
57.1050448798
 21
39.0093983157
  0
LINE
  5
238
100
AcDbEntity
  8
0
100
AcDbLine
 62
7
  6
BYLAYER
 10
57.1050448798
 20
44.6321447041
 11
57.1050448798
 21
45.6957715099
  0
LINE
  5
239
100
AcDbEntity
  8
0
100
AcDbLine
 62
7
  6
BYLAYER
 10
57.7700114189
 20
45.6957715099
 11
57.7700114189
 21
44.8957715099
  0
LINE
  5
23A
100
AcDbEntity
  8
0
100
AcDbLine
 62
7
  6
BYLAYER
 10
76.8265874961
 20
72.9707715099
 11
79.3566066994
 21
72.9707715099
  0
LINE
  5
23B
100
AcDbEntity
  8
0
100
AcDbLine
 62
7
  6
BYLAYER
 10
80.6198222012
 20
73.7607715099
 11
77.1606728027
 21
73.7607715099
  0
LINE
  5
23C
100
AcDbEntity
  8
0
100
AcDbLine
 62
7
  6
BYLAYER
 10
77.1592320078
 20
76.7607715099
 11
80.6198222012
 21
76.7607715099
  0
LINE
  5
23D
100
AcDbEntity
  8
0
100
AcDbLine
 62
7
  6
BYLAYER
 10
10.3500114189
 20
77.9457715099
 11
29.0000114189
 21
77.9457715099
  0
LINE
  5
23E
100
AcDbEntity
  8
0
100
AcDbLine
 62
7
  6
BYLAYER
 10
64.3700114189
 20
44.8957715099
 11
64.3700114189
 21
45.6957715099
  0
LINE
  5
23F
100
AcDbEntity
  8
0
100
AcDbLine
 62
7
  6
BYLAYER
 10
29.0000114189
 20
82.1207715099
 11
77.1566577876
 21
82.1207715099
  0
LINE
  5
240
100
AcDbEntity
  8
0
100
AcDbLine
 62
7
  6
BYLAYER
 10
68.2700114201
 20
46.4957715099
 11
68.2700114201
 21
45.6957715099
  0
LINE
  5
241
100
AcDbEntity
  8
0
100
AcDbLine
 62
7
  6
BYLAYER
 10
38.7800114189
 20
83.6207715099
 11
37.2800114189
 21
83.6207715099
  0
LINE
  5
242
100
AcDbEntity
  8
0
100
AcDbLine
 62
7
  6
BYLAYER
 10
10.3500114189
 20
84.0836168328
 11
11.3500114189
 21
84.0836168328
  0
LINE
  5
243
100
AcDbEntity
  8
0
100
AcDbLine
 62
7
  6
BYLAYER
 10
11.3500114189
 20
84.396754062
 11
12.350385315
 21
84.396754062
  0
LINE
  5
244
100
AcDbEntity
  8
0
100
AcDbLine
 62
7
  6
BYLAYER
 10
11.3500114189
 20
85.5666074736
 11
10.3500114189
 21
85.5666074736
  0
LINE
  5
245
100
AcDbEntity
  8
0
100
AcDbLine
 62
7
  6
BYLAYER
 10
69.4993517258
 20
57.6457715099
 11
69.4993517258
 21
46.4957715099
  0
LINE
  5
246
100
AcDbEntity
  8
0
100
AcDbLine
 62
7
  6
BYLAYER
 10
70.2874404893
 20
46.4957715099
 11
70.2874404893
 21
57.6457715099
  0
LINE
  5
247
100
AcDbEntity
  8
0
100
AcDbLine
 62
7
  6
BYLAYER
 10
12.3504826173
 20
85.8778805087
 11
11.3500114189
 21
85.8778805087
  0
LINE
  5
248
100
AcDbEntity
  8
0
100
AcDbLine
 62
7
  6
BYLAYER
 10
37.2800114189
 20
88.1207715099
 11
40.0961900133
 21
88.1207715099
  0
LINE
  5
249
100
AcDbEntity
  8
0
100
AcDbLine
 62
7
  6
BYLAYER
 10
72.1496540192
 20
46.4957715099
 11
72.1496540192
 21
57.6457715099
  0
LINE
  5
24A
100
AcDbEntity
  8
0
100
AcDbLine
 62
7
  6
BYLAYER
 10
73.3500114189
 20
82.1207715099
 11
73.3500114189
 21
57.6457715099
  0
LINE
  5
24B
100
AcDbEntity
  8
0
100
AcDbLine
 62
7
  6
BYLAYER
 10
77.1684122726
 20
57.6457715099
 11
77.1616765565
 21
71.6707715099
  0
LINE
  5
24C
100
AcDbEntity
  8
0
100
AcDbLine
 62
7
  6
BYLAYER
 10
77.1610522121
 20
72.9707715099
 11
77.1566577876
 21
82.1207715099
  0
LINE
  5
24D
100
AcDbEntity
  8
0
100
AcDbLine
 62
7
  6
BYLAYER
 10
75.1460810656
 20
57.6457715099
 11
75.1460810656
 21
82.1207715099
  0
LINE
  5
24E
100
AcDbEntity
  8
0
100
AcDbLine
 62
7
  6
BYLAYER
 10
76.8265874961
 20
71.6707715099
 11
76.8265874961
 21
72.9707715099
  0
LINE
  5
24F
100
AcDbEntity
  8
0
100
AcDbLine
 62
7
  6
BYLAYER
 10
77.5695507191
 20
72.9707715099
 11
77.5695507191
 21
71.6707715099
  0
LINE
  5
250
100
AcDbEntity
  8
0
100
AcDbLine
 62
7
  6
BYLAYER
 10
79.3568831434
 20
72.9707715099
 11
79.3568831434
 21
71.6707715099
  0
LINE
  5
251
100
AcDbEntity
  8
0
100
AcDbLine
 62
7
  6
BYLAYER
 10
80.000382489
 20
76.7607715099
 11
80.000382489
 21
73.7607715099
  0
LINE
  5
252
100
AcDbEntity
  8
0
100
AcDbLine
 62
7
  6
BYLAYER
 10
80.2985779718
 20
64.7957715099
 11
80.2985779718
 21
59.9957715099
  0
LINE
  5
253
100
AcDbEntity
  8
0
100
AcDbLine
 62
7
  6
BYLAYER
 10
80.434474446
 20
76.7607715099
 11
80.434474446
 21
73.7607715099
  0
LINE
  5
254
100
AcDbEntity
  8
0
100
AcDbLine
 62
7
  6
BYLAYER
 10
80.619985657
 20
76.7607715099
 11
80.619985657
 21
73.7607715099
  0
LINE
  5
255
100
AcDbEntity
  8
0
100
AcDbLine
 62
7
  6
BYLAYER
 10
80.7332377313
 20
64.7957715099
 11
80.7332377313
 21
59.9957715099
  0
LINE
  5
256
100
AcDbEntity
  8
0
100
AcDbLine
 62
7
  6
BYLAYER
 10
80.9198818505
 20
64.7957715099
 11
80.9198818505
 21
59.9957715099
  0
LINE
  5
257
100
AcDbEntity
  8
0
100
AcDbLine
 62
7
  6
BYLAYER
 10
46.1500334529
 20
95.4607715099
 11
48.4499976753
 21
95.4607715099
  0
ARC
  5
258
100
AcDbEntity
  8
0
100
AcDbCircle
 62
7
  6
BYLAYER
 10
237.0683903214
 20
41.7514212904
 40
179.9864002509
100
AcDbArc
 50
179.0829285178
 51
179.977923471
  0
ARC
  5
259
100
AcDbEntity
  8
0
100
AcDbCircle
 62
7
  6
BYLAYER
 10
237.068390204
 20
41.8901217284
 40
179.9864001335
100
AcDbArc
 50
180.0220765287
 51
180.9170714825
  0
ARC
  5
25A
100
AcDbEntity
  8
0
100
AcDbCircle
 62
7
  6
BYLAYER
 10
62.6497066425
 20
56.6352131188
 40
11.1425083517
100
AcDbArc
 50
278.9146028474
 51
280.5323471153
  0
ARC
  5
25B
100
AcDbEntity
  8
0
100
AcDbCircle
 62
7
  6
BYLAYER
 10
29.006248392
 20
81.6145345368
 40
0.5062753922
100
AcDbArc
 50
90.7058634032
 51
179.294136597
  0
ARC
  5
25C
100
AcDbEntity
  8
0
100
AcDbCircle
 62
7
  6
BYLAYER
 10
13.9500114189
 20
31.1207715099
 40
0.5
100
AcDbArc
 50
180.0
 51
270.0
  0
ARC
  5
25D
100
AcDbEntity
  8
0
100
AcDbCircle
 62
7
  6
BYLAYER
 10
17.5500031993
 20
30.6207751271
 40
0.2000082196
100
AcDbArc
 50
269.6113081436
 51
359.9989637752
  0
ARC
  5
25E
100
AcDbEntity
  8
0
100
AcDbCircle
 62
7
  6
BYLAYER
 10
14.9500196385
 20
30.6207751271
 40
0.2000082196
100
AcDbArc
 50
180.0010362248
 51
270.3886918564
  0
SPLINE
  5
25F
100
AcDbEntity
  8
0
100
AcDbSpline
 62
7
  6
BYLAYER
 70
0
 71
3
 72
21
 73
17
 74
0
 42
0.0000001
 43
0.0000001
 44
0.0000000001
 40
0.0
 40
0.0
 40
0.0
 40
0.0
 40
0.0025603291
 40
0.0068273321
 40
0.0219163271
 40
0.0461147882
 40
0.0793459988
 40
0.1213527287
 40
0.171735066
 40
0.2300501769
 40
0.2957330415
 40
0.3681771933
 40
0.4466945767
 40
0.6188552016
 40
0.8057489474
 40
1.0
 40
1.0
 40
1.0
 40
1.0
 10
72.0062184573
 20
55.9007426637
 30
0.0
 10
72.0034911669
 20
55.9007429187
 30
0.0
 10
71.9968682879
 20
55.8959521265
 30
0.0
 10
71.9860724893
 20
55.8754250395
 30
0.0
 10
71.973140828
 20
55.8303114784
 30
0.0
 10
71.9585090952
 20
55.754659923
 30
0.0
 10
71.9432705623
 20
55.6497151182
 30
0.0
 10
71.9279089792
 20
55.5168146572
 30
0.0
 10
71.9126944342
 20
55.3569837203
 30
0.0
 10
71.8979366475
 20
55.1718179482
 30
0.0
 10
71.8838768028
 20
54.9630326892
 30
0.0
 10
71.8707825195
 20
54.7326292089
 30
0.0
 10
71.8544128048
 20
54.3888213843
 30
0.0
 10
71.8381725169
 20
53.9229770868
 30
0.0
 10
71.8261582084
 20
53.3336952972
 30
0.0
 10
71.8234303863
 20
52.9276898424
 30
0.0
 10
71.8234303863
 20
52.7207715099
 30
0.0
  0
SPLINE
  5
260
100
AcDbEntity
  8
0
100
AcDbSpline
 62
7
  6
BYLAYER
 70
0
 71
3
 72
20
 73
16
 74
0
 42
0.0000001
 43
0.0000001
 44
0.0000000001
 40
0.0
 40
0.0
 40
0.0
 40
0.0
 40
0.0061997719
 40
0.013253343
 40
0.021720819
 40
0.0319214792
 40
0.0580754532
 40
0.0923104849
 40
0.1346658924
 40
0.1848956433
 40
0.2426580197
 40
0.3074833052
 40
0.4560555085
 40
0.6252990895
 40
1.0
 40
1.0
 40
1.0
 40
1.0
 10
71.0565265947
 20
55.9007462001
 30
0.0
 10
71.0497849589
 20
55.9007457762
 30
0.0
 10
71.0352888045
 20
55.897751567
 30
0.0
 10
71.0148173598
 20
55.8853849924
 30
0.0
 10
70.9947230518
 20
55.8656898794
 30
0.0
 10
70.9657034944
 20
55.8263616713
 30
0.0
 10
70.9311327621
 20
55.7573592522
 30
0.0
 10
70.8925704975
 20
55.6524280134
 30
0.0
 10
70.8547475617
 20
55.5196939896
 30
0.0
 10
70.8180809011
 20
55.3603277063
 30
0.0
 10
70.7831461186
 20
55.1756395393
 30
0.0
 10
70.7373801133
 20
54.8843182845
 30
0.0
 10
70.6892006115
 20
54.4708656308
 30
0.0
 10
70.630731764
 20
53.7199943321
 30
0.0
 10
70.6142648821
 20
53.1282215089
 30
0.0
 10
70.6142648821
 20
52.7207715099
 30
0.0
  0
SPLINE
  5
261
100
AcDbEntity
  8
0
100
AcDbSpline
 62
7
  6
BYLAYER
 70
0
 71
3
 72
22
 73
18
 74
0
 42
0.0000001
 43
0.0000001
 44
0.0000000001
 40
0.0
 40
0.0
 40
0.0
 40
0.0
 40
0.0051782239
 40
0.0113858622
 40
0.0191973211
 40
0.0288958645
 40
0.0406200682
 40
0.0544317425
 40
0.0883499157
 40
0.1305906378
 40
0.1808880081
 40
0.23882741
 40
0.3039314505
 40
0.4532350367
 40
0.6233650062
 40
0.8080062816
 40
1.0
 40
1.0
 40
1.0
 40
1.0
 10
56.4395581342
 20
37.8207390406
 30
0.0
 10
56.4325193408
 20
37.8207389902
 30
0.0
 10
56.4169750898
 20
37.8248214104
 30
0.0
 10
56.3958000833
 20
37.8406829637
 30
0.0
 10
56.3749294893
 20
37.8654682145
 30
0.0
 10
56.3540355361
 20
37.8993814524
 30
0.0
 10
56.3330308592
 20
37.9424821108
 30
0.0
 10
56.3028443185
 20
38.0175012532
 30
0.0
 10
56.2664745806
 20
38.1344365798
 30
0.0
 10
56.2255654431
 20
38.3014426911
 30
0.0
 10
56.1856563112
 20
38.5021131395
 30
0.0
 10
56.1472872677
 20
38.7346224721
 30
0.0
 10
56.0967115268
 20
39.1013897616
 30
0.0
 10
56.0428999504
 20
39.6214649796
 30
0.0
 10
55.9951692108
 20
40.3050923606
 30
0.0
 10
55.9651598148
 20
41.0478041926
 30
0.0
 10
55.9583558929
 20
41.5597932007
 30
0.0
 10
55.9583558929
 20
41.8207715099
 30
0.0
  0
SPLINE
  5
262
100
AcDbEntity
  8
0
100
AcDbSpline
 62
7
  6
BYLAYER
 70
0
 71
3
 72
21
 73
17
 74
0
 42
0.0000001
 43
0.0000001
 44
0.0000000001
 40
0.0
 40
0.0
 40
0.0
 40
0.0
 40
0.1942667573
 40
0.3811694108
 40
0.5533184364
 40
0.6318294256
 40
0.7042680685
 40
0.7699472682
 40
0.8282594624
 40
0.8786421123
 40
0.9206507781
 40
0.9538824125
 40
0.9780830435
 40
0.9931722857
 40
0.9974393919
 40
1.0
 40
1.0
 40
1.0
 40
1.0
 10
71.8234303863
 20
52.7207715099
 30
0.0
 10
71.8234303863
 20
52.5138364767
 30
0.0
 10
71.8261600151
 20
52.1078048748
 30
0.0
 10
71.8381731719
 20
51.5185092777
 30
0.0
 10
71.8544145602
 20
51.0526747613
 30
0.0
 10
71.8707834052
 20
50.7088920071
 30
0.0
 10
71.8838770267
 20
50.4785051328
 30
0.0
 10
71.897935512
 20
50.2697327193
 30
0.0
 10
71.912692864
 20
50.0845736361
 30
0.0
 10
71.9279074749
 20
49.924743439
 30
0.0
 10
71.9432683559
 20
49.7918400829
 30
0.0
 10
71.9585079598
 20
49.686890463
 30
0.0
 10
71.9731395829
 20
49.6112360998
 30
0.0
 10
71.9860715161
 20
49.5661193461
 30
0.0
 10
71.9968687037
 20
49.5455924992
 30
0.0
 10
72.0034910282
 20
49.5408007031
 30
0.0
 10
72.0062186154
 20
49.540800359
 30
0.0
  0
SPLINE
  5
263
100
AcDbEntity
  8
0
100
AcDbSpline
 62
7
  6
BYLAYER
 70
0
 71
3
 72
20
 73
16
 74
0
 42
0.0000001
 43
0.0000001
 44
0.0000000001
 40
0.0
 40
0.0
 40
0.0
 40
0.0
 40
0.3747187316
 40
0.543969771
 40
0.6925451236
 40
0.7573679838
 40
0.8151281274
 40
0.8653523868
 40
0.9077020464
 40
0.9419335113
 40
0.9680825113
 40
0.9782812861
 40
0.9867477227
 40
0.9938006694
 40
1.0
 40
1.0
 40
1.0
 40
1.0
 10
70.6142648821
 20
52.7207715099
 30
0.0
 10
70.6142648821
 20
52.3133020749
 30
0.0
 10
70.6307278096
 20
51.7215013669
 30
0.0
 10
70.6892099067
 20
50.9705998445
 30
0.0
 10
70.7373962294
 20
50.5571390676
 30
0.0
 10
70.7831608704
 20
50.2658192579
 30
0.0
 10
70.81809215
 20
50.08114161
 30
0.0
 10
70.8547604587
 20
49.9217905605
 30
0.0
 10
70.8925871644
 20
49.7890744456
 30
0.0
 10
70.9311446503
 20
49.6841580825
 30
0.0
 10
70.9657126651
 20
49.6151668509
 30
0.0
 10
70.9947290352
 20
49.5758470487
 30
0.0
 10
71.0148207288
 20
49.5561548735
 30
0.0
 10
71.0352901941
 20
49.5437895298
 30
0.0
 10
71.0497851473
 20
49.5407954347
 30
0.0
 10
71.0565263041
 20
49.540794945
 30
0.0
  0
SPLINE
  5
264
100
AcDbEntity
  8
0
100
AcDbSpline
 62
7
  6
BYLAYER
 70
0
 71
3
 72
15
 73
11
 74
0
 42
0.0000001
 43
0.0000001
 44
0.0000000001
 40
0.0
 40
0.0
 40
0.0
 40
0.0
 40
0.3293275824
 40
0.483136623
 40
0.6243606861
 40
0.7494134024
 40
0.8552328328
 40
0.9393377627
 40
0.9726637299
 40
1.0
 40
1.0
 40
1.0
 40
1.0
 10
55.9583558929
 20
41.8207715099
 30
0.0
 10
55.9583558929
 20
42.2466094805
 30
0.0
 10
55.9716508093
 20
42.8714741832
 30
0.0
 10
56.0174319112
 20
43.6775682721
 30
0.0
 10
56.0622295249
 20
44.2189768076
 30
0.0
 10
56.1160875386
 20
44.6971963211
 30
0.0
 10
56.176747489
 20
45.100008025
 30
0.0
 10
56.2339087357
 20
45.3832530215
 30
0.0
 10
56.2833840639
 20
45.5638492343
 30
0.0
 10
56.3087373916
 20
45.6381841318
 30
0.0
 10
56.3218863096
 20
45.6709947014
 30
0.0
  0
SPLINE
  5
265
100
AcDbEntity
  8
0
100
AcDbSpline
 62
7
  6
BYLAYER
 70
0
 71
3
 72
9
 73
5
 74
0
 42
0.0000001
 43
0.0000001
 44
0.0000000001
 40
0.0
 40
0.0
 40
0.0
 40
0.0
 40
0.2604421829
 40
1.0
 40
1.0
 40
1.0
 40
1.0
 10
56.3218863096
 20
45.6709947014
 30
0.0
 10
56.3231214123
 20
45.6740766603
 30
0.0
 10
56.3279257299
 20
45.685885157
 30
0.0
 10
56.3329856398
 20
45.6975906622
 30
0.0
 10
56.3369037397
 20
45.7061661916
 30
0.0
  0
SPLINE
  5
266
100
AcDbEntity
  8
0
100
AcDbSpline
 62
7
  6
BYLAYER
 70
0
 71
3
 72
23
 73
19
 74
0
 42
0.0000001
 43
0.0000001
 44
0.0000000001
 40
0.0
 40
0.0
 40
0.0
 40
0.0
 40
0.1944826673
 40
0.381596279
 40
0.5539277711
 40
0.632507086
 40
0.7049911182
 40
0.770686562
 40
0.8289810419
 40
0.8793083964
 40
0.9212240408
 40
0.9543269253
 40
0.967490342
 40
0.9783726056
 40
0.9869692459
 40
0.9933020647
 40
0.9974855919
 40
1.0
 40
1.0
 40
1.0
 40
1.0
 10
72.1148901348
 20
52.7207715099
 30
0.0
 10
72.1148901348
 20
52.9276143717
 30
0.0
 10
72.1140197338
 20
53.3334634562
 30
0.0
 10
72.1099491757
 20
53.9225837943
 30
0.0
 10
72.1039025204
 20
54.3884123232
 30
0.0
 10
72.0970764765
 20
54.7322939436
 30
0.0
 10
72.0911852931
 20
54.96275491
 30
0.0
 10
72.0843305407
 20
55.1716056489
 30
0.0
 10
72.0764938753
 20
55.3568389451
 30
0.0
 10
72.0676630115
 20
55.5167076392
 30
0.0
 10
72.0578819777
 20
55.649666363
 30
0.0
 10
72.0484582069
 20
55.7430058642
 30
0.0
 10
72.0400256061
 20
55.8032063503
 30
0.0
 10
72.0339435806
 20
55.8374000647
 30
0.0
 10
72.0278502955
 20
55.8641723013
 30
0.0
 10
72.0213023087
 20
55.8835204038
 30
0.0
 10
72.0153742939
 20
55.895962515
 30
0.0
 10
72.0088926666
 20
55.9007424136
 30
0.0
 10
72.0062184573
 20
55.9007426637
 30
0.0
  0
SPLINE
  5
267
100
AcDbEntity
  8
0
100
AcDbSpline
 62
7
  6
BYLAYER
 70
0
 71
3
 72
18
 73
14
 74
0
 42
0.0000001
 43
0.0000001
 44
0.0000000001
 40
0.0
 40
0.0
 40
0.0
 40
0.0
 40
0.0302146829
 40
0.0421238416
 40
0.0560231434
 40
0.0899548112
 40
0.1320933652
 40
0.1822120568
 40
0.2399797924
 40
0.3049070609
 40
0.4539179142
 40
0.6237951487
 40
1.0
 40
1.0
 40
1.0
 40
1.0
 10
71.0565263041
 20
49.540794945
 30
0.0
 10
71.0892132314
 20
49.5407925706
 30
0.0
 10
71.1259457936
 20
49.5847870484
 30
0.0
 10
71.1534256752
 20
49.6367440072
 30
0.0
 10
71.1793927591
 20
49.6965642585
 30
0.0
 10
71.2090030419
 20
49.7891392916
 30
0.0
 10
71.2412518804
 20
49.9219804695
 30
0.0
 10
71.2713975943
 20
50.0814707531
 30
0.0
 10
71.2992939453
 20
50.2663759043
 30
0.0
 10
71.3348056104
 20
50.5581859542
 30
0.0
 10
71.3705207487
 20
50.9719886571
 30
0.0
 10
71.4121139721
 20
51.7228626412
 30
0.0
 10
71.4231025138
 20
52.313784593
 30
0.0
 10
71.4231025138
 20
52.7207715099
 30
0.0
  0
SPLINE
  5
268
100
AcDbEntity
  8
0
100
AcDbSpline
 62
7
  6
BYLAYER
 70
0
 71
3
 72
18
 73
14
 74
0
 42
0.0000001
 43
0.0000001
 44
0.0000000001
 40
0.0
 40
0.0
 40
0.0
 40
0.0
 40
0.3761963454
 40
0.5460790892
 40
0.6950905968
 40
0.7600168051
 40
0.8177829348
 40
0.8679014934
 40
0.9100406624
 40
0.943972718
 40
0.9578730356
 40
0.9697833341
 40
1.0
 40
1.0
 40
1.0
 40
1.0
 10
71.4231025138
 20
52.7207715099
 30
0.0
 10
71.4231025138
 20
53.1277490306
 30
0.0
 10
71.4121129818
 20
53.7186673933
 30
0.0
 10
71.3705222886
 20
54.4695386286
 30
0.0
 10
71.3348068144
 20
54.8833466388
 30
0.0
 10
71.2992963969
 20
55.1751545087
 30
0.0
 10
71.2714001138
 20
55.3600565286
 30
0.0
 10
71.2412556537
 20
55.5195456668
 30
0.0
 10
71.209009052
 20
55.6523883664
 30
0.0
 10
71.1793972408
 20
55.7449651201
 30
0.0
 10
71.1534305794
 20
55.8047884809
 30
0.0
 10
71.1259512494
 20
55.8567506285
 30
0.0
 10
71.0892156516
 20
55.900748255
 30
0.0
 10
71.0565265947
 20
55.9007462001
 30
0.0
  0
SPLINE
  5
269
100
AcDbEntity
  8
0
100
AcDbSpline
 62
7
  6
BYLAYER
 70
0
 71
3
 72
15
 73
11
 74
0
 42
0.0000001
 43
0.0000001
 44
0.0000000001
 40
0.0
 40
0.0
 40
0.0
 40
0.0
 40
0.0248154212
 40
0.0559611411
 40
0.1368853377
 40
0.2411551646
 40
0.3661699701
 40
0.5086335631
 40
0.6646492024
 40
1.0
 40
1.0
 40
1.0
 40
1.0
 10
56.5346643115
 20
45.7068868473
 30
0.0
 10
56.5465484767
 20
45.6768616416
 30
0.0
 10
56.5685712176
 20
45.6072895006
 30
0.0
 10
56.6096295403
 20
45.433893863
 30
0.0
 10
56.6530495486
 20
45.1554037759
 30
0.0
 10
56.6956731812
 20
44.753965772
 30
0.0
 10
56.7307807245
 20
44.2714109079
 30
0.0
 10
56.7582457274
 20
43.7209883214
 30
0.0
 10
56.7849533008
 20
42.8966061863
 30
0.0
 10
56.7921186374
 20
42.2571537162
 30
0.0
 10
56.7921186374
 20
41.8207715099
 30
0.0
  0
SPLINE
  5
26A
100
AcDbEntity
  8
0
100
AcDbSpline
 62
7
  6
BYLAYER
 70
0
 71
3
 72
23
 73
19
 74
0
 42
0.0000001
 43
0.0000001
 44
0.0000000001
 40
0.0
 40
0.0
 40
0.0
 40
0.0
 40
0.0025141846
 40
0.0066976071
 40
0.0130307007
 40
0.0216267841
 40
0.0325079619
 40
0.0456703286
 40
0.0787728165
 40
0.1206865091
 40
0.1710135596
 40
0.2293109556
 40
0.2950100375
 40
0.367499543
 40
0.4460852025
 40
0.6184281882
 40
0.8055328935
 40
1.0
 40
1.0
 40
1.0
 40
1.0
 10
72.0062186154
 20
49.540800359
 30
0.0
 10
72.0088925874
 20
49.5408000217
 30
0.0
 10
72.0153749188
 20
49.5455787994
 30
0.0
 10
72.0213021901
 20
49.5580215145
 30
0.0
 10
72.0278490569
 20
49.5773693845
 30
0.0
 10
72.0339426043
 20
49.6041400929
 30
0.0
 10
72.0400246672
 20
49.6383308911
 30
0.0
 10
72.0484576153
 20
49.6985286283
 30
0.0
 10
72.0578799437
 20
49.7918646658
 30
0.0
 10
72.067662179
 20
49.92482047
 30
0.0
 10
72.0764931586
 20
50.0846899022
 30
0.0
 10
72.0843296576
 20
50.2699298802
 30
0.0
 10
72.0911853697
 20
50.478793417
 30
0.0
 10
72.0970770248
 20
50.7092708501
 30
0.0
 10
72.1039034652
 20
51.0531773113
 30
0.0
 10
72.1099494292
 20
51.5190154193
 30
0.0
 10
72.1140194085
 20
52.1081220465
 30
0.0
 10
72.1148901348
 20
52.5139451674
 30
0.0
 10
72.1148901348
 20
52.7207715099
 30
0.0
  0
SPLINE
  5
26B
100
AcDbEntity
  8
0
100
AcDbSpline
 62
7
  6
BYLAYER
 70
0
 71
3
 72
23
 73
19
 74
0
 42
0.0000001
 43
0.0000001
 44
0.0000000001
 40
0.0
 40
0.0
 40
0.0
 40
0.0
 40
0.1926134738
 40
0.3778551225
 40
0.548487493
 40
0.6262995782
 40
0.6980944645
 40
0.7632258636
 40
0.8210926081
 40
0.871209458
 40
0.9131613633
 40
0.9466939057
 40
0.9602847049
 40
0.9717769252
 40
0.9812425051
 40
0.9888376397
 40
0.9948795728
 40
1.0
 40
1.0
 40
1.0
 40
1.0
 10
56.7921186374
 20
41.8207715099
 30
0.0
 10
56.7921186374
 20
41.5601385011
 30
0.0
 10
56.7885582452
 20
41.0488387799
 30
0.0
 10
56.772414972
 20
40.3068075953
 30
0.0
 10
56.7493172154
 20
39.7203760495
 30
0.0
 10
56.7243413019
 20
39.2877557798
 30
0.0
 10
56.7033751277
 20
38.9979300299
 30
0.0
 10
56.6796888248
 20
38.7353956131
 30
0.0
 10
56.6533141098
 20
38.5026134992
 30
0.0
 10
56.6244608502
 20
38.3017418932
 30
0.0
 10
56.5932415663
 20
38.1346323775
 30
0.0
 10
56.5639256574
 20
38.0175511127
 30
0.0
 10
56.5383496821
 20
37.942419483
 30
0.0
 10
56.5200523516
 20
37.8993401352
 30
0.0
 10
56.5013017115
 20
37.865441359
 30
0.0
 10
56.481994361
 20
37.8406333869
 30
0.0
 10
56.4616956702
 20
37.8247123491
 30
0.0
 10
56.4464867894
 20
37.8207390902
 30
0.0
 10
56.4395581342
 20
37.8207390406
 30
0.0
  0
ENDSEC
  0
SECTION
  2
OBJECTS
  0
DICTIONARY
  5
C
100
AcDbDictionary
280
0
281
1
  3
ACAD_GROUP
350
D
  3
ACAD_MLINESTYLE
350
17
  3
ACAD_LAYOUT
350
1A
  3
ACAD_PLOTSETTINGS
350
19
  3
ACAD_PLOTSTYLENAME
350
E
  0
DICTIONARY
  5
D
102
{ACAD_REACTORS
330
C
102
}
100
AcDbDictionary
280
0
281
1
  0
ACDBDICTIONARYWDFLT
  5
E
102
{ACAD_REACTORS
330
C
102
}
100
AcDbDictionary
281
1
  3
Normal
350
F
100
AcDbDictionaryWithDefault
340
F
  0
DICTIONARY
  5
17
102
{ACAD_REACTORS
330
C
102
}
100
AcDbDictionary
280
0
281
1
  3
Standard
350
18
  0
DICTIONARY
  5
19
102
{ACAD_REACTORS
330
C
102
}
100
AcDbDictionary
281
1
  0
DICTIONARY
  5
1A
102
{ACAD_REACTORS
330
C
102
}
100
AcDbDictionary
281
1
  3
Model
350
26C
  3
Layout1
350
26D
  0
ACDBPLACEHOLDER
  5
F
102
{ACAD_REACTORS
330
E
102
}
  0
MLINESTYLE
  5
18
102
{ACAD_REACTORS
330
17
102
}
100
AcDbMlineStyle
  2
STANDARD
 70
0
  3

 62
256
 51
90.0
 52
90.0
 71
2
 49
0.5
 62
256
  6
BYLAYER
 49
-0.5
 62
256
  6
BYLAYER
  0
LAYOUT
  5
26C
102
{ACAD_REACTORS
330
1A
102
}
100
AcDbPlotSettings
  1

  2
none_device
  4

  6

 40
0.0
 41
0.0
 42
0.0
 43
0.0
 44
210.0
 45
297.0
 46
0.0
 47
0.0
 48
0.0
 49
0.0
140
0.0
141
0.0
142
1.0
143
1.0
 70
1024
 72
1
 73
0
 74
0
  7

 75
0
147
1.0
148
0.0
149
0.0
100
AcDbLayout
  1
Model
 70
0
 71
0
 10
0.0
 20
0.0
 11
210.0
 21
297.0
 12
0.0
 22
0.0
 32
0.0
 14
0.0
 24
0.0
 34
0.0
 15
0.0
 25
0.0
 35
0.0
146
0.0
 13
0.0
 23
0.0
 33
0.0
 16
1.0
 26
0.0
 36
0.0
 17
0.0
 27
1.0
 37
0.0
 76
0
330
210
345
0
346
0
  0
LAYOUT
  5
26D
102
{ACAD_REACTORS
330
1A
102
}
100
AcDbPlotSettings
  1

  2
none_device
  4

  6

 40
0.0
 41
0.0
 42
0.0
 43
0.0
 44
210.0
 45
297.0
 46
0.0
 47
0.0
 48
0.0
 49
0.0
140
0.0
141
0.0
142
1.0
143
1.0
 70
0
 72
1
 73
0
 74
0
  7

 75
0
147
1.0
148
0.0
149
0.0
100
AcDbLayout
  1
Layout1
 70
0
 71
1
 10
0.0
 20
0.0
 11
210.0
 21
297.0
 12
0.0
 22
0.0
 32
0.0
 14
0.0
 24
0.0
 34
0.0
 15
0.0
 25
0.0
 35
0.0
146
0.0
 13
0.0
 23
0.0
 33
0.0
 16
1.0
 26
0.0
 36
0.0
 17
0.0
 27
1.0
 37
0.0
 76
0
330
211
345
0
346
0
  0
ENDSEC
  0
EOF
