999
DXF file: C:\Users\sesa63760\Dev\_Creo\CAD\MCADID0002503_3D-CAD\drw0001_5.dxf
999
Pro/ENGINEER 2019471 by Parametric Technology Corporation
  0
SECTION
  2
HEADER
  9
$ACADVER
  1
AC1024
  9
$DWGCODEPAGE
  3
ANSI_1252
  9
$EXTMAX
 10
63.8982852036
 20
90.3704319308
 30
0.0
  9
$EXTMIN
 10
0.0
 20
0.0
 30
0.0
  9
$LIMMIN
 10
0.0
 20
0.0
  9
$LIMMAX
 10
63.8982852036
 20
90.3704319308
  9
$VIEWCTR
 10
31.9491426018
 20
45.1852159654
  9
$VIEWSIZE
 40
90.3704319308
  9
$CLAYER
  8
0
  9
$LTSCALE
 40
5.8908133407
  9
$CELTYPE
  6
BYLAYER
  9
$DIMSCALE
 40
1.0
  9
$DIMASZ
 40
0.7606938715
  9
$DIMEXO
 40
1.0
  9
$DIMDLI
 40
4.0700164899
  9
$DIMEXE
 40
1.0
  9
$DIMCEN
 40
0.9639512739
  9
$DIMLFAC
 40
1.0
  9
$DIMBLK
  1
_FILLED
  9
$DIMALT
 70
0
  9
$DIMALTF
 40
0.0393700787
  9
$DIMTXT
 40
1.0649714201
  9
$DIMTOL
 70
1
  9
$DIMLIM
 70
0
  9
$DIMTFAC
 40
1.0
  9
$DIMTP
 40
0.01
  9
$DIMTM
 40
0.01
  9
$DIMGAP
 40
0.625
  9
$DIMDSEP
 70
46
  9
$AUNITS
 70
0
  9
$PDMODE
 70
3
  9
$PDSIZE
 40
0.3125
  9
$HANDSEED
  5
241
  9
$TILEMODE
 70
1
  9
$MEASUREMENT
 70
1
  9
$INSUNITS
 70
4
  0
ENDSEC
  0
SECTION
  2
CLASSES
  0
CLASS
  1
ACDBDICTIONARYWDFLT
  2
AcDbDictionaryWithDefault
  3
AutoCAD 2000
 90
0
 91
1
280
0
281
0
  0
CLASS
  1
ACDBPLACEHOLDER
  2
AcDbPlaceHolder
  3
AutoCAD 2000
 90
0
 91
1
280
0
281
0
  0
CLASS
  1
LAYOUT
  2
AcDbLayout
  3
AutoCAD 2000
 90
0
 91
0
280
0
281
0
  0
ENDSEC
  0
SECTION
  2
TABLES
  0
TABLE
  2
VPORT
  5
8
100
AcDbSymbolTable
 70
2
  0
VPORT
  5
1F4
100
AcDbSymbolTableRecord
100
AcDbViewportTableRecord
  2
*ACTIVE
 70
0
 10
0.0
 20
0.0
 11
1.0
 21
1.0
 12
31.9491426018
 22
45.1852159654
 13
0.0
 23
0.0
 14
1.0
 24
1.0
 15
0.0
 25
0.0
 16
0.0
 26
0.0
 36
1.0
 17
0.0
 27
0.0
 37
0.0
 40
90.3704319308
 41
0.7070707071
 42
50.0
 43
0.0
 44
0.0
 50
0.0
 51
0.0
 71
0
 72
100
 73
1
 74
1
 75
0
 76
0
 77
0
 78
0
  0
ENDTAB
  0
TABLE
  2
LTYPE
  5
5
100
AcDbSymbolTable
 70
6
  0
LTYPE
  5
14
100
AcDbSymbolTableRecord
100
AcDbLinetypeTableRecord
  2
BYBLOCK
 70
0
  3

 72
65
 73
0
 40
0.0
  0
LTYPE
  5
15
100
AcDbSymbolTableRecord
100
AcDbLinetypeTableRecord
  2
BYLAYER
 70
0
  3

 72
65
 73
0
 40
0.0
  0
LTYPE
  5
16
100
AcDbSymbolTableRecord
100
AcDbLinetypeTableRecord
  2
CONTINUOUS
 70
64
  3
Solid line
 72
65
 73
0
 40
0.0
  0
LTYPE
  5
1F5
100
AcDbSymbolTableRecord
100
AcDbLinetypeTableRecord
  2
CENTER
 70
64
  3
____ _ ____ _ ____ _ ____ _ ____ _ ____ _ ____
 72
65
 73
4
 40
0.6
 49
0.375
 74
0
 49
-0.075
 74
0
 49
0.075
 74
0
 49
-0.075
 74
0
  0
LTYPE
  5
1F6
100
AcDbSymbolTableRecord
100
AcDbLinetypeTableRecord
  2
HIDDEN
 70
64
  3
- - - - - - - - - - - - - - - - - - - -
 72
65
 73
2
 40
0.2
 49
0.1
 74
0
 49
-0.1
 74
0
  0
LTYPE
  5
1F7
100
AcDbSymbolTableRecord
100
AcDbLinetypeTableRecord
  2
PHANTOM
 70
64
  3
_____ _ _ _____ _ _ _____ _ _ _____
 72
65
 73
6
 40
0.8
 49
0.45
 74
0
 49
-0.05
 74
0
 49
0.1
 74
0
 49
-0.05
 74
0
 49
0.1
 74
0
 49
-0.05
 74
0
  0
LTYPE
  5
1F8
100
AcDbSymbolTableRecord
100
AcDbLinetypeTableRecord
  2
DOT
 70
64
  3
. . . . . . . . . . . . . . . . . . . .
 72
65
 73
2
 40
0.2
 49
0.1
 74
0
 49
-0.1
 74
0
  0
LTYPE
  5
1F9
100
AcDbSymbolTableRecord
100
AcDbLinetypeTableRecord
  2
DASHED
 70
64
  3
- - - - - - - - - - - - - - - - - - - -
 72
65
 73
2
 40
0.2
 49
0.1
 74
0
 49
-0.1
 74
0
  0
ENDTAB
  0
TABLE
  2
LAYER
  5
2
100
AcDbSymbolTable
 70
36
  0
LAYER
  5
10
100
AcDbSymbolTableRecord
100
AcDbLayerTableRecord
  2
0
 70
0
 62
7
  6
CONTINUOUS
370
-3
390
F
  0
LAYER
  5
1FA
100
AcDbSymbolTableRecord
100
AcDbLayerTableRecord
  2
DEFAULT_1
 70
0
 62
7
  6
CENTER
370
-3
390
F
  0
LAYER
  5
1FB
100
AcDbSymbolTableRecord
100
AcDbLayerTableRecord
  2
DEFAULT_2
 70
0
 62
7
  6
HIDDEN
370
-3
390
F
  0
LAYER
  5
1FC
100
AcDbSymbolTableRecord
100
AcDbLayerTableRecord
  2
DEFAULT_3
 70
0
 62
7
  6
PHANTOM
370
-3
390
F
  0
LAYER
  5
1FD
100
AcDbSymbolTableRecord
100
AcDbLayerTableRecord
  2
00_COMPONENTS
 70
0
 62
7
  6
CONTINUOUS
370
-3
390
F
  0
LAYER
  5
1FE
100
AcDbSymbolTableRecord
100
AcDbLayerTableRecord
  2
01_1_DEFAULT_DATUMS
 70
0
 62
7
  6
CONTINUOUS
370
-3
390
F
  0
LAYER
  5
1FF
100
AcDbSymbolTableRecord
100
AcDbLayerTableRecord
  2
01_PLANES
 70
0
 62
7
  6
CONTINUOUS
370
-3
390
F
  0
LAYER
  5
200
100
AcDbSymbolTableRecord
100
AcDbLayerTableRecord
  2
02_COORD_SYS
 70
0
 62
7
  6
CONTINUOUS
370
-3
390
F
  0
LAYER
  5
201
100
AcDbSymbolTableRecord
100
AcDbLayerTableRecord
  2
03_AXES
 70
0
 62
7
  6
CONTINUOUS
370
-3
390
F
  0
LAYER
  5
202
100
AcDbSymbolTableRecord
100
AcDbLayerTableRecord
  2
04_POINTS
 70
0
 62
7
  6
CONTINUOUS
370
-3
390
F
  0
LAYER
  5
203
100
AcDbSymbolTableRecord
100
AcDbLayerTableRecord
  2
05_CURVES
 70
0
 62
7
  6
CONTINUOUS
370
-3
390
F
  0
LAYER
  5
204
100
AcDbSymbolTableRecord
100
AcDbLayerTableRecord
  2
06_SURFS
 70
0
 62
7
  6
CONTINUOUS
370
-3
390
F
  0
LAYER
  5
205
100
AcDbSymbolTableRecord
100
AcDbLayerTableRecord
  2
07_COSMETICS
 70
0
 62
7
  6
CONTINUOUS
370
-3
390
F
  0
LAYER
  5
206
100
AcDbSymbolTableRecord
100
AcDbLayerTableRecord
  2
10_NOTES
 70
0
 62
7
  6
CONTINUOUS
370
-3
390
F
  0
LAYER
  5
207
100
AcDbSymbolTableRecord
100
AcDbLayerTableRecord
  2
11_NOTES_PUB
 70
0
 62
7
  6
CONTINUOUS
370
-3
390
F
  0
LAYER
  5
208
100
AcDbSymbolTableRecord
100
AcDbLayerTableRecord
  2
13_REF_GTOL
 70
0
 62
7
  6
CONTINUOUS
370
-3
390
F
  0
LAYER
  5
209
100
AcDbSymbolTableRecord
100
AcDbLayerTableRecord
  2
16_MISC
 70
0
 62
7
  6
CONTINUOUS
370
-3
390
F
  0
LAYER
  5
20A
100
AcDbSymbolTableRecord
100
AcDbLayerTableRecord
  2
17_NO_PRINT
 70
0
 62
7
  6
CONTINUOUS
370
-3
390
F
  0
LAYER
  5
20B
100
AcDbSymbolTableRecord
100
AcDbLayerTableRecord
  2
18_DATUM_CAMS_JOINTS
 70
0
 62
7
  6
CONTINUOUS
370
-3
390
F
  0
LAYER
  5
20C
100
AcDbSymbolTableRecord
100
AcDbLayerTableRecord
  2
19_DATUM_FUNCTIONAL
 70
0
 62
7
  6
CONTINUOUS
370
-3
390
F
  0
LAYER
  5
20D
100
AcDbSymbolTableRecord
100
AcDbLayerTableRecord
  2
20_DATUM_KINEMATIC_SCHEME
 70
0
 62
7
  6
CONTINUOUS
370
-3
390
F
  0
ENDTAB
  0
TABLE
  2
STYLE
  5
3
100
AcDbSymbolTable
 70
1
  0
STYLE
  5
11
100
AcDbSymbolTableRecord
100
AcDbTextStyleTableRecord
  2
STANDARD
 70
0
 40
0.0
 41
1.0
 50
0.0
 71
0
 42
0.2
  3
ARIAL.TTF
  4

  0
STYLE
  5
20E
100
AcDbSymbolTableRecord
100
AcDbTextStyleTableRecord
  2
TEXTSTYLE_1
 70
0
 40
0.0
 41
0.8
 50
0.0
 71
0
 42
0.2
  3
gdt
  4

  0
ENDTAB
  0
TABLE
  2
VIEW
  5
6
100
AcDbSymbolTable
 70
0
  0
ENDTAB
  0
TABLE
  2
UCS
  5
7
100
AcDbSymbolTable
 70
0
  0
ENDTAB
  0
TABLE
  2
APPID
  5
9
100
AcDbSymbolTable
 70
1
  0
APPID
  5
20F
100
AcDbSymbolTableRecord
100
AcDbRegAppTableRecord
  2
ACAD
 70
0
  0
ENDTAB
  0
TABLE
  2
BLOCK_RECORD
  5
1
100
AcDbSymbolTable
 70
0
  0
BLOCK_RECORD
  5
210
100
AcDbSymbolTableRecord
100
AcDbBlockTableRecord
  2
*Model_Space
  0
BLOCK_RECORD
  5
211
100
AcDbSymbolTableRecord
100
AcDbBlockTableRecord
  2
*Paper_Space
  0
BLOCK_RECORD
  5
212
100
AcDbSymbolTableRecord
100
AcDbBlockTableRecord
  2
_FILLED
  0
ENDTAB
  0
TABLE
  2
DIMSTYLE
  5
A
100
AcDbSymbolTable
 70
1
100
AcDbDimStyleTable
 71
0
  0
DIMSTYLE
105
213
100
AcDbSymbolTableRecord
100
AcDbDimStyleTableRecord
  2
STANDARD
 70
0
  3

  4

 40
1.0
 41
0.7606938715
 42
1.0
 43
0.38
 44
1.0
 45
0.0
 46
0.0
 47
0.01
 48
0.01
140
1.0649714201
141
0.09
142
0.0
143
25.4
144
1.0
145
0.0
146
1.0
147
0.625
 71
1
 72
0
 73
0
 74
0
 75
0
 76
0
 77
1
 78
8
 79
2
170
0
171
1
172
0
173
0
174
0
175
0
176
0
177
0
178
0
270
2
179
2
271
2
272
2
273
2
274
2
275
0
280
0
281
0
282
0
283
1
284
8
285
0
286
0
287
3
288
0
340
11
278
46
341
212
342
212
343
212
344
212
  0
ENDTAB
  0
ENDSEC
  0
SECTION
  2
BLOCKS
  0
BLOCK
  5
20
100
AcDbEntity
  8
0
100
AcDbBlockBegin
  2
*Model_Space
 70
0
 10
0.0
 20
0.0
 30
0.0
  3
*Model_Space
  1

  0
ENDBLK
  5
21
100
AcDbEntity
  8
0
100
AcDbBlockEnd
  0
BLOCK
  5
1C
100
AcDbEntity
  8
0
100
AcDbBlockBegin
  2
*Paper_Space
 70
0
 10
0.0
 20
0.0
 30
0.0
  3
*Paper_Space
  1

  0
ENDBLK
  5
1D
100
AcDbEntity
  8
0
100
AcDbBlockEnd
  0
BLOCK
  5
214
100
AcDbEntity
  8
0
100
AcDbBlockBegin
  2
_FILLED
 70
64
 10
0.0
 20
0.0
  3
_FILLED
  1

  0
SOLID
  5
215
100
AcDbEntity
  8
0
  6
BYBLOCK
 62
0
100
AcDbTrace
 10
0.0
 20
0.0
 11
-1.0
 21
0.25
 12
-1.0
 22
-0.25
 13
-1.0
 23
-0.25
  0
ENDBLK
  5
216
100
AcDbEntity
  8
0
  6
BYBLOCK
 62
0
100
AcDbBlockEnd
  0
ENDSEC
  0
SECTION
  2
ENTITIES
  0
LINE
  5
217
100
AcDbEntity
  8
0
100
AcDbLine
 62
7
  6
BYLAYER
 10
7.4196258478
 20
44.5020784892
 11
7.4196258478
 21
52.4395784892
  0
LINE
  5
218
100
AcDbEntity
  8
0
100
AcDbLine
 62
7
  6
BYLAYER
 10
9.7444657722
 20
44.5020784892
 11
9.7444657722
 21
52.4395784892
  0
LINE
  5
219
100
AcDbEntity
  8
0
100
AcDbLine
 62
7
  6
BYLAYER
 10
21.8379856822
 20
44.5020784892
 11
21.8379856822
 21
44.559418179
  0
LINE
  5
21A
100
AcDbEntity
  8
0
100
AcDbLine
 62
7
  6
BYLAYER
 10
21.8379856822
 20
52.3822387993
 11
21.8379856822
 21
52.4395784892
  0
LINE
  5
21B
100
AcDbEntity
  8
0
100
AcDbLine
 62
7
  6
BYLAYER
 10
55.0446166599
 20
38.1520784892
 11
45.5196350358
 21
38.1520784892
  0
LINE
  5
21C
100
AcDbEntity
  8
0
100
AcDbLine
 62
7
  6
BYLAYER
 10
58.2196146977
 20
40.1364534892
 11
42.344636998
 21
40.1364534892
  0
LINE
  5
21D
100
AcDbEntity
  8
0
100
AcDbLine
 62
7
  6
BYLAYER
 10
29.6446258478
 20
46.4864534892
 11
27.6602508478
 21
44.5020784892
  0
LINE
  5
21E
100
AcDbEntity
  8
0
100
AcDbLine
 62
7
  6
BYLAYER
 10
27.6602508478
 20
44.5020784892
 11
7.4198655805
 21
44.5020784892
  0
LINE
  5
21F
100
AcDbEntity
  8
0
100
AcDbLine
 62
7
  6
BYLAYER
 10
13.9539608289
 20
45.2958284892
 11
16.1990248592
 21
45.2958284892
  0
LINE
  5
220
100
AcDbEntity
  8
0
100
AcDbLine
 62
7
  6
BYLAYER
 10
42.344636998
 20
45.6927034892
 11
58.2196146977
 21
45.6927034892
  0
LINE
  5
221
100
AcDbEntity
  8
0
100
AcDbLine
 62
7
  6
BYLAYER
 10
55.0444692802
 20
45.9308284892
 11
45.5197824155
 21
45.9308284892
  0
LINE
  5
222
100
AcDbEntity
  8
0
100
AcDbLine
 62
7
  6
BYLAYER
 10
50.7150803933
 20
46.4864534892
 11
29.6446258478
 21
46.4864534892
  0
LINE
  5
223
100
AcDbEntity
  8
0
100
AcDbLine
 62
7
  6
BYLAYER
 10
27.6602508478
 20
52.4395784892
 11
29.6446258478
 21
50.4552034892
  0
LINE
  5
224
100
AcDbEntity
  8
0
100
AcDbLine
 62
7
  6
BYLAYER
 10
29.6446258478
 20
50.4552034892
 11
50.7150803933
 21
50.4552034892
  0
LINE
  5
225
100
AcDbEntity
  8
0
100
AcDbLine
 62
7
  6
BYLAYER
 10
45.5197753244
 20
51.0108284892
 11
55.0444763713
 21
51.0108284892
  0
LINE
  5
226
100
AcDbEntity
  8
0
100
AcDbLine
 62
7
  6
BYLAYER
 10
13.9539608289
 20
51.6458284892
 11
16.1990248592
 21
51.6458284892
  0
LINE
  5
227
100
AcDbEntity
  8
0
100
AcDbLine
 62
7
  6
BYLAYER
 10
48.1391512766
 20
51.6458284892
 11
52.4251004191
 21
51.6458284892
  0
LINE
  5
228
100
AcDbEntity
  8
0
100
AcDbLine
 62
7
  6
BYLAYER
 10
7.4198471486
 20
52.4395784892
 11
27.6602508478
 21
52.4395784892
  0
LINE
  5
229
100
AcDbEntity
  8
0
100
AcDbLine
 62
7
  6
BYLAYER
 10
42.3446258478
 20
45.6927034892
 11
42.3446258478
 21
40.1364534892
  0
LINE
  5
22A
100
AcDbEntity
  8
0
100
AcDbLine
 62
7
  6
BYLAYER
 10
45.5196258478
 20
40.1364534892
 11
45.5196258478
 21
38.1520784892
  0
LINE
  5
22B
100
AcDbEntity
  8
0
100
AcDbLine
 62
7
  6
BYLAYER
 10
45.5196258478
 20
45.9308284892
 11
45.5196258478
 21
46.4864534892
  0
LINE
  5
22C
100
AcDbEntity
  8
0
100
AcDbLine
 62
7
  6
BYLAYER
 10
45.5196258478
 20
50.4552034892
 11
45.5196258478
 21
51.0108284892
  0
LINE
  5
22D
100
AcDbEntity
  8
0
100
AcDbLine
 62
7
  6
BYLAYER
 10
48.1390008478
 20
51.6458284892
 11
48.1390008478
 21
51.0108284892
  0
LINE
  5
22E
100
AcDbEntity
  8
0
100
AcDbLine
 62
7
  6
BYLAYER
 10
48.1390008478
 20
45.9308284892
 11
48.1390008478
 21
45.6927034892
  0
LINE
  5
22F
100
AcDbEntity
  8
0
100
AcDbLine
 62
7
  6
BYLAYER
 10
50.7150803933
 20
50.4552034892
 11
50.7150803933
 21
46.4864534892
  0
LINE
  5
230
100
AcDbEntity
  8
0
100
AcDbLine
 62
7
  6
BYLAYER
 10
52.4252508478
 20
51.6458284892
 11
52.4252508478
 21
51.0108284892
  0
LINE
  5
231
100
AcDbEntity
  8
0
100
AcDbLine
 62
7
  6
BYLAYER
 10
52.4252508478
 20
45.9308284892
 11
52.4252508478
 21
45.6927034892
  0
LINE
  5
232
100
AcDbEntity
  8
0
100
AcDbLine
 62
7
  6
BYLAYER
 10
55.0446258478
 20
40.1364534892
 11
55.0446258478
 21
38.1520784892
  0
LINE
  5
233
100
AcDbEntity
  8
0
100
AcDbLine
 62
7
  6
BYLAYER
 10
55.0446258478
 20
45.9308284892
 11
55.0446258478
 21
51.0108284892
  0
LINE
  5
234
100
AcDbEntity
  8
0
100
AcDbLine
 62
7
  6
BYLAYER
 10
58.2196258478
 20
45.6927034892
 11
58.2196258478
 21
40.1364534892
  0
SPLINE
  5
235
100
AcDbEntity
  8
0
100
AcDbSpline
 62
7
  6
BYLAYER
 70
0
 71
3
 72
17
 73
13
 74
0
 42
0.0000001
 43
0.0000001
 44
0.0000000001
 40
0.0
 40
0.0
 40
0.0
 40
0.0
 40
0.0514970983
 40
0.1034834149
 40
0.1564148772
 40
0.2106909592
 40
0.324281385
 40
0.4459580187
 40
0.575824424
 40
0.7128195953
 40
0.8550449017
 40
1.0
 40
1.0
 40
1.0
 40
1.0
 10
13.9539608329
 20
51.645804794
 30
0.0
 10
13.8804336804
 20
51.6458050233
 30
0.0
 10
13.732475067
 20
51.6355108781
 30
0.0
 10
13.5133171574
 20
51.5892676318
 30
0.0
 10
13.2985285763
 20
51.5128663207
 30
0.0
 10
13.01682986
 20
51.3696945047
 30
0.0
 10
12.6857369307
 20
51.1155513737
 30
0.0
 10
12.3461305286
 20
50.7157586251
 30
0.0
 10
12.0688097424
 20
50.2320954241
 30
0.0
 10
11.8634334958
 20
49.6827904103
 30
0.0
 10
11.7372091619
 20
49.0884126805
 30
0.0
 10
11.7088967987
 20
48.6777942402
 30
0.0
 10
11.7088967987
 20
48.4708284892
 30
0.0
  0
SPLINE
  5
236
100
AcDbEntity
  8
0
100
AcDbSpline
 62
7
  6
BYLAYER
 70
0
 71
3
 72
17
 73
13
 74
0
 42
0.0000001
 43
0.0000001
 44
0.0000000001
 40
0.0
 40
0.0
 40
0.0
 40
0.0
 40
0.144953962
 40
0.2871763344
 40
0.4241702036
 40
0.5540358704
 40
0.6757136362
 40
0.7893061132
 40
0.8435831656
 40
0.8965155318
 40
0.9485024606
 40
1.0
 40
1.0
 40
1.0
 40
1.0
 10
11.7088967987
 20
48.4708284892
 30
0.0
 10
11.7088967987
 20
48.2638643109
 30
0.0
 10
11.7372077251
 20
47.8532514915
 30
0.0
 10
11.8634299739
 20
47.2588811929
 30
0.0
 10
12.068798862
 20
46.7095809811
 30
0.0
 10
12.3461159653
 20
46.2259169793
 30
0.0
 10
12.6857210272
 20
45.8261184916
 30
0.0
 10
13.0168169858
 20
45.5719688024
 30
0.0
 10
13.2985207841
 20
45.428794513
 30
0.0
 10
13.5133120755
 20
45.3523900742
 30
0.0
 10
13.7324729225
 20
45.3061463739
 30
0.0
 10
13.880433025
 20
45.2958524136
 30
0.0
 10
13.9539608249
 20
45.2958521843
 30
0.0
  0
SPLINE
  5
237
100
AcDbEntity
  8
0
100
AcDbSpline
 62
7
  6
BYLAYER
 70
0
 71
3
 72
27
 73
23
 74
0
 42
0.0000001
 43
0.0000001
 44
0.0000000001
 40
0.0
 40
0.0
 40
0.0
 40
0.0
 40
0.0257359201
 40
0.0517418929
 40
0.0782117576
 40
0.1053466225
 40
0.1621426859
 40
0.2229812762
 40
0.287914925
 40
0.3564141188
 40
0.4275208919
 40
0.4999993536
 40
0.5724775428
 40
0.6435835698
 40
0.7120820094
 40
0.7770154656
 40
0.8378546063
 40
0.8946515028
 40
0.9217868452
 40
0.948257374
 40
0.9742639005
 40
1.0
 40
1.0
 40
1.0
 40
1.0
 10
20.4646465167
 20
52.4395784892
 30
0.0
 10
20.5565106144
 20
52.4395784892
 30
0.0
 10
20.7414491228
 20
52.4266156439
 30
0.0
 10
21.0154402
 20
52.3689499213
 30
0.0
 10
21.2839532323
 20
52.2733598277
 30
0.0
 10
21.6360997119
 20
52.0944355795
 30
0.0
 10
22.0499483418
 20
51.776729481
 30
0.0
 10
22.4744500147
 20
51.2769826869
 30
0.0
 10
22.8211116595
 20
50.6723876662
 30
0.0
 10
23.0777963287
 20
49.9857872789
 30
0.0
 10
23.235592334
 20
49.2427079832
 30
0.0
 10
23.2888290055
 20
48.4708367041
 30
0.0
 10
23.235594636
 20
47.698967973
 30
0.0
 10
23.077802844
 20
46.9558943156
 30
0.0
 10
22.8211241642
 20
46.2692983164
 30
0.0
 10
22.474468578
 20
45.664701474
 30
0.0
 10
22.0499683619
 20
45.1649480101
 30
0.0
 10
21.6361182315
 20
44.8472327011
 30
0.0
 10
21.2839665547
 20
44.6683029842
 30
0.0
 10
21.0154482561
 20
44.5727094017
 30
0.0
 10
20.7414523039
 20
44.5150426587
 30
0.0
 10
20.5565112547
 20
44.5020784892
 30
0.0
 10
20.4646465167
 20
44.5020784892
 30
0.0
  0
SPLINE
  5
238
100
AcDbEntity
  8
0
100
AcDbSpline
 62
7
  6
BYLAYER
 70
0
 71
3
 72
17
 73
13
 74
0
 42
0.0000001
 43
0.0000001
 44
0.0000000001
 40
0.0
 40
0.0
 40
0.0
 40
0.0
 40
0.0514970983
 40
0.1034834149
 40
0.1564148772
 40
0.2106909592
 40
0.324281385
 40
0.4459580187
 40
0.575824424
 40
0.7128195953
 40
0.8550449017
 40
1.0
 40
1.0
 40
1.0
 40
1.0
 10
13.9539608249
 20
45.2958521843
 30
0.0
 10
14.0274879775
 20
45.2958519551
 30
0.0
 10
14.1754465908
 20
45.3061461003
 30
0.0
 10
14.3946045005
 20
45.3523893465
 30
0.0
 10
14.6093930815
 20
45.4287906576
 30
0.0
 10
14.8910917978
 20
45.5719624736
 30
0.0
 10
15.2221847272
 20
45.8261056047
 30
0.0
 10
15.5617911293
 20
46.2258983532
 30
0.0
 10
15.8391119155
 20
46.7095615543
 30
0.0
 10
16.0444881621
 20
47.258866568
 30
0.0
 10
16.170712496
 20
47.8532442978
 30
0.0
 10
16.1990248592
 20
48.2638627381
 30
0.0
 10
16.1990248592
 20
48.4708284892
 30
0.0
  0
SPLINE
  5
239
100
AcDbEntity
  8
0
100
AcDbSpline
 62
7
  6
BYLAYER
 70
0
 71
3
 72
17
 73
13
 74
0
 42
0.0000001
 43
0.0000001
 44
0.0000000001
 40
0.0
 40
0.0
 40
0.0
 40
0.0
 40
0.0514970983
 40
0.1034834149
 40
0.1564148772
 40
0.2106909592
 40
0.324281385
 40
0.4459580187
 40
0.575824424
 40
0.7128195953
 40
0.8550449017
 40
1.0
 40
1.0
 40
1.0
 40
1.0
 10
16.1990248552
 20
51.645804794
 30
0.0
 10
16.2725520078
 20
51.6458050233
 30
0.0
 10
16.4205106211
 20
51.6355108781
 30
0.0
 10
16.6396685307
 20
51.5892676318
 30
0.0
 10
16.8544571118
 20
51.5128663207
 30
0.0
 10
17.1361558281
 20
51.3696945047
 30
0.0
 10
17.4672487574
 20
51.1155513737
 30
0.0
 10
17.8068551595
 20
50.7157586251
 30
0.0
 10
18.0841759458
 20
50.2320954241
 30
0.0
 10
18.2895521924
 20
49.6827904103
 30
0.0
 10
18.4157765262
 20
49.0884126805
 30
0.0
 10
18.4440888895
 20
48.6777942402
 30
0.0
 10
18.4440888895
 20
48.4708284892
 30
0.0
  0
SPLINE
  5
23A
100
AcDbEntity
  8
0
100
AcDbSpline
 62
7
  6
BYLAYER
 70
0
 71
3
 72
23
 73
19
 74
0
 42
0.0000001
 43
0.0000001
 44
0.0000000001
 40
0.0
 40
0.0
 40
0.0
 40
0.0
 40
0.0519348128
 40
0.1065174237
 40
0.1644740417
 40
0.2260639401
 40
0.2910868738
 40
0.3589910542
 40
0.4289578254
 40
0.4999979412
 40
0.5710379155
 40
0.6410043469
 40
0.7089084708
 40
0.7739320053
 40
0.8355231014
 40
0.8934808667
 40
0.948064743
 40
1.0
 40
1.0
 40
1.0
 40
1.0
 10
21.8379856822
 20
44.559418179
 30
0.0
 10
22.0019931765
 20
44.5992784743
 30
0.0
 10
22.3292881192
 20
44.7230254676
 30
0.0
 10
22.7780433218
 20
45.0202425181
 30
0.0
 10
23.1814339762
 20
45.4218506915
 30
0.0
 10
23.5280434766
 20
45.9146791133
 30
0.0
 10
23.8083821969
 20
46.4838329368
 30
0.0
 10
24.0145892958
 20
47.112252163
 30
0.0
 10
24.1407532673
 20
47.7812322412
 30
0.0
 10
24.1832241487
 20
48.4708075866
 30
0.0
 10
24.1407587834
 20
49.1603821539
 30
0.0
 10
24.0146006838
 20
49.8293615463
 30
0.0
 10
23.8083987924
 20
50.4577831497
 30
0.0
 10
23.5280626514
 20
51.0269446353
 30
0.0
 10
23.1814514389
 20
51.5197835146
 30
0.0
 10
22.7780566203
 20
51.9214043823
 30
0.0
 10
22.3292943686
 20
52.2186280516
 30
0.0
 10
22.0019945791
 20
52.3423781632
 30
0.0
 10
21.8379856822
 20
52.3822387993
 30
0.0
  0
SPLINE
  5
23B
100
AcDbEntity
  8
0
100
AcDbSpline
 62
7
  6
BYLAYER
 70
0
 71
3
 72
17
 73
13
 74
0
 42
0.0000001
 43
0.0000001
 44
0.0000000001
 40
0.0
 40
0.0
 40
0.0
 40
0.0
 40
0.144953962
 40
0.2871763344
 40
0.4241702036
 40
0.5540358704
 40
0.6757136362
 40
0.7893061132
 40
0.8435831656
 40
0.8965155318
 40
0.9485024606
 40
1.0
 40
1.0
 40
1.0
 40
1.0
 10
16.1990248592
 20
48.4708284892
 30
0.0
 10
16.1990248592
 20
48.6777926675
 30
0.0
 10
16.1707139328
 20
49.0884054868
 30
0.0
 10
16.044491684
 20
49.6827757854
 30
0.0
 10
15.8391227959
 20
50.2320759972
 30
0.0
 10
15.5618056926
 20
50.715739999
 30
0.0
 10
15.2222006306
 20
51.1155384867
 30
0.0
 10
14.891104672
 20
51.3696881759
 30
0.0
 10
14.6094008738
 20
51.5128624654
 30
0.0
 10
14.3946095824
 20
51.5892669041
 30
0.0
 10
14.1754487354
 20
51.6355106044
 30
0.0
 10
14.0274886329
 20
51.6458045648
 30
0.0
 10
13.9539608329
 20
51.645804794
 30
0.0
  0
SPLINE
  5
23C
100
AcDbEntity
  8
0
100
AcDbSpline
 62
7
  6
BYLAYER
 70
0
 71
3
 72
27
 73
23
 74
0
 42
0.0000001
 43
0.0000001
 44
0.0000000001
 40
0.0
 40
0.0
 40
0.0
 40
0.0
 40
0.0257359201
 40
0.0517418929
 40
0.0782117576
 40
0.1053466225
 40
0.1621426859
 40
0.2229812762
 40
0.287914925
 40
0.3564141188
 40
0.4275208919
 40
0.4999993536
 40
0.5724775428
 40
0.6435835698
 40
0.7120820094
 40
0.7770154656
 40
0.8378546063
 40
0.8946515028
 40
0.9217868452
 40
0.948257374
 40
0.9742639005
 40
1.0
 40
1.0
 40
1.0
 40
1.0
 10
16.1990248592
 20
44.5020784892
 30
0.0
 10
16.2908889569
 20
44.5020784892
 30
0.0
 10
16.4758274653
 20
44.5150413344
 30
0.0
 10
16.7498185425
 20
44.572707057
 30
0.0
 10
17.0183315748
 20
44.6682971507
 30
0.0
 10
17.3704780544
 20
44.8472213988
 30
0.0
 10
17.7843266843
 20
45.1649274973
 30
0.0
 10
18.2088283572
 20
45.6646742915
 30
0.0
 10
18.555490002
 20
46.2692693122
 30
0.0
 10
18.8121746712
 20
46.9558696995
 30
0.0
 10
18.9699706765
 20
47.6989489951
 30
0.0
 10
19.023207348
 20
48.4708202743
 30
0.0
 10
18.9699729785
 20
49.2426890054
 30
0.0
 10
18.8121811865
 20
49.9857626627
 30
0.0
 10
18.5555025067
 20
50.6723586619
 30
0.0
 10
18.2088469205
 20
51.2769555044
 30
0.0
 10
17.7843467044
 20
51.7767089683
 30
0.0
 10
17.370496574
 20
52.0944242773
 30
0.0
 10
17.0183448972
 20
52.2733539942
 30
0.0
 10
16.7498265986
 20
52.3689475766
 30
0.0
 10
16.4758306463
 20
52.4266143197
 30
0.0
 10
16.2908895971
 20
52.4395784892
 30
0.0
 10
16.1990248592
 20
52.4395784892
 30
0.0
  0
SPLINE
  5
23D
100
AcDbEntity
  8
0
100
AcDbSpline
 62
7
  6
BYLAYER
 70
0
 71
3
 72
17
 73
13
 74
0
 42
0.0000001
 43
0.0000001
 44
0.0000000001
 40
0.0
 40
0.0
 40
0.0
 40
0.0
 40
0.144953962
 40
0.2871763344
 40
0.4241702036
 40
0.5540358704
 40
0.6757136362
 40
0.7893061132
 40
0.8435831656
 40
0.8965155318
 40
0.9485024606
 40
1.0
 40
1.0
 40
1.0
 40
1.0
 10
18.4440888895
 20
48.4708284892
 30
0.0
 10
18.4440888895
 20
48.2638643109
 30
0.0
 10
18.4157779631
 20
47.8532514915
 30
0.0
 10
18.2895557142
 20
47.2588811929
 30
0.0
 10
18.0841868262
 20
46.7095809811
 30
0.0
 10
17.8068697229
 20
46.2259169793
 30
0.0
 10
17.4672646609
 20
45.8261184916
 30
0.0
 10
17.1361687023
 20
45.5719688024
 30
0.0
 10
16.854464904
 20
45.428794513
 30
0.0
 10
16.6396736126
 20
45.3523900742
 30
0.0
 10
16.4205127657
 20
45.3061463739
 30
0.0
 10
16.2725526632
 20
45.2958524136
 30
0.0
 10
16.1990248632
 20
45.2958521843
 30
0.0
  0
ELLIPSE
  5
23E
100
AcDbEntity
  8
0
100
AcDbEllipse
 62
7
  6
BYLAYER
 10
20.7918608837
 20
48.4708284892
 30
0.0
 11
6.1764942832
 21
-0.0
 31
0.0
 40
0.6425570587
 41
-1.4006039631
 42
1.4006039631
  0
ENDSEC
  0
SECTION
  2
OBJECTS
  0
DICTIONARY
  5
C
100
AcDbDictionary
280
0
281
1
  3
ACAD_GROUP
350
D
  3
ACAD_MLINESTYLE
350
17
  3
ACAD_LAYOUT
350
1A
  3
ACAD_PLOTSETTINGS
350
19
  3
ACAD_PLOTSTYLENAME
350
E
  0
DICTIONARY
  5
D
102
{ACAD_REACTORS
330
C
102
}
100
AcDbDictionary
280
0
281
1
  0
ACDBDICTIONARYWDFLT
  5
E
102
{ACAD_REACTORS
330
C
102
}
100
AcDbDictionary
281
1
  3
Normal
350
F
100
AcDbDictionaryWithDefault
340
F
  0
DICTIONARY
  5
17
102
{ACAD_REACTORS
330
C
102
}
100
AcDbDictionary
280
0
281
1
  3
Standard
350
18
  0
DICTIONARY
  5
19
102
{ACAD_REACTORS
330
C
102
}
100
AcDbDictionary
281
1
  0
DICTIONARY
  5
1A
102
{ACAD_REACTORS
330
C
102
}
100
AcDbDictionary
281
1
  3
Model
350
23F
  3
Layout1
350
240
  0
ACDBPLACEHOLDER
  5
F
102
{ACAD_REACTORS
330
E
102
}
  0
MLINESTYLE
  5
18
102
{ACAD_REACTORS
330
17
102
}
100
AcDbMlineStyle
  2
STANDARD
 70
0
  3

 62
256
 51
90.0
 52
90.0
 71
2
 49
0.5
 62
256
  6
BYLAYER
 49
-0.5
 62
256
  6
BYLAYER
  0
LAYOUT
  5
23F
102
{ACAD_REACTORS
330
1A
102
}
100
AcDbPlotSettings
  1

  2
none_device
  4

  6

 40
0.0
 41
0.0
 42
0.0
 43
0.0
 44
210.0
 45
297.0
 46
0.0
 47
0.0
 48
0.0
 49
0.0
140
0.0
141
0.0
142
1.0
143
1.0
 70
1024
 72
1
 73
0
 74
0
  7

 75
0
147
1.0
148
0.0
149
0.0
100
AcDbLayout
  1
Model
 70
0
 71
0
 10
0.0
 20
0.0
 11
210.0
 21
297.0
 12
0.0
 22
0.0
 32
0.0
 14
0.0
 24
0.0
 34
0.0
 15
0.0
 25
0.0
 35
0.0
146
0.0
 13
0.0
 23
0.0
 33
0.0
 16
1.0
 26
0.0
 36
0.0
 17
0.0
 27
1.0
 37
0.0
 76
0
330
210
345
0
346
0
  0
LAYOUT
  5
240
102
{ACAD_REACTORS
330
1A
102
}
100
AcDbPlotSettings
  1

  2
none_device
  4

  6

 40
0.0
 41
0.0
 42
0.0
 43
0.0
 44
210.0
 45
297.0
 46
0.0
 47
0.0
 48
0.0
 49
0.0
140
0.0
141
0.0
142
1.0
143
1.0
 70
0
 72
1
 73
0
 74
0
  7

 75
0
147
1.0
148
0.0
149
0.0
100
AcDbLayout
  1
Layout1
 70
0
 71
1
 10
0.0
 20
0.0
 11
210.0
 21
297.0
 12
0.0
 22
0.0
 32
0.0
 14
0.0
 24
0.0
 34
0.0
 15
0.0
 25
0.0
 35
0.0
146
0.0
 13
0.0
 23
0.0
 33
0.0
 16
1.0
 26
0.0
 36
0.0
 17
0.0
 27
1.0
 37
0.0
 76
0
330
211
345
0
346
0
  0
ENDSEC
  0
EOF
