999
DXF file: C:\Users\sesa63760\Dev\_Creo\CAD\MCADID0003268_3D-CAD\drw0001_1.dxf
999
Pro/ENGINEER 2019471 by Parametric Technology Corporation
  0
SECTION
  2
HEADER
  9
$ACADVER
  1
AC1024
  9
$DWGCODEPAGE
  3
ANSI_1252
  9
$EXTMAX
 10
203.4427621051
 20
287.7261921201
 30
0.0
  9
$EXTMIN
 10
0.0
 20
0.0
 30
0.0
  9
$LIMMIN
 10
0.0
 20
0.0
  9
$LIMMAX
 10
203.4427621051
 20
287.7261921201
  9
$VIEWCTR
 10
101.7213810525
 20
143.86309606
  9
$VIEWSIZE
 40
287.7261921201
  9
$CLAYER
  8
0
  9
$LTSCALE
 40
18.755485116
  9
$CELTYPE
  6
BYLAYER
  9
$DIMSCALE
 40
1.0
  9
$DIMASZ
 40
2.4219376441
  9
$DIMEXO
 40
1.0
  9
$DIMDLI
 40
12.958335171
  9
$DIMEXE
 40
1.0
  9
$DIMCEN
 40
3.0690793826
  9
$DIMLFAC
 40
1.0
  9
$DIMBLK
  1
_FILLED
  9
$DIMALT
 70
0
  9
$DIMALTF
 40
0.0393700787
  9
$DIMTXT
 40
3.3907127018
  9
$DIMTOL
 70
1
  9
$DIMLIM
 70
0
  9
$DIMTFAC
 40
1.0
  9
$DIMTP
 40
0.01
  9
$DIMTM
 40
0.01
  9
$DIMGAP
 40
0.625
  9
$DIMDSEP
 70
46
  9
$AUNITS
 70
0
  9
$PDMODE
 70
3
  9
$PDSIZE
 40
0.3125
  9
$HANDSEED
  5
3F0
  9
$TILEMODE
 70
1
  9
$MEASUREMENT
 70
1
  9
$INSUNITS
 70
4
  0
ENDSEC
  0
SECTION
  2
CLASSES
  0
CLASS
  1
ACDBDICTIONARYWDFLT
  2
AcDbDictionaryWithDefault
  3
AutoCAD 2000
 90
0
 91
1
280
0
281
0
  0
CLASS
  1
ACDBPLACEHOLDER
  2
AcDbPlaceHolder
  3
AutoCAD 2000
 90
0
 91
1
280
0
281
0
  0
CLASS
  1
LAYOUT
  2
AcDbLayout
  3
AutoCAD 2000
 90
0
 91
0
280
0
281
0
  0
ENDSEC
  0
SECTION
  2
TABLES
  0
TABLE
  2
VPORT
  5
8
100
AcDbSymbolTable
 70
2
  0
VPORT
  5
1F4
100
AcDbSymbolTableRecord
100
AcDbViewportTableRecord
  2
*ACTIVE
 70
0
 10
0.0
 20
0.0
 11
1.0
 21
1.0
 12
101.7213810525
 22
143.86309606
 13
0.0
 23
0.0
 14
1.0
 24
1.0
 15
0.0
 25
0.0
 16
0.0
 26
0.0
 36
1.0
 17
0.0
 27
0.0
 37
0.0
 40
287.7261921201
 41
0.7070707071
 42
50.0
 43
0.0
 44
0.0
 50
0.0
 51
0.0
 71
0
 72
100
 73
1
 74
1
 75
0
 76
0
 77
0
 78
0
  0
ENDTAB
  0
TABLE
  2
LTYPE
  5
5
100
AcDbSymbolTable
 70
6
  0
LTYPE
  5
14
100
AcDbSymbolTableRecord
100
AcDbLinetypeTableRecord
  2
BYBLOCK
 70
0
  3

 72
65
 73
0
 40
0.0
  0
LTYPE
  5
15
100
AcDbSymbolTableRecord
100
AcDbLinetypeTableRecord
  2
BYLAYER
 70
0
  3

 72
65
 73
0
 40
0.0
  0
LTYPE
  5
16
100
AcDbSymbolTableRecord
100
AcDbLinetypeTableRecord
  2
CONTINUOUS
 70
64
  3
Solid line
 72
65
 73
0
 40
0.0
  0
LTYPE
  5
1F5
100
AcDbSymbolTableRecord
100
AcDbLinetypeTableRecord
  2
CENTER
 70
64
  3
____ _ ____ _ ____ _ ____ _ ____ _ ____ _ ____
 72
65
 73
4
 40
0.6
 49
0.375
 74
0
 49
-0.075
 74
0
 49
0.075
 74
0
 49
-0.075
 74
0
  0
LTYPE
  5
1F6
100
AcDbSymbolTableRecord
100
AcDbLinetypeTableRecord
  2
HIDDEN
 70
64
  3
- - - - - - - - - - - - - - - - - - - -
 72
65
 73
2
 40
0.2
 49
0.1
 74
0
 49
-0.1
 74
0
  0
LTYPE
  5
1F7
100
AcDbSymbolTableRecord
100
AcDbLinetypeTableRecord
  2
PHANTOM
 70
64
  3
_____ _ _ _____ _ _ _____ _ _ _____
 72
65
 73
6
 40
0.8
 49
0.45
 74
0
 49
-0.05
 74
0
 49
0.1
 74
0
 49
-0.05
 74
0
 49
0.1
 74
0
 49
-0.05
 74
0
  0
LTYPE
  5
1F8
100
AcDbSymbolTableRecord
100
AcDbLinetypeTableRecord
  2
DOT
 70
64
  3
. . . . . . . . . . . . . . . . . . . .
 72
65
 73
2
 40
0.2
 49
0.1
 74
0
 49
-0.1
 74
0
  0
LTYPE
  5
1F9
100
AcDbSymbolTableRecord
100
AcDbLinetypeTableRecord
  2
DASHED
 70
64
  3
- - - - - - - - - - - - - - - - - - - -
 72
65
 73
2
 40
0.2
 49
0.1
 74
0
 49
-0.1
 74
0
  0
ENDTAB
  0
TABLE
  2
LAYER
  5
2
100
AcDbSymbolTable
 70
36
  0
LAYER
  5
10
100
AcDbSymbolTableRecord
100
AcDbLayerTableRecord
  2
0
 70
0
 62
7
  6
CONTINUOUS
370
-3
390
F
  0
LAYER
  5
1FA
100
AcDbSymbolTableRecord
100
AcDbLayerTableRecord
  2
DEFAULT_1
 70
0
 62
7
  6
CENTER
370
-3
390
F
  0
LAYER
  5
1FB
100
AcDbSymbolTableRecord
100
AcDbLayerTableRecord
  2
DEFAULT_2
 70
0
 62
7
  6
HIDDEN
370
-3
390
F
  0
LAYER
  5
1FC
100
AcDbSymbolTableRecord
100
AcDbLayerTableRecord
  2
DEFAULT_3
 70
0
 62
7
  6
PHANTOM
370
-3
390
F
  0
LAYER
  5
1FD
100
AcDbSymbolTableRecord
100
AcDbLayerTableRecord
  2
00_COMPONENTS
 70
0
 62
7
  6
CONTINUOUS
370
-3
390
F
  0
LAYER
  5
1FE
100
AcDbSymbolTableRecord
100
AcDbLayerTableRecord
  2
01_1_DEFAULT_DATUMS
 70
0
 62
7
  6
CONTINUOUS
370
-3
390
F
  0
LAYER
  5
1FF
100
AcDbSymbolTableRecord
100
AcDbLayerTableRecord
  2
01_PLANES
 70
0
 62
7
  6
CONTINUOUS
370
-3
390
F
  0
LAYER
  5
200
100
AcDbSymbolTableRecord
100
AcDbLayerTableRecord
  2
02_COORD_SYS
 70
0
 62
7
  6
CONTINUOUS
370
-3
390
F
  0
LAYER
  5
201
100
AcDbSymbolTableRecord
100
AcDbLayerTableRecord
  2
03_AXES
 70
0
 62
7
  6
CONTINUOUS
370
-3
390
F
  0
LAYER
  5
202
100
AcDbSymbolTableRecord
100
AcDbLayerTableRecord
  2
04_POINTS
 70
0
 62
7
  6
CONTINUOUS
370
-3
390
F
  0
LAYER
  5
203
100
AcDbSymbolTableRecord
100
AcDbLayerTableRecord
  2
05_CURVES
 70
0
 62
7
  6
CONTINUOUS
370
-3
390
F
  0
LAYER
  5
204
100
AcDbSymbolTableRecord
100
AcDbLayerTableRecord
  2
06_SURFS
 70
0
 62
7
  6
CONTINUOUS
370
-3
390
F
  0
LAYER
  5
205
100
AcDbSymbolTableRecord
100
AcDbLayerTableRecord
  2
07_COSMETICS
 70
0
 62
7
  6
CONTINUOUS
370
-3
390
F
  0
LAYER
  5
206
100
AcDbSymbolTableRecord
100
AcDbLayerTableRecord
  2
10_NOTES
 70
0
 62
7
  6
CONTINUOUS
370
-3
390
F
  0
LAYER
  5
207
100
AcDbSymbolTableRecord
100
AcDbLayerTableRecord
  2
11_NOTES_PUB
 70
0
 62
7
  6
CONTINUOUS
370
-3
390
F
  0
LAYER
  5
208
100
AcDbSymbolTableRecord
100
AcDbLayerTableRecord
  2
13_REF_GTOL
 70
0
 62
7
  6
CONTINUOUS
370
-3
390
F
  0
LAYER
  5
209
100
AcDbSymbolTableRecord
100
AcDbLayerTableRecord
  2
16_MISC
 70
0
 62
7
  6
CONTINUOUS
370
-3
390
F
  0
LAYER
  5
20A
100
AcDbSymbolTableRecord
100
AcDbLayerTableRecord
  2
17_NO_PRINT
 70
0
 62
7
  6
CONTINUOUS
370
-3
390
F
  0
LAYER
  5
20B
100
AcDbSymbolTableRecord
100
AcDbLayerTableRecord
  2
18_DATUM_CAMS_JOINTS
 70
0
 62
7
  6
CONTINUOUS
370
-3
390
F
  0
LAYER
  5
20C
100
AcDbSymbolTableRecord
100
AcDbLayerTableRecord
  2
19_DATUM_FUNCTIONAL
 70
0
 62
7
  6
CONTINUOUS
370
-3
390
F
  0
LAYER
  5
20D
100
AcDbSymbolTableRecord
100
AcDbLayerTableRecord
  2
20_DATUM_KINEMATIC_SCHEME
 70
0
 62
7
  6
CONTINUOUS
370
-3
390
F
  0
ENDTAB
  0
TABLE
  2
STYLE
  5
3
100
AcDbSymbolTable
 70
1
  0
STYLE
  5
11
100
AcDbSymbolTableRecord
100
AcDbTextStyleTableRecord
  2
STANDARD
 70
0
 40
0.0
 41
1.0
 50
0.0
 71
0
 42
0.2
  3
ARIAL.TTF
  4

  0
STYLE
  5
20E
100
AcDbSymbolTableRecord
100
AcDbTextStyleTableRecord
  2
TEXTSTYLE_1
 70
0
 40
0.0
 41
0.8
 50
0.0
 71
0
 42
0.2
  3
gdt
  4

  0
ENDTAB
  0
TABLE
  2
VIEW
  5
6
100
AcDbSymbolTable
 70
0
  0
ENDTAB
  0
TABLE
  2
UCS
  5
7
100
AcDbSymbolTable
 70
0
  0
ENDTAB
  0
TABLE
  2
APPID
  5
9
100
AcDbSymbolTable
 70
1
  0
APPID
  5
20F
100
AcDbSymbolTableRecord
100
AcDbRegAppTableRecord
  2
ACAD
 70
0
  0
ENDTAB
  0
TABLE
  2
BLOCK_RECORD
  5
1
100
AcDbSymbolTable
 70
0
  0
BLOCK_RECORD
  5
210
100
AcDbSymbolTableRecord
100
AcDbBlockTableRecord
  2
*Model_Space
  0
BLOCK_RECORD
  5
211
100
AcDbSymbolTableRecord
100
AcDbBlockTableRecord
  2
*Paper_Space
  0
BLOCK_RECORD
  5
212
100
AcDbSymbolTableRecord
100
AcDbBlockTableRecord
  2
_FILLED
  0
ENDTAB
  0
TABLE
  2
DIMSTYLE
  5
A
100
AcDbSymbolTable
 70
1
100
AcDbDimStyleTable
 71
0
  0
DIMSTYLE
105
213
100
AcDbSymbolTableRecord
100
AcDbDimStyleTableRecord
  2
STANDARD
 70
0
  3

  4

 40
1.0
 41
2.4219376441
 42
1.0
 43
0.38
 44
1.0
 45
0.0
 46
0.0
 47
0.01
 48
0.01
140
3.3907127018
141
0.09
142
0.0
143
25.4
144
1.0
145
0.0
146
1.0
147
0.625
 71
1
 72
0
 73
0
 74
0
 75
0
 76
0
 77
1
 78
8
 79
2
170
0
171
1
172
0
173
0
174
0
175
0
176
0
177
0
178
0
270
2
179
2
271
2
272
2
273
2
274
2
275
0
280
0
281
0
282
0
283
1
284
8
285
0
286
0
287
3
288
0
340
11
278
46
341
212
342
212
343
212
344
212
  0
ENDTAB
  0
ENDSEC
  0
SECTION
  2
BLOCKS
  0
BLOCK
  5
20
100
AcDbEntity
  8
0
100
AcDbBlockBegin
  2
*Model_Space
 70
0
 10
0.0
 20
0.0
 30
0.0
  3
*Model_Space
  1

  0
ENDBLK
  5
21
100
AcDbEntity
  8
0
100
AcDbBlockEnd
  0
BLOCK
  5
1C
100
AcDbEntity
  8
0
100
AcDbBlockBegin
  2
*Paper_Space
 70
0
 10
0.0
 20
0.0
 30
0.0
  3
*Paper_Space
  1

  0
ENDBLK
  5
1D
100
AcDbEntity
  8
0
100
AcDbBlockEnd
  0
BLOCK
  5
214
100
AcDbEntity
  8
0
100
AcDbBlockBegin
  2
_FILLED
 70
64
 10
0.0
 20
0.0
  3
_FILLED
  1

  0
SOLID
  5
215
100
AcDbEntity
  8
0
  6
BYBLOCK
 62
0
100
AcDbTrace
 10
0.0
 20
0.0
 11
-1.0
 21
0.25
 12
-1.0
 22
-0.25
 13
-1.0
 23
-0.25
  0
ENDBLK
  5
216
100
AcDbEntity
  8
0
  6
BYBLOCK
 62
0
100
AcDbBlockEnd
  0
ENDSEC
  0
SECTION
  2
ENTITIES
  0
LINE
  5
217
100
AcDbEntity
  8
0
100
AcDbLine
 62
7
  6
BYLAYER
 10
24.6020770604
 20
88.6786310321
 11
54.2837431496
 21
71.5423008011
  0
LINE
  5
218
100
AcDbEntity
  8
0
100
AcDbLine
 62
7
  6
BYLAYER
 10
23.9734565058
 20
124.0409658281
 11
23.9734565058
 21
89.7674277272
  0
LINE
  5
219
100
AcDbEntity
  8
0
100
AcDbLine
 62
7
  6
BYLAYER
 10
40.9380114366
 20
84.1682738702
 11
81.9869330453
 21
60.4692040741
  0
LINE
  5
21A
100
AcDbEntity
  8
0
100
AcDbLine
 62
7
  6
BYLAYER
 10
29.0436919444
 20
91.242980156
 11
59.0378722478
 21
73.9262238411
  0
LINE
  5
21B
100
AcDbEntity
  8
0
100
AcDbLine
 62
7
  6
BYLAYER
 10
58.8816151407
 20
74.1968675872
 11
29.1999490515
 21
91.3331978182
  0
LINE
  5
21C
100
AcDbEntity
  8
0
100
AcDbLine
 62
7
  6
BYLAYER
 10
91.3219481483
 20
58.7091057613
 11
83.2441741479
 21
63.3727052502
  0
LINE
  5
21D
100
AcDbEntity
  8
0
100
AcDbLine
 62
7
  6
BYLAYER
 10
39.680770334
 20
88.5234791824
 11
31.6029963336
 21
93.1870786713
  0
LINE
  5
21E
100
AcDbEntity
  8
0
100
AcDbLine
 62
7
  6
BYLAYER
 10
91.3129705467
 20
61.9703467629
 11
30.9653981864
 21
96.8112457036
  0
LINE
  5
21F
100
AcDbEntity
  8
0
100
AcDbLine
 62
7
  6
BYLAYER
 10
28.4150713898
 20
126.9661763603
 11
28.4150713898
 21
92.3317768511
  0
LINE
  5
220
100
AcDbEntity
  8
0
100
AcDbLine
 62
7
  6
BYLAYER
 10
28.5713284969
 20
92.4219945133
 11
28.5713284969
 21
126.6955326142
  0
LINE
  5
221
100
AcDbEntity
  8
0
100
AcDbLine
 62
7
  6
BYLAYER
 10
30.4446288012
 20
97.5371038157
 11
30.4446288012
 21
144.8223917966
  0
LINE
  5
222
100
AcDbEntity
  8
0
100
AcDbLine
 62
7
  6
BYLAYER
 10
30.9653981769
 20
96.8112457112
 11
30.9653877081
 21
145.5482438571
  0
LINE
  5
223
100
AcDbEntity
  8
0
100
AcDbLine
 62
7
  6
BYLAYER
 10
31.0822269484
 20
93.9129367834
 11
31.0822269484
 21
97.5422900275
  0
LINE
  5
224
100
AcDbEntity
  8
0
100
AcDbLine
 62
7
  6
BYLAYER
 10
31.6029963241
 20
93.1870786788
 11
31.6029858553
 21
98.268142088
  0
LINE
  5
225
100
AcDbEntity
  8
0
100
AcDbLine
 62
7
  6
BYLAYER
 10
91.3219481596
 20
62.3384589989
 11
31.6029963223
 21
96.8164319219
  0
LINE
  5
226
100
AcDbEntity
  8
0
100
AcDbLine
 62
7
  6
BYLAYER
 10
68.23361623
 20
79.2353574134
 11
38.2394359266
 21
96.5521137283
  0
LINE
  5
227
100
AcDbEntity
  8
0
100
AcDbLine
 62
7
  6
BYLAYER
 10
37.610815372
 20
97.6409104234
 11
37.610815372
 21
132.2753099325
  0
LINE
  5
228
100
AcDbEntity
  8
0
100
AcDbLine
 62
7
  6
BYLAYER
 10
37.748358128
 20
97.3297442789
 11
37.748358128
 21
109.9806327299
  0
LINE
  5
229
100
AcDbEntity
  8
0
100
AcDbLine
 62
7
  6
BYLAYER
 10
37.748358128
 20
133.2084934924
 11
37.748358128
 21
144.6150322597
  0
LINE
  5
22A
100
AcDbEntity
  8
0
100
AcDbLine
 62
7
  6
BYLAYER
 10
39.680770334
 20
88.5234791824
 11
39.680770334
 21
86.345867249
  0
LINE
  5
22B
100
AcDbEntity
  8
0
100
AcDbLine
 62
7
  6
BYLAYER
 10
40.288358128
 20
109.9806327299
 11
40.288358128
 21
133.2084934924
  0
LINE
  5
22C
100
AcDbEntity
  8
0
100
AcDbLine
 62
7
  6
BYLAYER
 10
98.3349131139
 20
218.7669564402
 11
117.8040273262
 21
230.0073876752
  0
LINE
  5
22D
100
AcDbEntity
  8
0
100
AcDbLine
 62
7
  6
BYLAYER
 10
117.8040273262
 20
228.3482547636
 11
98.3349131139
 21
217.1078235285
  0
LINE
  5
22E
100
AcDbEntity
  8
0
100
AcDbLine
 62
7
  6
BYLAYER
 10
73.5320611952
 20
72.7700858476
 11
82.1531429641
 21
73.5402195673
  0
LINE
  5
22F
100
AcDbEntity
  8
0
100
AcDbLine
 62
7
  6
BYLAYER
 10
90.7741529475
 20
78.5175322913
 11
82.1530711785
 21
77.7473985716
  0
LINE
  5
230
100
AcDbEntity
  8
0
100
AcDbLine
 62
7
  6
BYLAYER
 10
64.9109794262
 20
83.4947621255
 11
73.5320611952
 21
72.7700858476
  0
LINE
  5
231
100
AcDbEntity
  8
0
100
AcDbLine
 62
7
  6
BYLAYER
 10
47.146358128
 20
109.9806327299
 11
47.146358128
 21
133.2084934924
  0
LINE
  5
232
100
AcDbEntity
  8
0
100
AcDbLine
 62
7
  6
BYLAYER
 10
49.686358128
 20
97.3297442789
 11
49.686358128
 21
109.9806327299
  0
LINE
  5
233
100
AcDbEntity
  8
0
100
AcDbLine
 62
7
  6
BYLAYER
 10
49.686358128
 20
133.2084934924
 11
49.686358128
 21
144.6150322597
  0
LINE
  5
234
100
AcDbEntity
  8
0
100
AcDbLine
 62
7
  6
BYLAYER
 10
74.5914651185
 20
92.3177417627
 11
73.5322533445
 21
92.9292954509
  0
LINE
  5
235
100
AcDbEntity
  8
0
100
AcDbLine
 62
7
  6
BYLAYER
 10
54.2837431496
 20
107.2675802203
 11
24.6020770604
 21
124.4039104513
  0
LINE
  5
236
100
AcDbEntity
  8
0
100
AcDbLine
 62
7
  6
BYLAYER
 10
82.1530711785
 20
77.7473985716
 11
73.5319894095
 21
88.4720748495
  0
LINE
  5
237
100
AcDbEntity
  8
0
100
AcDbLine
 62
7
  6
BYLAYER
 10
54.9123637042
 20
71.9052454243
 11
54.9123637042
 21
106.1787835252
  0
LINE
  5
238
100
AcDbEntity
  8
0
100
AcDbLine
 62
7
  6
BYLAYER
 10
55.1116500263
 20
104.0697870172
 11
55.1116500263
 21
102.4106541055
  0
LINE
  5
239
100
AcDbEntity
  8
0
100
AcDbLine
 62
7
  6
BYLAYER
 10
97.8042135786
 20
195.8990950629
 11
96.0081698321
 21
194.8621549121
  0
LINE
  5
23A
100
AcDbEntity
  8
0
100
AcDbLine
 62
7
  6
BYLAYER
 10
98.8818398266
 20
196.5212591534
 11
99.9594660745
 21
197.1434232439
  0
LINE
  5
23B
100
AcDbEntity
  8
0
100
AcDbLine
 62
7
  6
BYLAYER
 10
99.5348886902
 20
196.6759320591
 11
100.2533061888
 21
197.0907081194
  0
LINE
  5
23C
100
AcDbEntity
  8
0
100
AcDbLine
 62
7
  6
BYLAYER
 10
97.3564923655
 20
195.3286035526
 11
98.0749098641
 21
195.743379613
  0
LINE
  5
23D
100
AcDbEntity
  8
0
100
AcDbLine
 62
7
  6
BYLAYER
 10
95.17387612
 20
193.5464769786
 11
96.6107111172
 21
194.3760290992
  0
LINE
  5
23E
100
AcDbEntity
  8
0
100
AcDbLine
 62
7
  6
BYLAYER
 10
99.4380973362
 20
195.5577871334
 11
98.3604710883
 21
194.9356230429
  0
LINE
  5
23F
100
AcDbEntity
  8
0
100
AcDbLine
 62
7
  6
BYLAYER
 10
29.1999490515
 20
127.0584772374
 11
58.8816151407
 21
109.9221470064
  0
LINE
  5
240
100
AcDbEntity
  8
0
100
AcDbLine
 62
7
  6
BYLAYER
 10
59.0378722478
 20
110.0123646686
 11
29.0436919444
 21
127.3291209835
  0
LINE
  5
241
100
AcDbEntity
  8
0
100
AcDbLine
 62
7
  6
BYLAYER
 10
82.1531429641
 20
85.0350295649
 11
73.5320611952
 21
95.7597058429
  0
LINE
  5
242
100
AcDbEntity
  8
0
100
AcDbLine
 62
7
  6
BYLAYER
 10
59.5102356953
 20
108.8333503113
 11
59.5102356953
 21
74.5598122104
  0
LINE
  5
243
100
AcDbEntity
  8
0
100
AcDbLine
 62
7
  6
BYLAYER
 10
59.6664928024
 20
74.2891684644
 11
59.6664928024
 21
108.9235679735
  0
LINE
  5
244
100
AcDbEntity
  8
0
100
AcDbLine
 62
7
  6
BYLAYER
 10
63.6460500263
 20
104.0697870172
 11
63.6460500263
 21
102.4106541055
  0
LINE
  5
245
100
AcDbEntity
  8
0
100
AcDbLine
 62
7
  6
BYLAYER
 10
64.9109794262
 20
94.9895721232
 11
64.9109794262
 21
83.4947621255
  0
LINE
  5
246
100
AcDbEntity
  8
0
100
AcDbLine
 62
7
  6
BYLAYER
 10
109.4059453663
 20
197.0698079343
 11
111.4175143624
 21
198.2311809032
  0
LINE
  5
247
100
AcDbEntity
  8
0
100
AcDbLine
 62
7
  6
BYLAYER
 10
94.1865818276
 20
184.9128023312
 11
96.1981508237
 21
186.0741753001
  0
LINE
  5
248
100
AcDbEntity
  8
0
100
AcDbLine
 62
7
  6
BYLAYER
 10
136.762959584
 20
104.8681415476
 11
139.9747373949
 21
105.5226894901
  0
LINE
  5
249
100
AcDbEntity
  8
0
100
AcDbLine
 62
7
  6
BYLAYER
 10
73.5320611952
 20
95.7597058429
 11
64.9109794262
 21
94.9895721232
  0
LINE
  5
24A
100
AcDbEntity
  8
0
100
AcDbLine
 62
7
  6
BYLAYER
 10
73.5319894095
 20
99.9668848472
 11
82.1530711785
 21
100.7370185669
  0
LINE
  5
24B
100
AcDbEntity
  8
0
100
AcDbLine
 62
7
  6
BYLAYER
 10
38.2394359266
 20
132.6382545558
 11
68.23361623
 21
115.3214982409
  0
LINE
  5
24C
100
AcDbEntity
  8
0
100
AcDbLine
 62
7
  6
BYLAYER
 10
82.1530711785
 20
100.7370185669
 11
90.7741529475
 21
90.012342289
  0
LINE
  5
24D
100
AcDbEntity
  8
0
100
AcDbLine
 62
7
  6
BYLAYER
 10
68.8622367846
 20
114.2327015458
 11
68.8622367846
 21
79.5983020366
  0
LINE
  5
24E
100
AcDbEntity
  8
0
100
AcDbLine
 62
7
  6
BYLAYER
 10
93.1085013247
 20
181.4263730704
 11
30.9653877176
 21
145.5482438646
  0
LINE
  5
24F
100
AcDbEntity
  8
0
100
AcDbLine
 62
7
  6
BYLAYER
 10
113.3913082694
 20
191.1585265705
 11
114.9734984426
 21
192.0719990402
  0
LINE
  5
250
100
AcDbEntity
  8
0
100
AcDbLine
 62
7
  6
BYLAYER
 10
98.0579726583
 20
178.9357195535
 11
99.754134904
 21
179.9149934371
  0
LINE
  5
251
100
AcDbEntity
  8
0
100
AcDbLine
 62
7
  6
BYLAYER
 10
30.9653981864
 20
144.0965336844
 11
91.3129705467
 21
109.2556347437
  0
LINE
  5
252
100
AcDbEntity
  8
0
100
AcDbLine
 62
7
  6
BYLAYER
 10
73.5319894095
 20
99.9668848472
 11
73.5319894095
 21
88.4720748495
  0
LINE
  5
253
100
AcDbEntity
  8
0
100
AcDbLine
 62
7
  6
BYLAYER
 10
94.0746289797
 20
178.8069403969
 11
96.2473857183
 21
181.2611363693
  0
LINE
  5
254
100
AcDbEntity
  8
0
100
AcDbLine
 62
7
  6
BYLAYER
 10
132.7233630994
 20
188.3553488122
 11
134.7349320955
 21
189.5167217811
  0
LINE
  5
255
100
AcDbEntity
  8
0
100
AcDbLine
 62
7
  6
BYLAYER
 10
28.5991939272
 20
127.3731480696
 11
37.7949379094
 21
132.6822816419
  0
LINE
  5
256
100
AcDbEntity
  8
0
100
AcDbLine
 62
7
  6
BYLAYER
 10
38.2394359177
 20
132.6382545589
 11
28.4150713916
 21
126.9661763696
  0
LINE
  5
257
100
AcDbEntity
  8
0
100
AcDbLine
 62
7
  6
BYLAYER
 10
24.1575790432
 20
124.4479375374
 11
28.7554510343
 21
127.1025043235
  0
LINE
  5
258
100
AcDbEntity
  8
0
100
AcDbLine
 62
7
  6
BYLAYER
 10
81.0357162225
 20
81.1559048071
 11
81.0357250425
 21
79.9328236589
  0
LINE
  5
259
100
AcDbEntity
  8
0
100
AcDbLine
 62
7
  6
BYLAYER
 10
82.1531429641
 20
73.5402195673
 11
82.1531429641
 21
85.0350295649
  0
LINE
  5
25A
100
AcDbEntity
  8
0
100
AcDbLine
 62
7
  6
BYLAYER
 10
83.2441741479
 20
61.1950933167
 11
83.2441741479
 21
63.3727052502
  0
LINE
  5
25B
100
AcDbEntity
  8
0
100
AcDbLine
 62
7
  6
BYLAYER
 10
88.3029613994
 20
64.5833502529
 11
88.3029613994
 21
62.9242173413
  0
LINE
  5
25C
100
AcDbEntity
  8
0
100
AcDbLine
 62
7
  6
BYLAYER
 10
29.1999490425
 20
127.0584772405
 11
23.9734565076
 21
124.0409658374
  0
LINE
  5
25D
100
AcDbEntity
  8
0
100
AcDbLine
 62
7
  6
BYLAYER
 10
136.2891518407
 20
182.2018276392
 11
138.2909161757
 21
183.3575399182
  0
LINE
  5
25E
100
AcDbEntity
  8
0
100
AcDbLine
 62
7
  6
BYLAYER
 10
94.1865818276
 20
157.5727300347
 11
96.1981508237
 21
158.7341030036
  0
LINE
  5
25F
100
AcDbEntity
  8
0
100
AcDbLine
 62
7
  6
BYLAYER
 10
27.8918080821
 20
117.9801306961
 11
24.4434040888
 21
115.9892056065
  0
LINE
  5
260
100
AcDbEntity
  8
0
100
AcDbLine
 62
7
  6
BYLAYER
 10
145.9979321714
 20
97.4257510498
 11
104.9490105627
 21
121.1248208459
  0
LINE
  5
261
100
AcDbEntity
  8
0
100
AcDbLine
 62
7
  6
BYLAYER
 10
95.6139954597
 20
130.143625647
 11
103.69176946
 21
125.4800261581
  0
LINE
  5
262
100
AcDbEntity
  8
0
100
AcDbLine
 62
7
  6
BYLAYER
 10
147.255173274
 20
100.3292522259
 11
155.3329472744
 21
95.665652737
  0
LINE
  5
263
100
AcDbEntity
  8
0
100
AcDbLine
 62
7
  6
BYLAYER
 10
90.0985822086
 20
124.2693811554
 11
90.0985822086
 21
122.6102482438
  0
LINE
  5
264
100
AcDbEntity
  8
0
100
AcDbLine
 62
7
  6
BYLAYER
 10
90.7741529475
 20
78.5175322913
 11
90.7741529475
 21
90.012342289
  0
LINE
  5
265
100
AcDbEntity
  8
0
100
AcDbLine
 62
7
  6
BYLAYER
 10
91.3129705598
 20
109.2556347382
 11
91.3129705598
 21
61.9703467574
  0
LINE
  5
266
100
AcDbEntity
  8
0
100
AcDbLine
 62
7
  6
BYLAYER
 10
91.3219481614
 20
62.338459
 11
91.3219481614
 21
58.7091057558
  0
LINE
  5
267
100
AcDbEntity
  8
0
100
AcDbLine
 62
7
  6
BYLAYER
 10
93.0995237363
 20
130.1436196084
 11
93.0995237363
 21
133.7729728526
  0
LINE
  5
268
100
AcDbEntity
  8
0
100
AcDbLine
 62
7
  6
BYLAYER
 10
93.1085013378
 20
134.1410850951
 11
93.1085013378
 21
181.4263730759
  0
LINE
  5
269
100
AcDbEntity
  8
0
100
AcDbLine
 62
7
  6
BYLAYER
 10
93.8274422701
 20
61.9703528015
 11
93.8274422701
 21
109.2556407823
  0
LINE
  5
26A
100
AcDbEntity
  8
0
100
AcDbLine
 62
7
  6
BYLAYER
 10
93.8364198717
 20
58.7091117999
 11
93.8364198717
 21
62.338465044
  0
LINE
  5
26B
100
AcDbEntity
  8
0
100
AcDbLine
 62
7
  6
BYLAYER
 10
95.17387612
 20
193.5464769786
 11
95.17387612
 21
213.2918493692
  0
LINE
  5
26C
100
AcDbEntity
  8
0
100
AcDbLine
 62
7
  6
BYLAYER
 10
95.6139954466
 20
133.7729788966
 11
95.6139954466
 21
130.1436256525
  0
LINE
  5
26D
100
AcDbEntity
  8
0
100
AcDbLine
 62
7
  6
BYLAYER
 10
95.6229730481
 20
181.4263791199
 11
95.6229730481
 21
134.1410911391
  0
LINE
  5
26E
100
AcDbEntity
  8
0
100
AcDbLine
 62
7
  6
BYLAYER
 10
109.5029920819
 20
159.8743069653
 11
108.6049702086
 21
159.3558368899
  0
LINE
  5
26F
100
AcDbEntity
  8
0
100
AcDbLine
 62
7
  6
BYLAYER
 10
110.0273638389
 20
159.214950222
 11
110.9253857122
 21
159.7334202974
  0
LINE
  5
270
100
AcDbEntity
  8
0
100
AcDbLine
 62
7
  6
BYLAYER
 10
108.9137999679
 20
158.5719975207
 11
108.0157780946
 21
158.0535274453
  0
LINE
  5
271
100
AcDbEntity
  8
0
100
AcDbLine
 62
7
  6
BYLAYER
 10
97.7425659079
 20
151.4135481717
 11
99.754134904
 21
152.5749211406
  0
LINE
  5
272
100
AcDbEntity
  8
0
100
AcDbLine
 62
7
  6
BYLAYER
 10
31.9557898881
 20
110.9410657098
 11
28.5073858947
 21
108.9501406202
  0
LINE
  5
273
100
AcDbEntity
  8
0
100
AcDbLine
 62
7
  6
BYLAYER
 10
95.6139954484
 20
133.7729788976
 11
155.3329472857
 21
99.2950059746
  0
LINE
  5
274
100
AcDbEntity
  8
0
100
AcDbLine
 62
7
  6
BYLAYER
 10
95.6229730612
 20
134.1410911336
 11
155.9705454216
 21
99.3001921929
  0
LINE
  5
275
100
AcDbEntity
  8
0
100
AcDbLine
 62
7
  6
BYLAYER
 10
96.6107111172
 20
214.1214014898
 11
96.6107111172
 21
194.3760290992
  0
LINE
  5
276
100
AcDbEntity
  8
0
100
AcDbLine
 62
7
  6
BYLAYER
 10
96.8373613994
 20
64.5833502529
 11
96.8373613994
 21
62.9242173413
  0
LINE
  5
277
100
AcDbEntity
  8
0
100
AcDbLine
 62
7
  6
BYLAYER
 10
98.6329822086
 20
124.2693811554
 11
98.6329822086
 21
122.6102482438
  0
LINE
  5
278
100
AcDbEntity
  8
0
100
AcDbLine
 62
7
  6
BYLAYER
 10
103.69176946
 20
123.3024142247
 11
103.69176946
 21
125.4800261581
  0
LINE
  5
279
100
AcDbEntity
  8
0
100
AcDbLine
 62
7
  6
BYLAYER
 10
133.609420175
 20
166.2426804965
 11
125.8864320649
 21
161.7838378479
  0
LINE
  5
27A
100
AcDbEntity
  8
0
100
AcDbLine
 62
7
  6
BYLAYER
 10
135.9086935376
 20
165.9856461699
 11
136.9198661669
 21
166.5694434748
  0
LINE
  5
27B
100
AcDbEntity
  8
0
100
AcDbLine
 62
7
  6
BYLAYER
 10
163.5318439919
 20
181.1263423919
 11
183.0009582042
 21
192.3667736269
  0
LINE
  5
27C
100
AcDbEntity
  8
0
100
AcDbLine
 62
7
  6
BYLAYER
 10
141.2426696579
 20
166.9245697275
 11
133.5196815479
 21
162.4657270789
  0
LINE
  5
27D
100
AcDbEntity
  8
0
100
AcDbLine
 62
7
  6
BYLAYER
 10
183.0009582042
 20
190.7076407153
 11
163.5318439919
 21
179.4672094803
  0
LINE
  5
27E
100
AcDbEntity
  8
0
100
AcDbLine
 62
7
  6
BYLAYER
 10
145.8318256747
 20
171.2741973139
 11
137.0385950114
 21
166.6350054047
  0
LINE
  5
27F
100
AcDbEntity
  8
0
100
AcDbLine
 62
7
  6
BYLAYER
 10
133.5196815479
 20
142.1103343748
 11
141.1529310309
 21
142.7922236058
  0
LINE
  5
280
100
AcDbEntity
  8
0
100
AcDbLine
 62
7
  6
BYLAYER
 10
148.8759191409
 20
147.2510662543
 11
141.2426696579
 21
146.5691770233
  0
LINE
  5
281
100
AcDbEntity
  8
0
100
AcDbLine
 62
7
  6
BYLAYER
 10
125.7608380673
 20
127.3183526051
 11
110.0273638389
 21
136.4018726895
  0
LINE
  5
282
100
AcDbEntity
  8
0
100
AcDbLine
 62
7
  6
BYLAYER
 10
110.9253857122
 20
136.9203427649
 11
126.6588599406
 21
127.8368226805
  0
LINE
  5
283
100
AcDbEntity
  8
0
100
AcDbLine
 62
7
  6
BYLAYER
 10
108.0157780946
 20
139.8860220632
 11
108.0157780946
 21
158.0535274453
  0
LINE
  5
284
100
AcDbEntity
  8
0
100
AcDbLine
 62
7
  6
BYLAYER
 10
108.9137999679
 20
158.5719975207
 11
108.9137999679
 21
140.4044921386
  0
LINE
  5
285
100
AcDbEntity
  8
0
100
AcDbLine
 62
7
  6
BYLAYER
 10
148.8627785881
 20
168.0203854408
 11
138.2661204837
 21
161.9024385509
  0
LINE
  5
286
100
AcDbEntity
  8
0
100
AcDbLine
 62
7
  6
BYLAYER
 10
30.9653877176
 20
98.2629558838
 11
93.1085013247
 21
134.1410850896
  0
LINE
  5
287
100
AcDbEntity
  8
0
100
AcDbLine
 62
7
  6
BYLAYER
 10
31.6029858535
 20
98.268142089
 11
93.0995237345
 21
133.7729728536
  0
LINE
  5
288
100
AcDbEntity
  8
0
100
AcDbLine
 62
7
  6
BYLAYER
 10
46.930030322
 20
106.9886566214
 11
43.4816263286
 21
104.9977315318
  0
LINE
  5
289
100
AcDbEntity
  8
0
100
AcDbLine
 62
7
  6
BYLAYER
 10
27.8918080821
 20
95.9966196173
 11
24.4434040888
 21
94.0056945277
  0
LINE
  5
28A
100
AcDbEntity
  8
0
100
AcDbLine
 62
7
  6
BYLAYER
 10
133.609420175
 20
156.0649841444
 11
125.8864320649
 21
151.6061414959
  0
LINE
  5
28B
100
AcDbEntity
  8
0
100
AcDbLine
 62
7
  6
BYLAYER
 10
126.6588599406
 20
150.6499002131
 11
125.7608380673
 21
150.1314301376
  0
LINE
  5
28C
100
AcDbEntity
  8
0
100
AcDbLine
 62
7
  6
BYLAYER
 10
108.0157780946
 20
139.8860220632
 11
108.9137999679
 21
140.4044921386
  0
LINE
  5
28D
100
AcDbEntity
  8
0
100
AcDbLine
 62
7
  6
BYLAYER
 10
31.6029858648
 20
94.6387888514
 11
93.0995237232
 21
130.1436196029
  0
LINE
  5
28E
100
AcDbEntity
  8
0
100
AcDbLine
 62
7
  6
BYLAYER
 10
68.233616239
 20
115.3214982336
 11
59.0378722568
 21
110.0123646614
  0
LINE
  5
28F
100
AcDbEntity
  8
0
100
AcDbLine
 62
7
  6
BYLAYER
 10
58.8816151497
 20
109.9221469992
 11
54.2837431586
 21
107.267580213
  0
LINE
  5
290
100
AcDbEntity
  8
0
100
AcDbLine
 62
7
  6
BYLAYER
 10
23.9734565076
 20
89.7674277158
 11
37.6108153738
 21
97.640910412
  0
LINE
  5
291
100
AcDbEntity
  8
0
100
AcDbLine
 62
7
  6
BYLAYER
 10
141.2363196864
 20
156.7578719145
 11
151.8329777909
 21
162.8758188044
  0
LINE
  5
292
100
AcDbEntity
  8
0
100
AcDbLine
 62
7
  6
BYLAYER
 10
141.2490196295
 20
156.7358748364
 11
151.845677734
 21
162.8538217263
  0
LINE
  5
293
100
AcDbEntity
  8
0
100
AcDbLine
 62
7
  6
BYLAYER
 10
59.6664928006
 20
108.9235679849
 11
68.8622367828
 21
114.2327015571
  0
LINE
  5
294
100
AcDbEntity
  8
0
100
AcDbLine
 62
7
  6
BYLAYER
 10
54.9123637024
 20
106.1787835365
 11
59.5102356935
 21
108.8333503227
  0
LINE
  5
295
100
AcDbEntity
  8
0
100
AcDbLine
 62
7
  6
BYLAYER
 10
38.2394359177
 20
96.5521137356
 11
24.6020770514
 21
88.6786310394
  0
LINE
  5
296
100
AcDbEntity
  8
0
100
AcDbLine
 62
7
  6
BYLAYER
 10
153.2283561255
 20
162.8470172386
 11
155.2399251216
 21
164.0083902076
  0
LINE
  5
297
100
AcDbEntity
  8
0
100
AcDbLine
 62
7
  6
BYLAYER
 10
115.4155402592
 20
218.9640238529
 11
115.4155402592
 21
217.3048909413
  0
LINE
  5
298
100
AcDbEntity
  8
0
100
AcDbLine
 62
7
  6
BYLAYER
 10
117.8040273262
 20
230.0073876752
 11
117.8040273262
 21
228.3482547636
  0
LINE
  5
299
100
AcDbEntity
  8
0
100
AcDbLine
 62
7
  6
BYLAYER
 10
127.7724238116
 20
146.647280766
 11
128.6704456849
 21
147.1657508415
  0
LINE
  5
29A
100
AcDbEntity
  8
0
100
AcDbLine
 62
7
  6
BYLAYER
 10
110.9253857122
 20
136.920342767
 11
110.0273638389
 21
136.4018726916
  0
LINE
  5
29B
100
AcDbEntity
  8
0
100
AcDbLine
 62
7
  6
BYLAYER
 10
148.8759191409
 20
157.4287626064
 11
141.1529310309
 21
152.9699199578
  0
LINE
  5
29C
100
AcDbEntity
  8
0
100
AcDbLine
 62
7
  6
BYLAYER
 10
50.9940121279
 20
99.9495916351
 11
47.5456081346
 21
97.9586665455
  0
LINE
  5
29D
100
AcDbEntity
  8
0
100
AcDbLine
 62
7
  6
BYLAYER
 10
31.9557898881
 20
88.957554631
 11
28.5073858947
 21
86.9666295414
  0
LINE
  5
29E
100
AcDbEntity
  8
0
100
AcDbLine
 62
7
  6
BYLAYER
 10
158.9066082512
 20
160.6229767036
 11
158.1881907526
 21
160.2082006433
  0
LINE
  5
29F
100
AcDbEntity
  8
0
100
AcDbLine
 62
7
  6
BYLAYER
 10
154.8158769367
 20
157.7092550899
 11
144.2192188322
 21
151.5913081999
  0
LINE
  5
2A0
100
AcDbEntity
  8
0
100
AcDbLine
 62
7
  6
BYLAYER
 10
156.7843402057
 20
156.6878353757
 11
158.7959092018
 21
157.8492083446
  0
LINE
  5
2A1
100
AcDbEntity
  8
0
100
AcDbLine
 62
7
  6
BYLAYER
 10
39.680770334
 20
88.5234791824
 11
103.69176946
 21
125.4800261581
  0
LINE
  5
2A2
100
AcDbEntity
  8
0
100
AcDbLine
 62
7
  6
BYLAYER
 10
133.5196815479
 20
162.4657270789
 11
125.8864320649
 21
161.7838378479
  0
LINE
  5
2A3
100
AcDbEntity
  8
0
100
AcDbLine
 62
7
  6
BYLAYER
 10
110.0273638389
 20
159.214950222
 11
125.7608380673
 21
150.1314301376
  0
LINE
  5
2A4
100
AcDbEntity
  8
0
100
AcDbLine
 62
7
  6
BYLAYER
 10
122.5275402592
 20
218.9640238529
 11
122.5275402592
 21
217.3048909413
  0
LINE
  5
2A5
100
AcDbEntity
  8
0
100
AcDbLine
 62
7
  6
BYLAYER
 10
123.6491023309
 20
84.9903324213
 11
123.6491023309
 21
83.3311995097
  0
LINE
  5
2A6
100
AcDbEntity
  8
0
100
AcDbLine
 62
7
  6
BYLAYER
 10
125.8864320649
 20
151.6061414959
 11
125.8864320649
 21
161.7838378479
  0
LINE
  5
2A7
100
AcDbEntity
  8
0
100
AcDbLine
 62
7
  6
BYLAYER
 10
156.1182622418
 20
153.4574602
 11
147.7039614887
 21
148.1619385161
  0
LINE
  5
2A8
100
AcDbEntity
  8
0
100
AcDbLine
 62
7
  6
BYLAYER
 10
141.2426696579
 20
146.5691770233
 11
133.5196815479
 21
142.1103343748
  0
LINE
  5
2A9
100
AcDbEntity
  8
0
100
AcDbLine
 62
7
  6
BYLAYER
 10
109.4059453663
 20
127.8423147234
 11
111.4175143624
 21
129.0036876923
  0
LINE
  5
2AA
100
AcDbEntity
  8
0
100
AcDbLine
 62
7
  6
BYLAYER
 10
39.6807703358
 20
86.3458672349
 11
103.6917694618
 21
123.3024142106
  0
LINE
  5
2AB
100
AcDbEntity
  8
0
100
AcDbLine
 62
7
  6
BYLAYER
 10
161.8076419952
 20
156.735415051
 11
160.370806998
 21
155.9058629303
  0
LINE
  5
2AC
100
AcDbEntity
  8
0
100
AcDbLine
 62
7
  6
BYLAYER
 10
146.5766457783
 20
147.508100581
 11
147.5878184076
 21
148.0918978859
  0
LINE
  5
2AD
100
AcDbEntity
  8
0
100
AcDbLine
 62
7
  6
BYLAYER
 10
148.8759191409
 20
147.2510662543
 11
141.1529310309
 21
142.7922236058
  0
LINE
  5
2AE
100
AcDbEntity
  8
0
100
AcDbLine
 62
7
  6
BYLAYER
 10
104.9490105514
 20
121.1248208545
 11
40.9380114253
 21
84.1682738788
  0
LINE
  5
2AF
100
AcDbEntity
  8
0
100
AcDbLine
 62
7
  6
BYLAYER
 10
46.930030322
 20
85.0051455426
 11
43.4816263286
 21
83.014220453
  0
LINE
  5
2B0
100
AcDbEntity
  8
0
100
AcDbLine
 62
7
  6
BYLAYER
 10
64.9109794262
 20
94.9895721232
 11
73.5319894095
 21
99.9668848472
  0
LINE
  5
2B1
100
AcDbEntity
  8
0
100
AcDbLine
 62
7
  6
BYLAYER
 10
112.9619294465
 20
121.6831328604
 11
114.9734984426
 21
122.8445058293
  0
LINE
  5
2B2
100
AcDbEntity
  8
0
100
AcDbLine
 62
7
  6
BYLAYER
 10
133.609420175
 20
166.2426804965
 11
141.2426696579
 21
166.9245697275
  0
LINE
  5
2B3
100
AcDbEntity
  8
0
100
AcDbLine
 62
7
  6
BYLAYER
 10
126.6588599406
 20
150.6499002131
 11
110.9253857122
 21
159.7334202974
  0
LINE
  5
2B4
100
AcDbEntity
  8
0
100
AcDbLine
 62
7
  6
BYLAYER
 10
125.8864320649
 20
151.6061414959
 11
133.5196815479
 21
142.1103343748
  0
LINE
  5
2B5
100
AcDbEntity
  8
0
100
AcDbLine
 62
7
  6
BYLAYER
 10
127.7724238116
 20
146.647280766
 11
127.7724238116
 21
128.4797753839
  0
LINE
  5
2B6
100
AcDbEntity
  8
0
100
AcDbLine
 62
7
  6
BYLAYER
 10
128.6704456849
 20
128.9982454594
 11
128.6704456849
 21
147.1657508415
  0
LINE
  5
2B7
100
AcDbEntity
  8
0
100
AcDbLine
 62
7
  6
BYLAYER
 10
132.1835023309
 20
84.9903324213
 11
132.1835023309
 21
83.3311995097
  0
LINE
  5
2B8
100
AcDbEntity
  8
0
100
AcDbLine
 62
7
  6
BYLAYER
 10
133.609420175
 20
156.0649841444
 11
133.609420175
 21
166.2426804965
  0
LINE
  5
2B9
100
AcDbEntity
  8
0
100
AcDbLine
 62
7
  6
BYLAYER
 10
135.4535447244
 20
97.3299791333
 11
135.4535447244
 21
109.9808675843
  0
LINE
  5
2BA
100
AcDbEntity
  8
0
100
AcDbLine
 62
7
  6
BYLAYER
 10
135.4535447244
 20
133.2087283468
 11
135.4535447244
 21
144.6152671141
  0
LINE
  5
2BB
100
AcDbEntity
  8
0
100
AcDbLine
 62
7
  6
BYLAYER
 10
93.8274422832
 20
109.2556407878
 11
155.9705558903
 21
145.1337699936
  0
LINE
  5
2BC
100
AcDbEntity
  8
0
100
AcDbLine
 62
7
  6
BYLAYER
 10
128.6704456849
 20
128.9982454594
 11
127.7724238116
 21
128.4797753839
  0
LINE
  5
2BD
100
AcDbEntity
  8
0
100
AcDbLine
 62
7
  6
BYLAYER
 10
125.7608380673
 20
127.3183526072
 11
126.6588599406
 21
127.8368226826
  0
LINE
  5
2BE
100
AcDbEntity
  8
0
100
AcDbLine
 62
7
  6
BYLAYER
 10
128.0812535709
 20
127.6959360147
 11
127.1832316976
 21
127.1774659393
  0
LINE
  5
2BF
100
AcDbEntity
  8
0
100
AcDbLine
 62
7
  6
BYLAYER
 10
73.5320611952
 20
95.7597058429
 11
82.1530711785
 21
100.7370185669
  0
LINE
  5
2C0
100
AcDbEntity
  8
0
100
AcDbLine
 62
7
  6
BYLAYER
 10
50.9940121279
 20
77.9660805563
 11
47.5456081346
 21
75.9751554667
  0
LINE
  5
2C1
100
AcDbEntity
  8
0
100
AcDbLine
 62
7
  6
BYLAYER
 10
78.8566688602
 20
97.4261711656
 11
70.1358799556
 21
92.8251985678
  0
LINE
  5
2C2
100
AcDbEntity
  8
0
100
AcDbLine
 62
7
  6
BYLAYER
 10
155.9705454216
 20
146.5854801737
 11
95.6229730612
 21
181.4263791145
  0
LINE
  5
2C3
100
AcDbEntity
  8
0
100
AcDbLine
 62
7
  6
BYLAYER
 10
141.2426696579
 20
146.5691770233
 11
133.609420175
 21
156.0649841444
  0
LINE
  5
2C4
100
AcDbEntity
  8
0
100
AcDbLine
 62
7
  6
BYLAYER
 10
137.8662740326
 20
206.0023798969
 11
137.8662740326
 21
204.3432469853
  0
LINE
  5
2C5
100
AcDbEntity
  8
0
100
AcDbLine
 62
7
  6
BYLAYER
 10
137.9935447244
 20
109.9808675843
 11
137.9935447244
 21
133.2087283468
  0
LINE
  5
2C6
100
AcDbEntity
  8
0
100
AcDbLine
 62
7
  6
BYLAYER
 10
141.1529310309
 20
152.9699199578
 11
141.1529310309
 21
142.7922236058
  0
LINE
  5
2C7
100
AcDbEntity
  8
0
100
AcDbLine
 62
7
  6
BYLAYER
 10
64.9109794262
 20
83.4947621255
 11
73.5319894095
 21
88.4720748495
  0
LINE
  5
2C8
100
AcDbEntity
  8
0
100
AcDbLine
 62
7
  6
BYLAYER
 10
54.2837431586
 20
71.542300798
 11
59.5102356935
 21
74.5598122011
  0
LINE
  5
2C9
100
AcDbEntity
  8
0
100
AcDbLine
 62
7
  6
BYLAYER
 10
54.7282411668
 20
71.498273715
 11
59.3261131579
 21
74.1528405011
  0
LINE
  5
2CA
100
AcDbEntity
  8
0
100
AcDbLine
 62
7
  6
BYLAYER
 10
59.0378722568
 20
73.926223838
 11
68.8622367828
 21
79.5983020273
  0
LINE
  5
2CB
100
AcDbEntity
  8
0
100
AcDbLine
 62
7
  6
BYLAYER
 10
59.482370265
 20
73.882196755
 11
68.6781142472
 21
79.1913303273
  0
LINE
  5
2CC
100
AcDbEntity
  8
0
100
AcDbLine
 62
7
  6
BYLAYER
 10
161.4030246388
 20
132.5246780839
 11
163.3379793161
 21
133.6418180193
  0
LINE
  5
2CD
100
AcDbEntity
  8
0
100
AcDbLine
 62
7
  6
BYLAYER
 10
141.1529310309
 20
152.9699199578
 11
133.5196815479
 21
162.4657270789
  0
LINE
  5
2CE
100
AcDbEntity
  8
0
100
AcDbLine
 62
7
  6
BYLAYER
 10
144.8515447244
 20
109.9808675843
 11
144.8515447244
 21
133.2087283468
  0
LINE
  5
2CF
100
AcDbEntity
  8
0
100
AcDbLine
 62
7
  6
BYLAYER
 10
144.9782740326
 20
206.0023798969
 11
144.9782740326
 21
204.3432469853
  0
LINE
  5
2D0
100
AcDbEntity
  8
0
100
AcDbLine
 62
7
  6
BYLAYER
 10
147.255173274
 20
100.3292522259
 11
147.255173274
 21
98.1516402924
  0
LINE
  5
2D1
100
AcDbEntity
  8
0
100
AcDbLine
 62
7
  6
BYLAYER
 10
147.3915447244
 20
97.3299791333
 11
147.3915447244
 21
109.9808675843
  0
LINE
  5
2D2
100
AcDbEntity
  8
0
100
AcDbLine
 62
7
  6
BYLAYER
 10
147.3915447244
 20
133.2087283468
 11
147.3915447244
 21
144.6152671141
  0
LINE
  5
2D3
100
AcDbEntity
  8
0
100
AcDbLine
 62
7
  6
BYLAYER
 10
148.8759191409
 20
157.4287626064
 11
148.8759191409
 21
147.2510662543
  0
LINE
  5
2D4
100
AcDbEntity
  8
0
100
AcDbLine
 62
7
  6
BYLAYER
 10
87.5923536205
 20
82.2954310042
 11
79.2473728668
 21
77.0435357095
  0
LINE
  5
2D5
100
AcDbEntity
  8
0
100
AcDbLine
 62
7
  6
BYLAYER
 10
82.1531429641
 20
85.0350295649
 11
90.7741529475
 21
90.012342289
  0
LINE
  5
2D6
100
AcDbEntity
  8
0
100
AcDbLine
 62
7
  6
BYLAYER
 10
132.9107516339
 20
109.7409363132
 11
134.7349320955
 21
110.7941211071
  0
LINE
  5
2D7
100
AcDbEntity
  8
0
100
AcDbLine
 62
7
  6
BYLAYER
 10
164.8823944002
 20
126.3212631874
 11
166.8939633963
 21
127.4826361563
  0
LINE
  5
2D8
100
AcDbEntity
  8
0
100
AcDbLine
 62
7
  6
BYLAYER
 10
73.5320611952
 20
72.7700858476
 11
82.1530711785
 21
77.7473985716
  0
LINE
  5
2D9
100
AcDbEntity
  8
0
100
AcDbLine
 62
7
  6
BYLAYER
 10
115.5488447903
 20
191.2050106693
 11
112.3370669794
 21
190.5504627268
  0
LINE
  5
2DA
100
AcDbEntity
  8
0
100
AcDbLine
 62
7
  6
BYLAYER
 10
151.8394890347
 20
170.1369140976
 11
150.8619666839
 21
170.7013030268
  0
LINE
  5
2DB
100
AcDbEntity
  8
0
100
AcDbLine
 62
7
  6
BYLAYER
 10
141.2426696579
 20
166.9245697275
 11
148.8759191409
 21
157.4287626064
  0
LINE
  5
2DC
100
AcDbEntity
  8
0
100
AcDbLine
 62
7
  6
BYLAYER
 10
155.3329472839
 20
99.2950059736
 11
155.3329577526
 21
94.2139425644
  0
LINE
  5
2DD
100
AcDbEntity
  8
0
100
AcDbLine
 62
7
  6
BYLAYER
 10
155.8537166595
 20
94.9397946249
 11
155.8537166595
 21
98.569147869
  0
LINE
  5
2DE
100
AcDbEntity
  8
0
100
AcDbLine
 62
7
  6
BYLAYER
 10
155.9705454311
 20
146.5854801662
 11
155.9705558998
 21
97.8484820203
  0
LINE
  5
2DF
100
AcDbEntity
  8
0
100
AcDbLine
 62
7
  6
BYLAYER
 10
156.4913148067
 20
98.5743340808
 11
156.4913148067
 21
145.8596220616
  0
LINE
  5
2E0
100
AcDbEntity
  8
0
100
AcDbLine
 62
7
  6
BYLAYER
 10
158.1372076003
 20
159.2288804585
 11
158.1372157402
 21
158.1001268054
  0
LINE
  5
2E1
100
AcDbEntity
  8
0
100
AcDbLine
 62
7
  6
BYLAYER
 10
82.1531429641
 20
73.5402195673
 11
90.7741529475
 21
78.5175322913
  0
LINE
  5
2E2
100
AcDbEntity
  8
0
100
AcDbLine
 62
7
  6
BYLAYER
 10
136.2793471796
 20
103.4735662752
 11
138.2909161757
 21
104.6349392442
  0
LINE
  5
2E3
100
AcDbEntity
  8
0
100
AcDbLine
 62
7
  6
BYLAYER
 10
153.725640809
 20
111.7515945932
 11
155.2399251216
 21
112.6258618301
  0
LINE
  5
2E4
100
AcDbEntity
  8
0
100
AcDbLine
 62
7
  6
BYLAYER
 10
160.317007806
 20
193.0407359409
 11
160.317007806
 21
191.3816030293
  0
LINE
  5
2E5
100
AcDbEntity
  8
0
100
AcDbLine
 62
7
  6
BYLAYER
 10
160.370806998
 20
155.9058629303
 11
160.370806998
 21
175.6512353209
  0
LINE
  5
2E6
100
AcDbEntity
  8
0
100
AcDbLine
 62
7
  6
BYLAYER
 10
161.8076419952
 20
176.4807874415
 11
161.8076419952
 21
156.735415051
  0
LINE
  5
2E7
100
AcDbEntity
  8
0
100
AcDbLine
 62
7
  6
BYLAYER
 10
158.2371753946
 20
117.26621182
 11
156.064418656
 21
114.8120158475
  0
LINE
  5
2E8
100
AcDbEntity
  8
0
100
AcDbLine
 62
7
  6
BYLAYER
 10
83.2441741479
 20
63.3727052502
 11
147.255173274
 21
100.3292522259
  0
LINE
  5
2E9
100
AcDbEntity
  8
0
100
AcDbLine
 62
7
  6
BYLAYER
 10
156.7843402057
 20
105.3053069982
 11
158.7959092018
 21
106.4666799671
  0
LINE
  5
2EA
100
AcDbEntity
  8
0
100
AcDbLine
 62
7
  6
BYLAYER
 10
81.9869330566
 20
60.4692040696
 11
147.2551732722
 21
98.1516402804
  0
LINE
  5
2EB
100
AcDbEntity
  8
0
100
AcDbLine
 62
7
  6
BYLAYER
 10
82.8759290748
 20
60.3811499026
 11
146.8869282009
 21
97.3376968783
  0
LINE
  5
2EC
100
AcDbEntity
  8
0
100
AcDbLine
 62
7
  6
BYLAYER
 10
153.951333286
 20
101.1375291739
 11
152.8737070381
 21
100.5153650834
  0
LINE
  5
2ED
100
AcDbEntity
  8
0
100
AcDbLine
 62
7
  6
BYLAYER
 10
95.17387612
 20
213.2918493692
 11
160.370806998
 21
175.6512353209
  0
LINE
  5
2EE
100
AcDbEntity
  8
0
100
AcDbLine
 62
7
  6
BYLAYER
 10
161.8076419952
 20
176.4807874415
 11
96.6107111172
 21
214.1214014898
  0
LINE
  5
2EF
100
AcDbEntity
  8
0
100
AcDbLine
 62
7
  6
BYLAYER
 10
98.3349131139
 20
217.1078235285
 11
163.5318439919
 21
179.4672094803
  0
LINE
  5
2F0
100
AcDbEntity
  8
0
100
AcDbLine
 62
7
  6
BYLAYER
 10
163.5318439919
 20
181.1263423919
 11
98.3349131139
 21
218.7669564402
  0
LINE
  5
2F1
100
AcDbEntity
  8
0
100
AcDbLine
 62
7
  6
BYLAYER
 10
167.429007806
 20
193.0407359409
 11
167.429007806
 21
191.3816030293
  0
LINE
  5
2F2
100
AcDbEntity
  8
0
100
AcDbLine
 62
7
  6
BYLAYER
 10
153.4299645477
 20
99.5518930635
 11
151.6339208012
 21
98.5149529126
  0
LINE
  5
2F3
100
AcDbEntity
  8
0
100
AcDbLine
 62
7
  6
BYLAYER
 10
154.5075907957
 20
100.174057154
 11
156.3036345422
 21
101.2109973048
  0
LINE
  5
2F4
100
AcDbEntity
  8
0
100
AcDbLine
 62
7
  6
BYLAYER
 10
155.3329577544
 20
97.8432958075
 11
93.8364198734
 21
62.338465043
  0
LINE
  5
2F5
100
AcDbEntity
  8
0
100
AcDbLine
 62
7
  6
BYLAYER
 10
155.9705558903
 20
97.8484820127
 11
93.8274422832
 21
61.970352807
  0
LINE
  5
2F6
100
AcDbEntity
  8
0
100
AcDbLine
 62
7
  6
BYLAYER
 10
155.3329577431
 20
94.2139425568
 11
93.8364198847
 21
58.7091118053
  0
LINE
  5
2F7
100
AcDbEntity
  8
0
100
AcDbLine
 62
7
  6
BYLAYER
 10
183.0009582042
 20
192.3667736269
 11
183.0009582042
 21
190.7076407153
  0
LINE
  5
2F8
100
AcDbEntity
  8
0
100
AcDbLine
 62
7
  6
BYLAYER
 10
117.8040273262
 20
228.3482547636
 11
183.0009582042
 21
190.7076407153
  0
LINE
  5
2F9
100
AcDbEntity
  8
0
100
AcDbLine
 62
7
  6
BYLAYER
 10
117.8040273262
 20
230.0073876752
 11
183.0009582042
 21
192.3667736269
  0
ARC
  5
2FA
100
AcDbEntity
  8
0
100
AcDbCircle
 62
7
  6
BYLAYER
 10
70.737994122
 20
113.1387840841
 40
99.3129562392
100
AcDbArc
 50
25.5075088868
 51
28.2910278464
  0
ARC
  5
2FB
100
AcDbEntity
  8
0
100
AcDbCircle
 62
7
  6
BYLAYER
 10
108.7438014593
 20
179.1554100278
 40
19.7798404815
100
AcDbArc
 50
125.1488161682
 51
133.3178554673
  0
SPLINE
  5
2FC
100
AcDbEntity
  8
0
100
AcDbSpline
 62
7
  6
BYLAYER
 70
0
 71
3
 72
9
 73
5
 74
0
 42
0.0000001
 43
0.0000001
 44
0.0000000001
 40
0.0
 40
0.0
 40
0.0
 40
0.0
 40
0.5246531494
 40
1.0
 40
1.0
 40
1.0
 40
1.0
 10
151.8303474689
 20
162.8700049229
 30
0.0
 10
151.8303474689
 20
162.8745321449
 30
0.0
 10
151.8475736272
 20
162.8736442334
 30
0.0
 10
151.8483080559
 20
162.8637373667
 30
0.0
 10
151.8483080559
 20
162.8596356078
 30
0.0
  0
SPLINE
  5
2FD
100
AcDbEntity
  8
0
100
AcDbSpline
 62
7
  6
BYLAYER
 70
0
 71
3
 72
9
 73
5
 74
0
 42
0.0000001
 43
0.0000001
 44
0.0000000001
 40
0.0
 40
0.0
 40
0.0
 40
0.0
 40
0.525112211
 40
1.0
 40
1.0
 40
1.0
 40
1.0
 10
151.8483080559
 20
162.8596356078
 30
0.0
 10
151.8483080559
 20
162.8551043872
 30
0.0
 10
151.831072269
 20
162.8560011201
 30
0.0
 10
151.8303474689
 20
162.8659070915
 30
0.0
 10
151.8303474689
 20
162.8700049229
 30
0.0
  0
SPLINE
  5
2FE
100
AcDbEntity
  8
0
100
AcDbSpline
 62
7
  6
BYLAYER
 70
0
 71
3
 72
19
 73
15
 74
0
 42
0.0000001
 43
0.0000001
 44
0.0000000001
 40
0.0
 40
0.0
 40
0.0
 40
0.0
 40
0.0792608238
 40
0.1474869931
 40
0.2082978145
 40
0.2687334279
 40
0.3365232104
 40
0.4150256647
 40
0.5043445007
 40
0.6024365824
 40
0.7054389743
 40
0.8095553907
 40
0.9093453258
 40
1.0
 40
1.0
 40
1.0
 40
1.0
 10
137.0331570754
 20
159.1771816172
 30
0.0
 10
137.0331570754
 20
159.5727800464
 30
0.0
 10
137.1093887045
 20
160.3139203541
 30
0.0
 10
137.5214392062
 20
161.2912782297
 30
0.0
 10
138.2296043161
 20
161.9667469859
 30
0.0
 10
139.1662000899
 20
162.2408056747
 30
0.0
 10
140.2111214125
 20
162.1116255579
 30
0.0
 10
141.2969843288
 20
161.6296444903
 30
0.0
 10
142.3702440969
 20
160.8346794348
 30
0.0
 10
143.3696047434
 20
159.7758651722
 30
0.0
 10
144.2349532024
 20
158.5152771992
 30
0.0
 10
144.9075894299
 20
157.1323139915
 30
0.0
 10
145.3391306271
 20
155.7206318695
 30
0.0
 10
145.4521822405
 20
154.769031371
 30
0.0
 10
145.4521822405
 20
154.3165651337
 30
0.0
  0
SPLINE
  5
2FF
100
AcDbEntity
  8
0
100
AcDbSpline
 62
7
  6
BYLAYER
 70
0
 71
3
 72
19
 73
15
 74
0
 42
0.0000001
 43
0.0000001
 44
0.0000000001
 40
0.0
 40
0.0
 40
0.0
 40
0.0
 40
0.0792608238
 40
0.1474869931
 40
0.2082978145
 40
0.2687334279
 40
0.3365232104
 40
0.4150256647
 40
0.5043445007
 40
0.6024365824
 40
0.7054389743
 40
0.8095553907
 40
0.9093453258
 40
1.0
 40
1.0
 40
1.0
 40
1.0
 10
145.4521822405
 20
154.3165651337
 30
0.0
 10
145.4521822405
 20
153.9209667044
 30
0.0
 10
145.3759506114
 20
153.1798263968
 30
0.0
 10
144.9639001097
 20
152.2024685212
 30
0.0
 10
144.2557349998
 20
151.526999765
 30
0.0
 10
143.319139226
 20
151.2529410762
 30
0.0
 10
142.2742179034
 20
151.382121193
 30
0.0
 10
141.1883549871
 20
151.8641022605
 30
0.0
 10
140.115095219
 20
152.659067316
 30
0.0
 10
139.1157345725
 20
153.7178815787
 30
0.0
 10
138.2503861134
 20
154.9784695516
 30
0.0
 10
137.577749886
 20
156.3614327594
 30
0.0
 10
137.1462086888
 20
157.7731148814
 30
0.0
 10
137.0331570754
 20
158.7247153798
 30
0.0
 10
137.0331570754
 20
159.1771816172
 30
0.0
  0
SPLINE
  5
300
100
AcDbEntity
  8
0
100
AcDbSpline
 62
7
  6
BYLAYER
 70
0
 71
3
 72
9
 73
5
 74
0
 42
0.0000001
 43
0.0000001
 44
0.0000000001
 40
0.0
 40
0.0
 40
0.0
 40
0.0
 40
0.4748501597
 40
1.0
 40
1.0
 40
1.0
 40
1.0
 10
141.2336893644
 20
156.752058033
 30
0.0
 10
141.2336893644
 20
156.747961608
 30
0.0
 10
141.2344198421
 20
156.7380629602
 30
0.0
 10
141.2516499515
 20
156.7371583688
 30
0.0
 10
141.2516499515
 20
156.7416887179
 30
0.0
  0
SPLINE
  5
301
100
AcDbEntity
  8
0
100
AcDbSpline
 62
7
  6
BYLAYER
 70
0
 71
3
 72
9
 73
5
 74
0
 42
0.0000001
 43
0.0000001
 44
0.0000000001
 40
0.0
 40
0.0
 40
0.0
 40
0.0
 40
0.474887789
 40
1.0
 40
1.0
 40
1.0
 40
1.0
 10
141.2516499515
 20
156.7416887179
 30
0.0
 10
141.2516499515
 20
156.7457865493
 30
0.0
 10
141.2509251513
 20
156.7556925207
 30
0.0
 10
141.2336893644
 20
156.7565892536
 30
0.0
 10
141.2336893644
 20
156.752058033
 30
0.0
  0
SPLINE
  5
302
100
AcDbEntity
  8
0
100
AcDbSpline
 62
7
  6
BYLAYER
 70
0
 71
3
 72
21
 73
17
 74
0
 42
0.0000001
 43
0.0000001
 44
0.0000000001
 40
0.0
 40
0.0
 40
0.0
 40
0.0
 40
0.0686884999
 40
0.1289125632
 40
0.1826241229
 40
0.2334344148
 40
0.2870256323
 40
0.3472436599
 40
0.4157056357
 40
0.4922096133
 40
0.5752459765
 40
0.6624488228
 40
0.7509612287
 40
0.8389788575
 40
0.9228422314
 40
1.0
 40
1.0
 40
1.0
 40
1.0
 10
145.5414479243
 20
166.5008206279
 30
0.0
 10
145.5414479243
 20
167.0141208683
 30
0.0
 10
145.6285357637
 20
167.9821488277
 30
0.0
 10
146.0818901137
 20
169.28757828
 30
0.0
 10
146.8477462962
 20
170.2856532961
 30
0.0
 10
147.8969477543
 20
170.8940888824
 30
0.0
 10
149.1425989566
 20
171.0628690403
 30
0.0
 10
150.4984621903
 20
170.8068081256
 30
0.0
 10
151.9018733745
 20
170.1607811162
 30
0.0
 10
153.2931159988
 20
169.1627976667
 30
0.0
 10
154.609690857
 20
167.8625780244
 30
0.0
 10
155.7898189232
 20
166.3237562547
 30
0.0
 10
156.781751971
 20
164.6146388478
 30
0.0
 10
157.5365558196
 20
162.8147035494
 30
0.0
 10
158.0147899876
 20
161.0099659964
 30
0.0
 10
158.1372076005
 20
159.8054098879
 30
0.0
 10
158.1372076005
 20
159.2288199028
 30
0.0
  0
SPLINE
  5
303
100
AcDbEntity
  8
0
100
AcDbSpline
 62
7
  6
BYLAYER
 70
0
 71
3
 72
21
 73
17
 74
0
 42
0.0000001
 43
0.0000001
 44
0.0000000001
 40
0.0
 40
0.0
 40
0.0
 40
0.0
 40
0.0686884999
 40
0.1289125632
 40
0.1826241229
 40
0.2334344148
 40
0.2870256323
 40
0.3472436599
 40
0.4157056357
 40
0.4922096133
 40
0.5752459765
 40
0.6624488228
 40
0.7509612287
 40
0.8389788575
 40
0.9228422314
 40
1.0
 40
1.0
 40
1.0
 40
1.0
 10
158.1372076005
 20
159.2288199028
 30
0.0
 10
158.1372076005
 20
158.7155196624
 30
0.0
 10
158.0501197612
 20
157.747491703
 30
0.0
 10
157.5967654112
 20
156.4420622507
 30
0.0
 10
156.8309092287
 20
155.4439872346
 30
0.0
 10
155.7817077706
 20
154.8355516483
 30
0.0
 10
154.5360565683
 20
154.6667714904
 30
0.0
 10
153.1801933346
 20
154.9228324051
 30
0.0
 10
151.7767821504
 20
155.5688594145
 30
0.0
 10
150.385539526
 20
156.566842864
 30
0.0
 10
149.0689646679
 20
157.8670625063
 30
0.0
 10
147.8888366016
 20
159.405884276
 30
0.0
 10
146.8969035539
 20
161.1150016829
 30
0.0
 10
146.1420997052
 20
162.9149369813
 30
0.0
 10
145.6638655372
 20
164.7196745343
 30
0.0
 10
145.5414479243
 20
165.9242306428
 30
0.0
 10
145.5414479243
 20
166.5008206279
 30
0.0
  0
SPLINE
  5
304
100
AcDbEntity
  8
0
100
AcDbSpline
 62
7
  6
BYLAYER
 70
0
 71
3
 72
19
 73
15
 74
0
 42
0.0000001
 43
0.0000001
 44
0.0000000001
 40
0.0
 40
0.0
 40
0.0
 40
0.0
 40
0.0903088454
 40
0.1891074994
 40
0.2921279099
 40
0.3944944221
 40
0.4927452385
 40
0.5824433513
 40
0.6612316126
 40
0.7293553262
 40
0.7903167964
 40
0.8516796169
 40
0.9204702111
 40
1.0
 40
1.0
 40
1.0
 40
1.0
 10
147.6298151799
 20
165.2951285071
 30
0.0
 10
147.6298151799
 20
164.8443969361
 30
0.0
 10
147.7416517599
 20
163.8994903938
 30
0.0
 10
148.1675069126
 20
162.4989687834
 30
0.0
 10
148.8303117629
 20
161.1265538741
 30
0.0
 10
149.6861062703
 20
159.8691302565
 30
0.0
 10
150.6797828379
 20
158.8057695593
 30
0.0
 10
151.7515139842
 20
158.0020213216
 30
0.0
 10
152.8380479389
 20
157.5098386111
 30
0.0
 10
153.8868079502
 20
157.3687718041
 30
0.0
 10
154.8340422975
 20
157.6329042753
 30
0.0
 10
155.5545997227
 20
158.308886671
 30
0.0
 10
155.9719429666
 20
159.292277709
 30
0.0
 10
156.0488403449
 20
160.0375787383
 30
0.0
 10
156.0488403449
 20
160.4345120236
 30
0.0
  0
SPLINE
  5
305
100
AcDbEntity
  8
0
100
AcDbSpline
 62
7
  6
BYLAYER
 70
0
 71
3
 72
19
 73
15
 74
0
 42
0.0000001
 43
0.0000001
 44
0.0000000001
 40
0.0
 40
0.0
 40
0.0
 40
0.0
 40
0.0903088454
 40
0.1891074994
 40
0.2921279099
 40
0.3944944221
 40
0.4927452385
 40
0.5824433513
 40
0.6612316126
 40
0.7293553262
 40
0.7903167964
 40
0.8516796169
 40
0.9204702111
 40
1.0
 40
1.0
 40
1.0
 40
1.0
 10
156.0488403449
 20
160.4345120236
 30
0.0
 10
156.0488403449
 20
160.8852435946
 30
0.0
 10
155.937003765
 20
161.8301501369
 30
0.0
 10
155.5111486122
 20
163.2306717473
 30
0.0
 10
154.848343762
 20
164.6030866566
 30
0.0
 10
153.9925492546
 20
165.8605102742
 30
0.0
 10
152.998872687
 20
166.9238709714
 30
0.0
 10
151.9271415407
 20
167.7276192091
 30
0.0
 10
150.840607586
 20
168.2198019196
 30
0.0
 10
149.7918475747
 20
168.3608687266
 30
0.0
 10
148.8446132273
 20
168.0967362554
 30
0.0
 10
148.1240558022
 20
167.4207538597
 30
0.0
 10
147.7067125582
 20
166.4373628217
 30
0.0
 10
147.6298151799
 20
165.6920617924
 30
0.0
 10
147.6298151799
 20
165.2951285071
 30
0.0
  0
SPLINE
  5
306
100
AcDbEntity
  8
0
100
AcDbSpline
 62
7
  6
BYLAYER
 70
0
 71
3
 72
21
 73
17
 74
0
 42
0.0000001
 43
0.0000001
 44
0.0000000001
 40
0.0
 40
0.0
 40
0.0
 40
0.0
 40
0.0684788707
 40
0.1287411203
 40
0.1825880967
 40
0.2339517029
 40
0.287798312
 40
0.3480599701
 40
0.4165381917
 40
0.4931106762
 40
0.5763041999
 40
0.6637867938
 40
0.752750163
 40
0.840232983
 40
0.9234269351
 40
1.0
 40
1.0
 40
1.0
 40
1.0
 10
143.5863450175
 20
166.5008159284
 30
0.0
 10
143.5863450175
 20
167.0919779654
 30
0.0
 10
143.6865154561
 20
168.208712539
 30
0.0
 10
144.2087842425
 20
169.7168904782
 30
0.0
 10
145.0965204719
 20
170.8757864212
 30
0.0
 10
146.3179024864
 20
171.5809435861
 30
0.0
 10
147.7652923759
 20
171.7703996252
 30
0.0
 10
149.3329780052
 20
171.4683625714
 30
0.0
 10
150.9532226166
 20
170.7174818317
 30
0.0
 10
152.5598196542
 20
169.5602669535
 30
0.0
 10
154.0812483917
 20
168.0525223289
 30
0.0
 10
155.4459774298
 20
166.2662427652
 30
0.0
 10
156.5883096486
 20
164.2877330502
 30
0.0
 10
157.4529142537
 20
162.212492217
 30
0.0
 10
157.9979405485
 20
160.1417687816
 30
0.0
 10
158.1372157404
 20
158.7610941679
 30
0.0
 10
158.1372157404
 20
158.1000568501
 30
0.0
  0
SPLINE
  5
307
100
AcDbEntity
  8
0
100
AcDbSpline
 62
7
  6
BYLAYER
 70
0
 71
3
 72
21
 73
17
 74
0
 42
0.0000001
 43
0.0000001
 44
0.0000000001
 40
0.0
 40
0.0
 40
0.0
 40
0.0
 40
0.0684788707
 40
0.1287411203
 40
0.1825880967
 40
0.2339517029
 40
0.287798312
 40
0.3480599701
 40
0.4165381917
 40
0.4931106762
 40
0.5763041999
 40
0.6637867938
 40
0.752750163
 40
0.840232983
 40
0.9234269351
 40
1.0
 40
1.0
 40
1.0
 40
1.0
 10
158.1372157404
 20
158.1000568501
 30
0.0
 10
158.1372157404
 20
157.5088948131
 30
0.0
 10
158.0370453018
 20
156.3921602396
 30
0.0
 10
157.5147765154
 20
154.8839823003
 30
0.0
 10
156.627040286
 20
153.7250863573
 30
0.0
 10
155.4056582715
 20
153.0199291924
 30
0.0
 10
153.9582683819
 20
152.8304731534
 30
0.0
 10
152.3905827527
 20
153.1325102072
 30
0.0
 10
150.7703381413
 20
153.8833909469
 30
0.0
 10
149.1637411037
 20
155.040605825
 30
0.0
 10
147.6423123662
 20
156.5483504496
 30
0.0
 10
146.2775833281
 20
158.3346300133
 30
0.0
 10
145.1352511093
 20
160.3131397283
 30
0.0
 10
144.2706465042
 20
162.3883805615
 30
0.0
 10
143.7256202094
 20
164.4591039969
 30
0.0
 10
143.5863450175
 20
165.8397786107
 30
0.0
 10
143.5863450175
 20
166.5008159284
 30
0.0
  0
SPLINE
  5
308
100
AcDbEntity
  8
0
100
AcDbSpline
 62
7
  6
BYLAYER
 70
0
 71
3
 72
21
 73
17
 74
0
 42
0.0000001
 43
0.0000001
 44
0.0000000001
 40
0.0
 40
0.0
 40
0.0
 40
0.0
 40
0.0684788707
 40
0.1287411203
 40
0.1825880967
 40
0.2339517029
 40
0.287798312
 40
0.3480599701
 40
0.4165381917
 40
0.4931106762
 40
0.5763041999
 40
0.6637867938
 40
0.752750163
 40
0.840232983
 40
0.9234269351
 40
1.0
 40
1.0
 40
1.0
 40
1.0
 10
149.7972888351
 20
152.9755583111
 30
0.0
 10
149.7972888351
 20
152.3626191528
 30
0.0
 10
149.6934283358
 20
151.2047465107
 30
0.0
 10
149.1519203052
 20
149.6410105824
 30
0.0
 10
148.2314818074
 20
148.4394234379
 30
0.0
 10
146.9651067408
 20
147.7082898195
 30
0.0
 10
145.4643981614
 20
147.5118546328
 30
0.0
 10
143.8389624094
 20
147.8250180735
 30
0.0
 10
142.1590315167
 20
148.6035596236
 30
0.0
 10
140.4932509449
 20
149.8034037764
 30
0.0
 10
138.9157760877
 20
151.3666904278
 30
0.0
 10
137.5007734055
 20
153.2187726385
 30
0.0
 10
136.3163601567
 20
155.2701663405
 30
0.0
 10
135.4199054018
 20
157.4218545243
 30
0.0
 10
134.8548015259
 20
159.5688588992
 30
0.0
 10
134.7103957394
 20
161.0003945574
 30
0.0
 10
134.7103957394
 20
161.6857830496
 30
0.0
  0
SPLINE
  5
309
100
AcDbEntity
  8
0
100
AcDbSpline
 62
7
  6
BYLAYER
 70
0
 71
3
 72
21
 73
17
 74
0
 42
0.0000001
 43
0.0000001
 44
0.0000000001
 40
0.0
 40
0.0
 40
0.0
 40
0.0
 40
0.0684788707
 40
0.1287411203
 40
0.1825880967
 40
0.2339517029
 40
0.287798312
 40
0.3480599701
 40
0.4165381917
 40
0.4931106762
 40
0.5763041999
 40
0.6637867938
 40
0.752750163
 40
0.840232983
 40
0.9234269351
 40
1.0
 40
1.0
 40
1.0
 40
1.0
 10
134.7103957394
 20
161.6857830496
 30
0.0
 10
134.7103957394
 20
162.2987222079
 30
0.0
 10
134.8142562387
 20
163.45659485
 30
0.0
 10
135.3557642693
 20
165.0203307783
 30
0.0
 10
136.2762027671
 20
166.2219179228
 30
0.0
 10
137.5425778337
 20
166.9530515412
 30
0.0
 10
139.0432864131
 20
167.1494867279
 30
0.0
 10
140.6687221651
 20
166.8363232872
 30
0.0
 10
142.3486530577
 20
166.0577817371
 30
0.0
 10
144.0144336295
 20
164.8579375843
 30
0.0
 10
145.5919084867
 20
163.2946509329
 30
0.0
 10
147.006911169
 20
161.4425687222
 30
0.0
 10
148.1913244177
 20
159.3911750202
 30
0.0
 10
149.0877791726
 20
157.2394868364
 30
0.0
 10
149.6528830486
 20
155.0924824615
 30
0.0
 10
149.7972888351
 20
153.6609468033
 30
0.0
 10
149.7972888351
 20
152.9755583111
 30
0.0
  0
SPLINE
  5
30A
100
AcDbEntity
  8
0
100
AcDbSpline
 62
7
  6
BYLAYER
 70
0
 71
3
 72
21
 73
17
 74
0
 42
0.0000001
 43
0.0000001
 44
0.0000000001
 40
0.0
 40
0.0
 40
0.0
 40
0.0
 40
0.0766040425
 40
0.159822673
 40
0.2471758046
 40
0.3354787834
 40
0.4229389047
 40
0.5062664132
 40
0.5828493917
 40
0.6512817187
 40
0.7115300518
 40
0.765373175
 40
0.8165511255
 40
0.870594375
 40
0.9312161466
 40
1.0
 40
1.0
 40
1.0
 40
1.0
 10
133.6992231101
 20
161.1019857447
 30
0.0
 10
133.6992231101
 20
160.4163224656
 30
0.0
 10
133.8437368197
 20
158.9842926263
 30
0.0
 10
134.4088381925
 20
156.8379821616
 30
0.0
 10
135.3026010699
 20
154.6926398425
 30
0.0
 10
136.4821190104
 20
152.6469781119
 30
0.0
 10
137.8920439885
 20
150.7972400877
 30
0.0
 10
139.4683908019
 20
149.2312695562
 30
0.0
 10
141.1332013682
 20
148.0286460246
 30
0.0
 10
142.8111103297
 20
147.247075
 30
0.0
 10
144.4348238794
 20
146.929137032
 30
0.0
 10
145.9343158811
 20
147.1185817824
 30
0.0
 10
147.2049393466
 20
147.8418099483
 30
0.0
 10
148.133885729
 20
149.041820096
 30
0.0
 10
148.6812675261
 20
150.6122089086
 30
0.0
 10
148.7861162058
 20
151.7760942487
 30
0.0
 10
148.7861162058
 20
152.3917610062
 30
0.0
  0
SPLINE
  5
30B
100
AcDbEntity
  8
0
100
AcDbSpline
 62
7
  6
BYLAYER
 70
0
 71
3
 72
21
 73
17
 74
0
 42
0.0000001
 43
0.0000001
 44
0.0000000001
 40
0.0
 40
0.0
 40
0.0
 40
0.0
 40
0.0766040425
 40
0.159822673
 40
0.2471758046
 40
0.3354787834
 40
0.4229389047
 40
0.5062664132
 40
0.5828493917
 40
0.6512817187
 40
0.7115300518
 40
0.765373175
 40
0.8165511255
 40
0.870594375
 40
0.9312161466
 40
1.0
 40
1.0
 40
1.0
 40
1.0
 10
148.7861162058
 20
152.3917610062
 30
0.0
 10
148.7861162058
 20
153.0774242853
 30
0.0
 10
148.6416024962
 20
154.5094541245
 30
0.0
 10
148.0765011233
 20
156.6557645893
 30
0.0
 10
147.182738246
 20
158.8011069083
 30
0.0
 10
146.0032203055
 20
160.8467686389
 30
0.0
 10
144.5932953274
 20
162.6965066632
 30
0.0
 10
143.016948514
 20
164.2624771947
 30
0.0
 10
141.3521379477
 20
165.4651007263
 30
0.0
 10
139.6742289862
 20
166.2466717509
 30
0.0
 10
138.0505154365
 20
166.5646097189
 30
0.0
 10
136.5510234347
 20
166.3751649685
 30
0.0
 10
135.2803999693
 20
165.6519368025
 30
0.0
 10
134.3514535869
 20
164.4519266549
 30
0.0
 10
133.8040717898
 20
162.8815378423
 30
0.0
 10
133.6992231101
 20
161.7176525022
 30
0.0
 10
133.6992231101
 20
161.1019857447
 30
0.0
  0
SPLINE
  5
30C
100
AcDbEntity
  8
0
100
AcDbSpline
 62
7
  6
BYLAYER
 70
0
 71
3
 72
27
 73
23
 74
0
 42
0.0000001
 43
0.0000001
 44
0.0000000001
 40
0.0
 40
0.0
 40
0.0
 40
0.0
 40
0.0487168115
 40
0.0934400657
 40
0.1343320233
 40
0.172038445
 40
0.2084347359
 40
0.2448546744
 40
0.2829266101
 40
0.323974945
 40
0.3687782709
 40
0.4176134514
 40
0.4703481646
 40
0.5265405621
 40
0.5855308546
 40
0.6465238023
 40
0.7086276489
 40
0.7707612614
 40
0.8313816414
 40
0.8904855938
 40
0.946969019
 40
1.0
 40
1.0
 40
1.0
 40
1.0
 10
103.7488718004
 20
169.4758269087
 30
0.0
 10
103.7488718004
 20
171.1985843707
 30
0.0
 10
103.9625684231
 20
174.5096034242
 30
0.0
 10
105.0213700036
 20
179.1642894485
 30
0.0
 10
106.7934084842
 20
183.1841645026
 30
0.0
 10
109.2592654828
 20
186.4691397011
 30
0.0
 10
112.3774795775
 20
188.9067610081
 30
0.0
 10
116.0596627562
 20
190.3936230502
 30
0.0
 10
120.1583237594
 20
190.8836594466
 30
0.0
 10
124.5456704646
 20
190.3958448434
 30
0.0
 10
129.1156206186
 20
188.9712976928
 30
0.0
 10
133.767489238
 20
186.6601785425
 30
0.0
 10
138.3988411781
 20
183.5241148018
 30
0.0
 10
142.9054322517
 20
179.6393696887
 30
0.0
 10
147.1843076521
 20
175.0970760011
 30
0.0
 10
151.1365736133
 20
170.0018098655
 30
0.0
 10
154.6669237698
 20
164.4737598214
 30
0.0
 10
157.6798946573
 20
158.6623396566
 30
0.0
 10
160.1112890832
 20
152.6988543088
 30
0.0
 10
161.9051571974
 20
146.7204390401
 30
0.0
 10
163.0177127895
 20
140.851106657
 30
0.0
 10
163.2904912954
 20
136.9755526449
 30
0.0
 10
163.2904912954
 20
135.100234545
 30
0.0
  0
SPLINE
  5
30D
100
AcDbEntity
  8
0
100
AcDbSpline
 62
7
  6
BYLAYER
 70
0
 71
3
 72
27
 73
23
 74
0
 42
0.0000001
 43
0.0000001
 44
0.0000000001
 40
0.0
 40
0.0
 40
0.0
 40
0.0
 40
0.0487168115
 40
0.0934400657
 40
0.1343320233
 40
0.172038445
 40
0.2084347359
 40
0.2448546744
 40
0.2829266101
 40
0.323974945
 40
0.3687782709
 40
0.4176134514
 40
0.4703481646
 40
0.5265405621
 40
0.5855308546
 40
0.6465238023
 40
0.7086276489
 40
0.7707612614
 40
0.8313816414
 40
0.8904855938
 40
0.946969019
 40
1.0
 40
1.0
 40
1.0
 40
1.0
 10
163.2904912954
 20
135.100234545
 30
0.0
 10
163.2904912954
 20
133.377477083
 30
0.0
 10
163.0767946727
 20
130.0664580295
 30
0.0
 10
162.0179930922
 20
125.4117720052
 30
0.0
 10
160.2459546115
 20
121.3918969511
 30
0.0
 10
157.780097613
 20
118.1069217526
 30
0.0
 10
154.6618835183
 20
115.6693004456
 30
0.0
 10
150.9797003396
 20
114.1824384035
 30
0.0
 10
146.8810393363
 20
113.6924020071
 30
0.0
 10
142.4936926312
 20
114.1802166103
 30
0.0
 10
137.9237424772
 20
115.6047637609
 30
0.0
 10
133.2718738578
 20
117.9158829112
 30
0.0
 10
128.6405219177
 20
121.0519466519
 30
0.0
 10
124.1339308441
 20
124.936691765
 30
0.0
 10
119.8550554436
 20
129.4789854526
 30
0.0
 10
115.9027894825
 20
134.5742515882
 30
0.0
 10
112.3724393259
 20
140.1023016323
 30
0.0
 10
109.3594684385
 20
145.9137217971
 30
0.0
 10
106.9280740126
 20
151.8772071449
 30
0.0
 10
105.1342058984
 20
157.8556224136
 30
0.0
 10
104.0216503063
 20
163.7249547967
 30
0.0
 10
103.7488718004
 20
167.6005088088
 30
0.0
 10
103.7488718004
 20
169.4758269087
 30
0.0
  0
SPLINE
  5
30E
100
AcDbEntity
  8
0
100
AcDbSpline
 62
7
  6
BYLAYER
 70
0
 71
3
 72
27
 73
23
 74
0
 42
0.0000001
 43
0.0000001
 44
0.0000000001
 40
0.0
 40
0.0
 40
0.0
 40
0.0
 40
0.0488181678
 40
0.0935234856
 40
0.1344057798
 40
0.172269114
 40
0.208444332
 40
0.2446194534
 40
0.2824825198
 40
0.3233644276
 40
0.3680693002
 40
0.4168870161
 40
0.4696848383
 40
0.526007641
 40
0.585163888
 40
0.6462964609
 40
0.7084428779
 40
0.7705893511
 40
0.8317220898
 40
0.8908786039
 40
0.9472017599
 40
1.0
 40
1.0
 40
1.0
 40
1.0
 10
102.0318821737
 20
169.6063285475
 30
0.0
 10
102.0318821737
 20
171.3890120199
 30
0.0
 10
102.253197543
 20
174.8111913297
 30
0.0
 10
103.3489250353
 20
179.6200443709
 30
0.0
 10
105.1823323629
 20
183.7746974481
 30
0.0
 10
107.7306136494
 20
187.162696087
 30
0.0
 10
110.9434821246
 20
189.6693536354
 30
0.0
 10
114.7206893509
 20
191.1985445671
 30
0.0
 10
118.9289220323
 20
191.7114904145
 30
0.0
 10
123.4434770988
 20
191.2221178565
 30
0.0
 10
128.1565607529
 20
189.7663078362
 30
0.0
 10
132.9637241227
 20
187.3908339466
 30
0.0
 10
137.7569403604
 20
184.1565425067
 30
0.0
 10
142.4252863146
 20
180.1417435614
 30
0.0
 10
146.8583251194
 20
175.4428640789
 30
0.0
 10
150.9497926144
 20
170.1730531393
 30
0.0
 10
154.6009271972
 20
164.4596577164
 30
0.0
 10
157.7233424766
 20
158.4409686006
 30
0.0
 10
160.2414344803
 20
152.2628273554
 30
0.0
 10
162.0943126853
 20
146.0739562895
 30
0.0
 10
163.2370913142
 20
140.0246265186
 30
0.0
 10
163.5165442927
 20
136.0369683711
 30
0.0
 10
163.5165442927
 20
134.1089453801
 30
0.0
  0
SPLINE
  5
30F
100
AcDbEntity
  8
0
100
AcDbSpline
 62
7
  6
BYLAYER
 70
0
 71
3
 72
27
 73
23
 74
0
 42
0.0000001
 43
0.0000001
 44
0.0000000001
 40
0.0
 40
0.0
 40
0.0
 40
0.0
 40
0.0488181678
 40
0.0935234856
 40
0.1344057798
 40
0.172269114
 40
0.208444332
 40
0.2446194534
 40
0.2824825198
 40
0.3233644276
 40
0.3680693002
 40
0.4168870161
 40
0.4696848383
 40
0.526007641
 40
0.585163888
 40
0.6462964609
 40
0.7084428779
 40
0.7705893511
 40
0.8317220898
 40
0.8908786039
 40
0.9472017599
 40
1.0
 40
1.0
 40
1.0
 40
1.0
 10
163.5165442927
 20
134.1089453801
 30
0.0
 10
163.5165442927
 20
132.3262619077
 30
0.0
 10
163.2952289234
 20
128.9040825979
 30
0.0
 10
162.1995014311
 20
124.0952295567
 30
0.0
 10
160.3660941035
 20
119.9405764795
 30
0.0
 10
157.817812817
 20
116.5525778406
 30
0.0
 10
154.6049443418
 20
114.0459202922
 30
0.0
 10
150.8277371155
 20
112.5167293605
 30
0.0
 10
146.6195044342
 20
112.003783513
 30
0.0
 10
142.1049493676
 20
112.4931560711
 30
0.0
 10
137.3918657135
 20
113.9489660914
 30
0.0
 10
132.5847023437
 20
116.324439981
 30
0.0
 10
127.791486106
 20
119.5587314209
 30
0.0
 10
123.1231401518
 20
123.5735303662
 30
0.0
 10
118.690101347
 20
128.2724098487
 30
0.0
 10
114.5986338521
 20
133.5422207883
 30
0.0
 10
110.9474992693
 20
139.2556162112
 30
0.0
 10
107.8250839898
 20
145.274305327
 30
0.0
 10
105.3069919861
 20
151.4524465722
 30
0.0
 10
103.4541137811
 20
157.6413176381
 30
0.0
 10
102.3113351522
 20
163.690647409
 30
0.0
 10
102.0318821737
 20
167.6783055565
 30
0.0
 10
102.0318821737
 20
169.6063285475
 30
0.0
  0
SPLINE
  5
310
100
AcDbEntity
  8
0
100
AcDbSpline
 62
7
  6
BYLAYER
 70
0
 71
3
 72
12
 73
8
 74
0
 42
0.0000001
 43
0.0000001
 44
0.0000000001
 40
0.0
 40
0.0
 40
0.0
 40
0.0
 40
0.150938193
 40
0.3299213142
 40
0.5403866121
 40
0.7729671408
 40
1.0
 40
1.0
 40
1.0
 40
1.0
 10
152.6458896379
 20
162.130780457
 30
0.0
 10
152.5900005816
 20
161.98724868
 30
0.0
 10
152.5342137735
 20
161.6446249118
 30
0.0
 10
152.6558131002
 20
161.0980822382
 30
0.0
 10
152.9232828121
 20
160.5207538571
 30
0.0
 10
153.2579397165
 20
159.9244821541
 30
0.0
 10
153.4809407229
 20
159.5117551638
 30
0.0
 10
153.5865127393
 20
159.3055244707
 30
0.0
  0
SPLINE
  5
311
100
AcDbEntity
  8
0
100
AcDbSpline
 62
7
  6
BYLAYER
 70
0
 71
3
 72
12
 73
8
 74
0
 42
0.0000001
 43
0.0000001
 44
0.0000000001
 40
0.0
 40
0.0
 40
0.0
 40
0.0
 40
0.2030886513
 40
0.4270641969
 40
0.6505913348
 40
0.8505012768
 40
1.0
 40
1.0
 40
1.0
 40
1.0
 10
109.9206928824
 20
192.209060444
 30
0.0
 10
110.0627401157
 20
192.031748483
 30
0.0
 10
110.4157082982
 20
191.7002975286
 30
0.0
 10
111.0574397517
 20
191.3443300027
 30
0.0
 10
111.7523151431
 20
191.1260069697
 30
0.0
 10
112.388276744
 20
191.0326926491
 30
0.0
 10
112.7809685004
 20
191.0273453749
 30
0.0
 10
112.9475481747
 20
191.0422261785
 30
0.0
  0
SPLINE
  5
312
100
AcDbEntity
  8
0
100
AcDbSpline
 62
7
  6
BYLAYER
 70
0
 71
3
 72
27
 73
23
 74
0
 42
0.0000001
 43
0.0000001
 44
0.0000000001
 40
0.0
 40
0.0
 40
0.0
 40
0.0
 40
0.0527982401
 40
0.1091213961
 40
0.1682779102
 40
0.2294106489
 40
0.2915571221
 40
0.3537035391
 40
0.414836112
 40
0.473992359
 40
0.5303151617
 40
0.5831129839
 40
0.6319306998
 40
0.6766355724
 40
0.7175174802
 40
0.7553805466
 40
0.791555668
 40
0.827730886
 40
0.8655942202
 40
0.9064765144
 40
0.9511818322
 40
1.0
 40
1.0
 40
1.0
 40
1.0
 10
161.4722857984
 20
132.064696455
 30
0.0
 10
161.4722857984
 20
134.0396469432
 30
0.0
 10
161.1860310189
 20
138.1243634855
 30
0.0
 10
160.0154375033
 20
144.3209321158
 30
0.0
 10
158.1174608025
 20
150.6604384339
 30
0.0
 10
155.5380792001
 20
156.9889537709
 30
0.0
 10
152.3396652758
 20
163.1541359618
 30
0.0
 10
148.5996631802
 20
169.0065937035
 30
0.0
 10
144.4086106023
 20
174.4046702495
 30
0.0
 10
139.867672972
 20
179.2179190393
 30
0.0
 10
135.0857008874
 20
183.3304369782
 30
0.0
 10
130.1758192143
 20
186.6434500948
 30
0.0
 10
125.2516509402
 20
189.0767423013
 30
0.0
 10
120.4238522536
 20
190.5679862978
 30
0.0
 10
115.7994142803
 20
191.0692700361
 30
0.0
 10
111.4887544867
 20
190.5438392417
 30
0.0
 10
107.6196111774
 20
188.9774282645
 30
0.0
 10
104.328542454
 20
186.4097594286
 30
0.0
 10
101.7182367708
 20
182.9392979262
 30
0.0
 10
99.8402048626
 20
178.6835218481
 30
0.0
 10
98.7178076941
 20
173.7576227764
 30
0.0
 10
98.4911055756
 20
170.2521486559
 30
0.0
 10
98.4911055756
 20
168.4260752062
 30
0.0
  0
SPLINE
  5
313
100
AcDbEntity
  8
0
100
AcDbSpline
 62
7
  6
BYLAYER
 70
0
 71
3
 72
27
 73
23
 74
0
 42
0.0000001
 43
0.0000001
 44
0.0000000001
 40
0.0
 40
0.0
 40
0.0
 40
0.0
 40
0.0527982401
 40
0.1091213961
 40
0.1682779102
 40
0.2294106489
 40
0.2915571221
 40
0.3537035391
 40
0.414836112
 40
0.473992359
 40
0.5303151617
 40
0.5831129839
 40
0.6319306998
 40
0.6766355724
 40
0.7175174802
 40
0.7553805466
 40
0.791555668
 40
0.827730886
 40
0.8655942202
 40
0.9064765144
 40
0.9511818322
 40
1.0
 40
1.0
 40
1.0
 40
1.0
 10
98.4911055756
 20
168.4260752062
 30
0.0
 10
98.4911055756
 20
166.451124718
 30
0.0
 10
98.7773603552
 20
162.3664081758
 30
0.0
 10
99.9479538707
 20
156.1698395455
 30
0.0
 10
101.8459305715
 20
149.8303332273
 30
0.0
 10
104.4253121739
 20
143.5018178903
 30
0.0
 10
107.6237260982
 20
137.3366356995
 30
0.0
 10
111.3637281939
 20
131.4841779577
 30
0.0
 10
115.5547807717
 20
126.0861014118
 30
0.0
 10
120.095718402
 20
121.272852622
 30
0.0
 10
124.8776904866
 20
117.160334683
 30
0.0
 10
129.7875721597
 20
113.8473215664
 30
0.0
 10
134.7117404338
 20
111.4140293599
 30
0.0
 10
139.5395391204
 20
109.9227853635
 30
0.0
 10
144.1639770937
 20
109.4215016252
 30
0.0
 10
148.4746368874
 20
109.9469324196
 30
0.0
 10
152.3437801966
 20
111.5133433967
 30
0.0
 10
155.63484892
 20
114.0810122327
 30
0.0
 10
158.2451546032
 20
117.551473735
 30
0.0
 10
160.1231865115
 20
121.8072498132
 30
0.0
 10
161.2455836799
 20
126.7331488848
 30
0.0
 10
161.4722857984
 20
130.2386230054
 30
0.0
 10
161.4722857984
 20
132.064696455
 30
0.0
  0
SPLINE
  5
314
100
AcDbEntity
  8
0
100
AcDbSpline
 62
7
  6
BYLAYER
 70
0
 71
3
 72
12
 73
8
 74
0
 42
0.0000001
 43
0.0000001
 44
0.0000000001
 40
0.0
 40
0.0
 40
0.0
 40
0.0
 40
0.1682171829
 40
0.3754240848
 40
0.5963902056
 40
0.8105910088
 40
1.0
 40
1.0
 40
1.0
 40
1.0
 10
113.6984100181
 20
123.303014213
 30
0.0
 10
113.6989045695
 20
123.5097018138
 30
0.0
 10
113.6993432438
 20
123.971003788
 30
0.0
 10
113.6691644763
 20
124.7036297741
 30
0.0
 10
113.566822562
 20
125.4879953067
 30
0.0
 10
113.3487294016
 20
126.2291513086
 30
0.0
 10
113.0933572293
 20
126.6623250225
 30
0.0
 10
112.9475481747
 20
126.8437123416
 30
0.0
  0
SPLINE
  5
315
100
AcDbEntity
  8
0
100
AcDbSpline
 62
7
  6
BYLAYER
 70
0
 71
3
 72
15
 73
11
 74
0
 42
0.0000001
 43
0.0000001
 44
0.0000000001
 40
0.0
 40
0.0
 40
0.0
 40
0.0
 40
0.1073916922
 40
0.2256561855
 40
0.3580648364
 40
0.503865107
 40
0.6497527865
 40
0.7827081937
 40
0.8995647991
 40
1.0
 40
1.0
 40
1.0
 40
1.0
 10
134.5710895677
 20
109.956966077
 30
0.0
 10
134.4743606096
 20
109.9931167589
 30
0.0
 10
134.2621581852
 20
110.0467634423
 30
0.0
 10
133.9159989299
 20
110.0607268684
 30
0.0
 10
133.5368550261
 20
110.0042253125
 30
0.0
 10
133.1482247777
 20
109.874000205
 30
0.0
 10
132.7871944684
 20
109.6787638356
 30
0.0
 10
132.4883801037
 20
109.4396324498
 30
0.0
 10
132.2694288219
 20
109.1808289886
 30
0.0
 10
132.1705581457
 20
108.994432807
 30
0.0
 10
132.1361509504
 20
108.9041954832
 30
0.0
  0
SPLINE
  5
316
100
AcDbEntity
  8
0
100
AcDbSpline
 62
7
  6
BYLAYER
 70
0
 71
3
 72
12
 73
8
 74
0
 42
0.0000001
 43
0.0000001
 44
0.0000000001
 40
0.0
 40
0.0
 40
0.0
 40
0.0
 40
0.2633955886
 40
0.4994811711
 40
0.6843226843
 40
0.8362638882
 40
1.0
 40
1.0
 40
1.0
 40
1.0
 10
155.449814046
 20
110.986838771
 30
0.0
 10
155.2998721297
 20
111.1044276118
 30
0.0
 10
155.0182266552
 20
111.331573492
 30
0.0
 10
154.6259928402
 20
111.6308413676
 30
0.0
 10
154.2620592996
 20
111.8441085919
 30
0.0
 10
153.8804026699
 20
111.8577499124
 30
0.0
 10
153.6790640839
 20
111.7295700317
 30
0.0
 10
153.5865127393
 20
111.6556413676
 30
0.0
  0
SPLINE
  5
317
100
AcDbEntity
  8
0
100
AcDbSpline
 62
7
  6
BYLAYER
 70
0
 71
3
 72
12
 73
8
 74
0
 42
0.0000001
 43
0.0000001
 44
0.0000000001
 40
0.0
 40
0.0
 40
0.0
 40
0.0
 40
0.1705603984
 40
0.3803165913
 40
0.6012608922
 40
0.8134024127
 40
1.0
 40
1.0
 40
1.0
 40
1.0
 10
161.0962898545
 20
131.1449091662
 30
0.0
 10
161.0962898545
 20
130.9352078461
 30
0.0
 10
161.0972113759
 20
130.4676260895
 30
0.0
 10
161.1227023697
 20
129.7284166863
 30
0.0
 10
161.2281437289
 20
128.9427324903
 30
0.0
 10
161.4557927042
 20
128.2104260743
 30
0.0
 10
161.7091395029
 20
127.7833182641
 30
0.0
 10
161.8531742724
 20
127.6047490429
 30
0.0
  0
SPLINE
  5
318
100
AcDbEntity
  8
0
100
AcDbSpline
 62
7
  6
BYLAYER
 70
0
 71
3
 72
19
 73
15
 74
0
 42
0.0000001
 43
0.0000001
 44
0.0000000001
 40
0.0
 40
0.0
 40
0.0
 40
0.0
 40
0.0600808433
 40
0.1215663586
 40
0.186501936
 40
0.2563828989
 40
0.3320693593
 40
0.4138444187
 40
0.5015136083
 40
0.5945100606
 40
0.6919854181
 40
0.7928781744
 40
0.8959820021
 40
1.0
 40
1.0
 40
1.0
 40
1.0
 10
98.0749098641
 20
195.743379613
 30
0.0
 10
99.3476262857
 20
196.6388422822
 30
0.0
 10
102.1556150667
 20
198.1431497413
 30
0.0
 10
106.8768996678
 20
199.3472230195
 30
0.0
 10
111.9960246442
 20
199.4943491683
 30
0.0
 10
117.4035473368
 20
198.602226382
 30
0.0
 10
123.0012359776
 20
196.7045274507
 30
0.0
 10
128.6895387536
 20
193.8449122722
 30
0.0
 10
134.3663698459
 20
190.0802012447
 30
0.0
 10
139.9276117066
 20
185.4818520476
 30
0.0
 10
145.2694474879
 20
180.136400035
 30
0.0
 10
150.290982983
 20
174.144289748
 30
0.0
 10
154.8960400708
 20
167.6192913079
 30
0.0
 10
157.6298851366
 20
162.995457934
 30
0.0
 10
158.9066082512
 20
160.6229767036
 30
0.0
  0
SPLINE
  5
319
100
AcDbEntity
  8
0
100
AcDbSpline
 62
7
  6
BYLAYER
 70
0
 71
3
 72
12
 73
8
 74
0
 42
0.0000001
 43
0.0000001
 44
0.0000000001
 40
0.0
 40
0.0
 40
0.0
 40
0.0
 40
0.2308706604
 40
0.4447964575
 40
0.6424908908
 40
0.8262306467
 40
1.0
 40
1.0
 40
1.0
 40
1.0
 10
89.1570734866
 20
172.0933985155
 30
0.0
 10
89.1570734866
 20
174.0988974284
 30
0.0
 10
89.3776352616
 20
177.9685094768
 30
0.0
 10
90.4549394438
 20
183.4644673619
 30
0.0
 10
92.2558418227
 20
188.3407774715
 30
0.0
 10
94.7573773198
 20
192.5002715098
 30
0.0
 10
96.9138979417
 20
194.778715933
 30
0.0
 10
98.0749098641
 20
195.743379613
 30
0.0
  0
SPLINE
  5
31A
100
AcDbEntity
  8
0
100
AcDbSpline
 62
7
  6
BYLAYER
 70
0
 71
3
 72
28
 73
24
 74
0
 42
0.0000001
 43
0.0000001
 44
0.0000000001
 40
0.0
 40
0.0
 40
0.0
 40
0.0
 40
0.0466286085
 40
0.0895225266
 40
0.1288601477
 40
0.1652290554
 40
0.199926439
 40
0.2342471558
 40
0.2696385432
 40
0.3073786556
 40
0.3483662399
 40
0.3930367485
 40
0.4414173413
 40
0.4932332868
 40
0.5479866295
 40
0.6050200023
 40
0.663569978
 40
0.7228060847
 40
0.7818679204
 40
0.8397678118
 40
0.895992726
 40
0.9496406345
 40
1.0
 40
1.0
 40
1.0
 40
1.0
 10
167.8244446287
 20
126.6757980936
 30
0.0
 10
167.8244446287
 20
124.4970124001
 30
0.0
 10
167.5653318686
 20
120.3062901182
 30
0.0
 10
166.2891710379
 20
114.3951507086
 30
0.0
 10
164.1576640172
 20
109.2412321244
 30
0.0
 10
161.1974528348
 20
104.9613115864
 30
0.0
 10
157.4566591501
 20
101.6759831646
 30
0.0
 10
153.0282504786
 20
99.4977190626
 30
0.0
 10
148.0584050923
 20
98.4893715471
 30
0.0
 10
142.6882942938
 20
98.6485897346
 30
0.0
 10
137.0381085436
 20
99.943395791
 30
0.0
 10
131.2220085535
 20
102.3299090998
 30
0.0
 10
125.3588552039
 20
105.7497296818
 30
0.0
 10
119.5718650393
 20
110.125846273
 30
0.0
 10
113.9846134119
 20
115.3620322269
 30
0.0
 10
108.7173847695
 20
121.3441727882
 30
0.0
 10
103.8841168757
 20
127.9425482395
 30
0.0
 10
99.5898649744
 20
135.0144837633
 30
0.0
 10
95.9314320261
 20
142.4016092817
 30
0.0
 10
92.985390903
 20
149.9502275422
 30
0.0
 10
90.818470474
 20
157.497094932
 30
0.0
 10
89.4823570434
 20
164.8770800176
 30
0.0
 10
89.1570734866
 20
169.7402880799
 30
0.0
 10
89.1570734866
 20
172.0933985155
 30
0.0
  0
SPLINE
  5
31B
100
AcDbEntity
  8
0
100
AcDbSpline
 62
7
  6
BYLAYER
 70
0
 71
3
 72
12
 73
8
 74
0
 42
0.0000001
 43
0.0000001
 44
0.0000000001
 40
0.0
 40
0.0
 40
0.0
 40
0.0
 40
0.2137034006
 40
0.4228495354
 40
0.624983972
 40
0.8179467253
 40
1.0
 40
1.0
 40
1.0
 40
1.0
 10
158.9066082512
 20
160.6229767036
 30
0.0
 10
160.0406894237
 20
158.3711947779
 30
0.0
 10
162.1095629686
 20
153.8246816859
 30
0.0
 10
164.6073323991
 20
146.8784434076
 30
0.0
 10
166.4335677396
 20
139.9773168501
 30
0.0
 10
167.5538963414
 20
133.2507144367
 30
0.0
 10
167.8244446287
 20
128.8236365802
 30
0.0
 10
167.8244446287
 20
126.6757980936
 30
0.0
  0
SPLINE
  5
31C
100
AcDbEntity
  8
0
100
AcDbSpline
 62
7
  6
BYLAYER
 70
0
 71
3
 72
14
 73
10
 74
0
 42
0.0000001
 43
0.0000001
 44
0.0000000001
 40
0.0
 40
0.0
 40
0.0
 40
0.0
 40
0.1676009621
 40
0.3398378823
 40
0.5056720608
 40
0.6568099759
 40
0.7879383797
 40
0.8992894782
 40
1.0
 40
1.0
 40
1.0
 40
1.0
 10
152.6466772536
 20
108.7474746308
 30
0.0
 10
152.7358638442
 20
108.4154481396
 30
0.0
 10
152.9828973488
 20
107.758707691
 30
0.0
 10
153.5119978224
 20
106.8610749436
 30
0.0
 10
154.1641687072
 20
106.0913501335
 30
0.0
 10
154.8867761613
 20
105.5120831905
 30
0.0
 10
155.6285256565
 20
105.1681661596
 30
0.0
 10
156.3491566917
 20
105.0981462888
 30
0.0
 10
156.7711416562
 20
105.277572174
 30
0.0
 10
156.9325532689
 20
105.4065054159
 30
0.0
  0
SPLINE
  5
31D
100
AcDbEntity
  8
0
100
AcDbSpline
 62
7
  6
BYLAYER
 70
0
 71
3
 72
11
 73
7
 74
0
 42
0.0000001
 43
0.0000001
 44
0.0000000001
 40
0.0
 40
0.0
 40
0.0
 40
0.0
 40
0.2750081745
 40
0.5293843707
 40
0.7684787391
 40
1.0
 40
1.0
 40
1.0
 40
1.0
 10
136.4310001941
 20
107.2989047151
 30
0.0
 10
137.9045746763
 20
106.8642174927
 30
0.0
 10
140.8131113811
 20
106.2417450271
 30
0.0
 10
145.1340609615
 20
106.1416668523
 30
0.0
 10
149.1418406235
 20
106.931687611
 30
0.0
 10
151.5519835966
 20
108.0585975134
 30
0.0
 10
152.6466772536
 20
108.7474746308
 30
0.0
  0
SPLINE
  5
31E
100
AcDbEntity
  8
0
100
AcDbSpline
 62
7
  6
BYLAYER
 70
0
 71
3
 72
14
 73
10
 74
0
 42
0.0000001
 43
0.0000001
 44
0.0000000001
 40
0.0
 40
0.0
 40
0.0
 40
0.0
 40
0.1319019647
 40
0.2454198945
 40
0.3576993316
 40
0.4858404765
 40
0.6375913355
 40
0.8117924657
 40
1.0
 40
1.0
 40
1.0
 40
1.0
 10
134.9379903883
 20
103.4416992606
 30
0.0
 10
135.165554928
 20
103.3566511691
 30
0.0
 10
135.6184220575
 20
103.2544520344
 30
0.0
 10
136.2883139905
 20
103.410538121
 30
0.0
 10
136.7718854799
 20
103.890825061
 30
0.0
 10
137.013360535
 20
104.589727273
 30
0.0
 10
137.0345664255
 20
105.4347792545
 30
0.0
 10
136.8435335445
 20
106.3688888535
 30
0.0
 10
136.5884623544
 20
106.9900905333
 30
0.0
 10
136.4310001941
 20
107.2989047151
 30
0.0
  0
SPLINE
  5
31F
100
AcDbEntity
  8
0
100
AcDbSpline
 62
7
  6
BYLAYER
 70
0
 71
3
 72
14
 73
10
 74
0
 42
0.0000001
 43
0.0000001
 44
0.0000000001
 40
0.0
 40
0.0
 40
0.0
 40
0.0
 40
0.1175313932
 40
0.2548815912
 40
0.4066534295
 40
0.5654101442
 40
0.7225195161
 40
0.8695811843
 40
1.0
 40
1.0
 40
1.0
 40
1.0
 10
132.1372132717
 20
108.9036291766
 30
0.0
 10
132.0448986245
 20
108.6615220634
 30
0.0
 10
131.9499241175
 20
108.095933272
 30
0.0
 10
132.0413470597
 20
107.1974283307
 30
0.0
 10
132.335338915
 20
106.248752521
 30
0.0
 10
132.8087428522
 20
105.327511805
 30
0.0
 10
133.4235731011
 20
104.5062425881
 30
0.0
 10
134.1309523806
 20
103.8521915222
 30
0.0
 10
134.6686636401
 20
103.5423552151
 30
0.0
 10
134.9379903883
 20
103.4416992606
 30
0.0
  0
SPLINE
  5
320
100
AcDbEntity
  8
0
100
AcDbSpline
 62
7
  6
BYLAYER
 70
0
 71
3
 72
11
 73
7
 74
0
 42
0.0000001
 43
0.0000001
 44
0.0000000001
 40
0.0
 40
0.0
 40
0.0
 40
0.0
 40
0.2699393033
 40
0.5281808526
 40
0.7721421147
 40
1.0
 40
1.0
 40
1.0
 40
1.0
 10
113.6974256872
 20
123.3040462244
 30
0.0
 10
115.0905861523
 20
121.7060701382
 30
0.0
 10
117.9529814439
 20
118.6946583446
 30
0.0
 10
122.5331225529
 20
114.7054270067
 30
0.0
 10
127.2333305855
 20
111.402924429
 30
0.0
 10
130.5057332693
 20
109.6389053461
 30
0.0
 10
132.1372132717
 20
108.9036291766
 30
0.0
  0
SPLINE
  5
321
100
AcDbEntity
  8
0
100
AcDbSpline
 62
7
  6
BYLAYER
 70
0
 71
3
 72
14
 73
10
 74
0
 42
0.0000001
 43
0.0000001
 44
0.0000000001
 40
0.0
 40
0.0
 40
0.0
 40
0.0
 40
0.1871683001
 40
0.3531971823
 40
0.4942164453
 40
0.6141302693
 40
0.7270779215
 40
0.8520648013
 40
1.0
 40
1.0
 40
1.0
 40
1.0
 10
109.9266963151
 20
122.9740861664
 30
0.0
 10
110.1376607275
 20
122.7116452002
 30
0.0
 10
110.5799644405
 20
122.2491463095
 30
0.0
 10
111.3201854546
 20
121.7428315469
 30
0.0
 10
112.058235129
 20
121.4884756911
 30
0.0
 10
112.7550206792
 20
121.5277357234
 30
0.0
 10
113.3154490902
 20
121.9038909409
 30
0.0
 10
113.6405194132
 20
122.5423690322
 30
0.0
 10
113.6967888835
 20
123.0379071824
 30
0.0
 10
113.6974256872
 20
123.3040462244
 30
0.0
  0
SPLINE
  5
322
100
AcDbEntity
  8
0
100
AcDbSpline
 62
7
  6
BYLAYER
 70
0
 71
3
 72
14
 73
10
 74
0
 42
0.0000001
 43
0.0000001
 44
0.0000000001
 40
0.0
 40
0.0
 40
0.0
 40
0.0
 40
0.1044556848
 40
0.2112814653
 40
0.334491573
 40
0.4794569647
 40
0.6437620487
 40
0.8204156681
 40
1.0
 40
1.0
 40
1.0
 40
1.0
 10
109.9215328372
 20
128.0012790731
 30
0.0
 10
109.7159931036
 20
127.9820433992
 30
0.0
 10
109.2976285818
 20
127.8453253225
 30
0.0
 10
108.8551079772
 20
127.3174991191
 30
0.0
 10
108.6527943202
 20
126.5888597199
 30
0.0
 10
108.6688472592
 20
125.7259364942
 30
0.0
 10
108.8945750433
 20
124.786084525
 30
0.0
 10
109.3126549193
 20
123.8408600217
 30
0.0
 10
109.7043323965
 20
123.2507081851
 30
0.0
 10
109.9266963151
 20
122.9740861664
 30
0.0
  0
SPLINE
  5
323
100
AcDbEntity
  8
0
100
AcDbSpline
 62
7
  6
BYLAYER
 70
0
 71
3
 72
11
 73
7
 74
0
 42
0.0000001
 43
0.0000001
 44
0.0000000001
 40
0.0
 40
0.0
 40
0.0
 40
0.0
 40
0.2452786046
 40
0.4958876716
 40
0.7485738171
 40
1.0
 40
1.0
 40
1.0
 40
1.0
 10
97.8858162739
 20
151.512567905
 30
0.0
 10
98.5322015958
 20
149.4423271742
 30
0.0
 10
100.0297895794
 20
145.3142966504
 30
0.0
 10
102.8063784076
 20
139.2978105872
 30
0.0
 10
106.0923105412
 20
133.4812728684
 30
0.0
 10
108.5973624507
 20
129.7870625507
 30
0.0
 10
109.9215328372
 20
128.0012790731
 30
0.0
  0
SPLINE
  5
324
100
AcDbEntity
  8
0
100
AcDbSpline
 62
7
  6
BYLAYER
 70
0
 71
3
 72
14
 73
10
 74
0
 42
0.0000001
 43
0.0000001
 44
0.0000000001
 40
0.0
 40
0.0
 40
0.0
 40
0.0
 40
0.1689785604
 40
0.3411125618
 40
0.5068476474
 40
0.6578952512
 40
0.7889453002
 40
0.9002298617
 40
1.0
 40
1.0
 40
1.0
 40
1.0
 10
93.6017335156
 20
154.8642452218
 30
0.0
 10
93.6911015798
 20
154.5291274631
 30
0.0
 10
93.939973218
 20
153.8697070795
 30
0.0
 10
94.4701234622
 20
152.9692756096
 30
0.0
 10
95.1224074372
 20
152.1996210667
 30
0.0
 10
95.8450336468
 20
151.6202538831
 30
0.0
 10
96.5866409519
 20
151.276613385
 30
0.0
 10
97.30586642
 20
151.2059519571
 30
0.0
 10
97.7252161074
 20
151.3855171442
 30
0.0
 10
97.8858162739
 20
151.512567905
 30
0.0
  0
SPLINE
  5
325
100
AcDbEntity
  8
0
100
AcDbSpline
 62
7
  6
BYLAYER
 70
0
 71
3
 72
14
 73
10
 74
0
 42
0.0000001
 43
0.0000001
 44
0.0000000001
 40
0.0
 40
0.0
 40
0.0
 40
0.0
 40
0.1642981408
 40
0.30373984
 40
0.4228591836
 40
0.5377768577
 40
0.6671202536
 40
0.8210677243
 40
1.0
 40
1.0
 40
1.0
 40
1.0
 10
96.3946257309
 20
157.1044059636
 30
0.0
 10
96.1642563782
 20
157.2835548259
 30
0.0
 10
95.7029824435
 20
157.5749241185
 30
0.0
 10
94.9665933919
 20
157.7836555904
 30
0.0
 10
94.2826383977
 20
157.6867373727
 30
0.0
 10
93.7603265212
 20
157.257670058
 30
0.0
 10
93.4775056922
 20
156.5879275182
 30
0.0
 10
93.4192856248
 20
155.7593977027
 30
0.0
 10
93.5198396191
 20
155.1713358957
 30
0.0
 10
93.6017335156
 20
154.8642452218
 30
0.0
  0
SPLINE
  5
326
100
AcDbEntity
  8
0
100
AcDbSpline
 62
7
  6
BYLAYER
 70
0
 71
3
 72
10
 73
6
 74
0
 42
0.0000001
 43
0.0000001
 44
0.0000000001
 40
0.0
 40
0.0
 40
0.0
 40
0.0
 40
0.3198448293
 40
0.6535640668
 40
1.0
 40
1.0
 40
1.0
 40
1.0
 10
95.0571263223
 20
168.6870784838
 30
0.0
 10
95.0571263223
 20
167.4418365211
 30
0.0
 10
95.1635143048
 20
164.8964287439
 30
0.0
 10
95.6159729337
 20
161.0265553164
 30
0.0
 10
96.1042798435
 20
158.421552557
 30
0.0
 10
96.3946257309
 20
157.1044059636
 30
0.0
  0
SPLINE
  5
327
100
AcDbEntity
  8
0
100
AcDbSpline
 62
7
  6
BYLAYER
 70
0
 71
3
 72
10
 73
6
 74
0
 42
0.0000001
 43
0.0000001
 44
0.0000000001
 40
0.0
 40
0.0
 40
0.0
 40
0.0
 40
0.3159205311
 40
0.6492073279
 40
1.0
 40
1.0
 40
1.0
 40
1.0
 10
96.3946257309
 20
178.7253746553
 30
0.0
 10
96.0913025069
 20
177.6995962774
 30
0.0
 10
95.5887757115
 20
175.5545239861
 30
0.0
 10
95.1495100365
 20
172.1926447351
 30
0.0
 10
95.0571263223
 20
169.8748382683
 30
0.0
 10
95.0571263223
 20
168.6870784838
 30
0.0
  0
SPLINE
  5
328
100
AcDbEntity
  8
0
100
AcDbSpline
 62
7
  6
BYLAYER
 70
0
 71
3
 72
14
 73
10
 74
0
 42
0.0000001
 43
0.0000001
 44
0.0000000001
 40
0.0
 40
0.0
 40
0.0
 40
0.0
 40
0.1185800504
 40
0.2559438677
 40
0.4077307553
 40
0.5665032118
 40
0.7236281623
 40
0.8707044126
 40
1.0
 40
1.0
 40
1.0
 40
1.0
 10
93.6017335156
 20
184.1904165851
 30
0.0
 10
93.5077463575
 20
183.9465024361
 30
0.0
 10
93.413527765
 20
183.3781043456
 30
0.0
 10
93.5043686121
 20
182.4775352934
 30
0.0
 10
93.7986203906
 20
181.5288016699
 30
0.0
 10
94.2719257018
 20
180.6075267043
 30
0.0
 10
94.8868684889
 20
179.786452251
 30
0.0
 10
95.5920814856
 20
179.1334402728
 30
0.0
 10
96.1279332838
 20
178.8259217476
 30
0.0
 10
96.3946257309
 20
178.7253746553
 30
0.0
  0
SPLINE
  5
329
100
AcDbEntity
  8
0
100
AcDbSpline
 62
7
  6
BYLAYER
 70
0
 71
3
 72
14
 73
10
 74
0
 42
0.0000001
 43
0.0000001
 44
0.0000000001
 40
0.0
 40
0.0
 40
0.0
 40
0.0
 40
0.1854250855
 40
0.36311428
 40
0.5228711224
 40
0.6599771325
 40
0.7763462443
 40
0.8835944845
 40
1.0
 40
1.0
 40
1.0
 40
1.0
 10
97.8858162739
 20
182.5953731442
 30
0.0
 10
97.7245598754
 20
182.9091416879
 30
0.0
 10
97.3564846762
 20
183.4984828474
 30
0.0
 10
96.6865272959
 20
184.2411355924
 30
0.0
 10
95.9554463575
 20
184.7835329438
 30
0.0
 10
95.2165366517
 20
185.0826685938
 30
0.0
 10
94.5072089571
 20
185.0989909305
 30
0.0
 10
93.9105366762
 20
184.777433197
 30
0.0
 10
93.6813641528
 20
184.3970728932
 30
0.0
 10
93.6017335156
 20
184.1904165851
 30
0.0
  0
SPLINE
  5
32A
100
AcDbEntity
  8
0
100
AcDbSpline
 62
7
  6
BYLAYER
 70
0
 71
3
 72
11
 73
7
 74
0
 42
0.0000001
 43
0.0000001
 44
0.0000000001
 40
0.0
 40
0.0
 40
0.0
 40
0.0
 40
0.2462633286
 40
0.4887766488
 40
0.7371712514
 40
1.0
 40
1.0
 40
1.0
 40
1.0
 10
109.9215328372
 20
192.2093279804
 30
0.0
 10
108.6350978775
 20
191.9598482432
 30
0.0
 10
106.1255768763
 20
191.1724662654
 30
0.0
 10
102.753161214
 20
189.0926804064
 30
0.0
 10
99.9281459542
 20
186.1941615155
 30
0.0
 10
98.4994274607
 20
183.8521238465
 30
0.0
 10
97.8858162739
 20
182.5953731442
 30
0.0
  0
SPLINE
  5
32B
100
AcDbEntity
  8
0
100
AcDbSpline
 62
7
  6
BYLAYER
 70
0
 71
3
 72
14
 73
10
 74
0
 42
0.0000001
 43
0.0000001
 44
0.0000000001
 40
0.0
 40
0.0
 40
0.0
 40
0.0
 40
0.1054456564
 40
0.2123408069
 40
0.3356309242
 40
0.480690453
 40
0.6451022326
 40
0.8218705666
 40
1.0
 40
1.0
 40
1.0
 40
1.0
 10
109.9266963151
 20
197.2305587513
 30
0.0
 10
109.7192632096
 20
197.2120284516
 30
0.0
 10
109.2990267671
 20
197.0736631382
 30
0.0
 10
108.8550509807
 20
196.5451833365
 30
0.0
 10
108.6528171529
 20
195.8162907844
 30
0.0
 10
108.6688230976
 20
194.9534381973
 30
0.0
 10
108.8946558362
 20
194.0136274557
 30
0.0
 10
109.311074363
 20
193.070979734
 30
0.0
 10
109.701570837
 20
192.483897873
 30
0.0
 10
109.9215328372
 20
192.2093279804
 30
0.0
  0
SPLINE
  5
32C
100
AcDbEntity
  8
0
100
AcDbSpline
 62
7
  6
BYLAYER
 70
0
 71
3
 72
14
 73
10
 74
0
 42
0.0000001
 43
0.0000001
 44
0.0000000001
 40
0.0
 40
0.0
 40
0.0
 40
0.0
 40
0.1421167517
 40
0.2986298193
 40
0.4601575201
 40
0.6178280992
 40
0.7634786721
 40
0.8912502251
 40
1.0
 40
1.0
 40
1.0
 40
1.0
 10
113.6974256872
 20
192.5466339571
 30
0.0
 10
113.696688063
 20
192.8557605496
 30
0.0
 10
113.6089501353
 20
193.5060332676
 30
0.0
 10
113.2804488932
 20
194.4567572721
 30
0.0
 10
112.77881032
 20
195.367493979
 30
0.0
 10
112.1458062588
 20
196.1624943562
 30
0.0
 10
111.4302850052
 20
196.7790075747
 30
0.0
 10
110.6864060029
 20
197.1687203695
 30
0.0
 10
110.1623068561
 20
197.2516061821
 30
0.0
 10
109.9266963151
 20
197.2305587513
 30
0.0
  0
SPLINE
  5
32D
100
AcDbEntity
  8
0
100
AcDbSpline
 62
7
  6
BYLAYER
 70
0
 71
3
 72
11
 73
7
 74
0
 42
0.0000001
 43
0.0000001
 44
0.0000000001
 40
0.0
 40
0.0
 40
0.0
 40
0.0
 40
0.2794391601
 40
0.5391515377
 40
0.7788590272
 40
1.0
 40
1.0
 40
1.0
 40
1.0
 10
132.1372132717
 20
185.6551000419
 30
0.0
 10
130.616827927
 20
186.7254421247
 30
0.0
 10
127.5696747356
 20
188.6367516699
 30
0.0
 10
122.8536550772
 20
190.8232868255
 30
0.0
 10
118.2374618431
 20
192.1867994214
 30
0.0
 10
115.1688288957
 20
192.5353640106
 30
0.0
 10
113.6974256872
 20
192.5466339571
 30
0.0
  0
SPLINE
  5
32E
100
AcDbEntity
  8
0
100
AcDbSpline
 62
7
  6
BYLAYER
 70
0
 71
3
 72
14
 73
10
 74
0
 42
0.0000001
 43
0.0000001
 44
0.0000000001
 40
0.0
 40
0.0
 40
0.0
 40
0.0
 40
0.1657619457
 40
0.3052205272
 40
0.4243542925
 40
0.5392858797
 40
0.6686449352
 40
0.8226110443
 40
1.0
 40
1.0
 40
1.0
 40
1.0
 10
134.9379903883
 20
187.8830442758
 30
0.0
 10
134.7059663741
 20
188.0642417302
 30
0.0
 10
134.2420656571
 20
188.3565020322
 30
0.0
 10
133.5034175562
 20
188.5663424634
 30
0.0
 10
132.819413436
 20
188.4693406177
 30
0.0
 10
132.2970944348
 20
188.0402906694
 30
0.0
 10
132.014362102
 20
187.3705587314
 30
0.0
 10
131.9558980427
 20
186.5447541611
 30
0.0
 10
132.0565865775
 20
185.9596515661
 30
0.0
 10
132.1372132717
 20
185.6551000419
 30
0.0
  0
SPLINE
  5
32F
100
AcDbEntity
  8
0
100
AcDbSpline
 62
7
  6
BYLAYER
 70
0
 71
3
 72
14
 73
10
 74
0
 42
0.0000001
 43
0.0000001
 44
0.0000000001
 40
0.0
 40
0.0
 40
0.0
 40
0.0
 40
0.1013038626
 40
0.2200508474
 40
0.3587183542
 40
0.5138873961
 40
0.6784368148
 40
0.8435082055
 40
1.0
 40
1.0
 40
1.0
 40
1.0
 10
136.4310001941
 20
182.3018985955
 30
0.0
 10
136.598360405
 20
182.4368782424
 30
0.0
 10
136.8826211624
 20
182.8324280578
 30
0.0
 10
137.044697807
 20
183.5900077439
 30
0.0
 10
136.9921429045
 20
184.4718555848
 30
0.0
 10
136.7319840858
 20
185.4154399236
 30
0.0
 10
136.2865839082
 20
186.3485599048
 30
0.0
 10
135.6900276033
 20
187.1959686744
 30
0.0
 10
135.1997646583
 20
187.6786135771
 30
0.0
 10
134.9379903883
 20
187.8830442758
 30
0.0
  0
SPLINE
  5
330
100
AcDbEntity
  8
0
100
AcDbSpline
 62
7
  6
BYLAYER
 70
0
 71
3
 72
11
 73
7
 74
0
 42
0.0000001
 43
0.0000001
 44
0.0000000001
 40
0.0
 40
0.0
 40
0.0
 40
0.0
 40
0.2576356867
 40
0.5123224752
 40
0.7607825969
 40
1.0
 40
1.0
 40
1.0
 40
1.0
 10
152.6466772536
 20
162.1295012386
 30
0.0
 10
151.5547645423
 20
164.0774320138
 30
0.0
 10
149.2242813512
 20
167.8642290669
 30
0.0
 10
145.3139393754
 20
173.1831470043
 30
0.0
 10
141.070040493
 20
178.0301084945
 30
0.0
 10
138.0033037451
 20
180.9502110528
 30
0.0
 10
136.4310001941
 20
182.3018985955
 30
0.0
  0
SPLINE
  5
331
100
AcDbEntity
  8
0
100
AcDbSpline
 62
7
  6
BYLAYER
 70
0
 71
3
 72
14
 73
10
 74
0
 42
0.0000001
 43
0.0000001
 44
0.0000000001
 40
0.0
 40
0.0
 40
0.0
 40
0.0
 40
0.1869454537
 40
0.3645249229
 40
0.5241831135
 40
0.6612044589
 40
0.7775017112
 40
0.8846837243
 40
1.0
 40
1.0
 40
1.0
 40
1.0
 10
156.9325532689
 20
160.5216790678
 30
0.0
 10
156.7703811453
 20
160.838475797
 30
0.0
 10
156.4000328185
 20
161.430182913
 30
0.0
 10
155.7283725794
 20
162.1753980296
 30
0.0
 10
154.9972191847
 20
162.7177290175
 30
0.0
 10
154.2582700767
 20
163.0169126293
 30
0.0
 10
153.5491164113
 20
163.0331234469
 30
0.0
 10
152.953623997
 20
162.7129006267
 30
0.0
 10
152.7263334263
 20
162.334070662
 30
0.0
 10
152.6466772536
 20
162.1295012386
 30
0.0
  0
SPLINE
  5
332
100
AcDbEntity
  8
0
100
AcDbSpline
 62
7
  6
BYLAYER
 70
0
 71
3
 72
14
 73
10
 74
0
 42
0.0000001
 43
0.0000001
 44
0.0000000001
 40
0.0
 40
0.0
 40
0.0
 40
0.0
 40
0.1306822133
 40
0.2441426274
 40
0.3563651763
 40
0.4844413965
 40
0.6361153685
 40
0.8102282369
 40
1.0
 40
1.0
 40
1.0
 40
1.0
 10
155.4492476273
 20
156.6547925928
 30
0.0
 10
155.6750645141
 20
156.571139825
 30
0.0
 10
156.1254717456
 20
156.4687536692
 30
0.0
 10
156.7933318703
 20
156.6249234158
 30
0.0
 10
157.2768739689
 20
157.1050598086
 30
0.0
 10
157.5183405403
 20
157.8040016789
 30
0.0
 10
157.5396334389
 20
158.6490769951
 30
0.0
 10
157.3475736876
 20
159.5860290355
 30
0.0
 10
157.0919032903
 20
160.2103952022
 30
0.0
 10
156.9325532689
 20
160.5216790678
 30
0.0
  0
SPLINE
  5
333
100
AcDbEntity
  8
0
100
AcDbSpline
 62
7
  6
BYLAYER
 70
0
 71
3
 72
11
 73
7
 74
0
 42
0.0000001
 43
0.0000001
 44
0.0000000001
 40
0.0
 40
0.0
 40
0.0
 40
0.0
 40
0.2333291546
 40
0.479567929
 40
0.736141556
 40
1.0
 40
1.0
 40
1.0
 40
1.0
 10
161.8533186485
 20
132.6404207087
 30
0.0
 10
161.7469183697
 20
134.5811754742
 30
0.0
 10
161.2919571335
 20
138.5594504219
 30
0.0
 10
159.9792953121
 20
144.5585982834
 30
0.0
 10
158.0422962761
 20
150.6529352012
 30
0.0
 10
156.3756376114
 20
154.6615712516
 30
0.0
 10
155.4492476273
 20
156.6547925928
 30
0.0
  0
SPLINE
  5
334
100
AcDbEntity
  8
0
100
AcDbSpline
 62
7
  6
BYLAYER
 70
0
 71
3
 72
14
 73
10
 74
0
 42
0.0000001
 43
0.0000001
 44
0.0000000001
 40
0.0
 40
0.0
 40
0.0
 40
0.0
 40
0.1433271578
 40
0.2997928531
 40
0.4612716638
 40
0.6188945203
 40
0.7645010086
 40
0.8922338886
 40
1.0
 40
1.0
 40
1.0
 40
1.0
 10
165.6188845428
 20
127.9491499958
 30
0.0
 10
165.6188845428
 20
128.261004692
 30
0.0
 10
165.5298037165
 20
128.9140440258
 30
0.0
 10
165.2010598204
 20
129.8674097031
 30
0.0
 10
164.6992361107
 20
130.7781080623
 30
0.0
 10
164.0662823952
 20
131.5732037217
 30
0.0
 10
163.3507421652
 20
132.1894123244
 30
0.0
 10
162.6087396878
 20
132.5790897356
 30
0.0
 10
162.0869544824
 20
132.6603008455
 30
0.0
 10
161.8533186485
 20
132.6404207087
 30
0.0
  0
SPLINE
  5
335
100
AcDbEntity
  8
0
100
AcDbSpline
 62
7
  6
BYLAYER
 70
0
 71
3
 72
14
 73
10
 74
0
 42
0.0000001
 43
0.0000001
 44
0.0000000001
 40
0.0
 40
0.0
 40
0.0
 40
0.0
 40
0.1855930394
 40
0.3516770095
 40
0.4927430623
 40
0.6126966732
 40
0.7256818011
 40
0.8507101511
 40
1.0
 40
1.0
 40
1.0
 40
1.0
 10
161.8533186485
 20
127.6058818833
 30
0.0
 10
162.0628718398
 20
127.3460852364
 30
0.0
 10
162.5026134928
 20
126.8853522132
 30
0.0
 10
163.2407049884
 20
126.3810151228
 30
0.0
 10
163.9786964759
 20
126.1265941091
 30
0.0
 10
164.6754628778
 20
126.1658713073
 30
0.0
 10
165.2360068967
 20
126.5420106369
 30
0.0
 10
165.561659369
 20
127.1827039806
 30
0.0
 10
165.6188845428
 20
127.6806622196
 30
0.0
 10
165.6188845428
 20
127.9491499958
 30
0.0
  0
SPLINE
  5
336
100
AcDbEntity
  8
0
100
AcDbSpline
 62
7
  6
BYLAYER
 70
0
 71
3
 72
11
 73
7
 74
0
 42
0.0000001
 43
0.0000001
 44
0.0000000001
 40
0.0
 40
0.0
 40
0.0
 40
0.0
 40
0.223120653
 40
0.461625185
 40
0.7198927477
 40
1.0
 40
1.0
 40
1.0
 40
1.0
 10
155.4492476273
 20
110.9861269667
 30
0.0
 10
156.4068862086
 20
111.9408220418
 30
0.0
 10
158.1527230196
 20
114.162722216
 30
0.0
 10
160.0786560137
 20
118.1066956608
 30
0.0
 10
161.3585208259
 20
122.659876707
 30
0.0
 10
161.7541293924
 20
125.9111883965
 30
0.0
 10
161.8533186485
 20
127.6058818833
 30
0.0
  0
SPLINE
  5
337
100
AcDbEntity
  8
0
100
AcDbSpline
 62
7
  6
BYLAYER
 70
0
 71
3
 72
14
 73
10
 74
0
 42
0.0000001
 43
0.0000001
 44
0.0000000001
 40
0.0
 40
0.0
 40
0.0
 40
0.0
 40
0.1022461461
 40
0.2210495402
 40
0.3597829194
 40
0.5150256724
 40
0.6796532583
 40
0.8448030641
 40
1.0
 40
1.0
 40
1.0
 40
1.0
 10
156.9325532689
 20
105.4065054159
 30
0.0
 10
157.1020288072
 20
105.5418800039
 30
0.0
 10
157.3866774068
 20
105.9401801264
 30
0.0
 10
157.5498713253
 20
106.6989806377
 30
0.0
 10
157.4970732207
 20
107.5810444534
 30
0.0
 10
157.237015329
 20
108.5245872842
 30
0.0
 10
156.7914891686
 20
109.4576108298
 30
0.0
 10
156.1970034873
 20
110.3030627893
 30
0.0
 10
155.7083190542
 20
110.7829555686
 30
0.0
 10
155.4492476273
 20
110.9861269667
 30
0.0
  0
SPLINE
  5
338
100
AcDbEntity
  8
0
100
AcDbSpline
 62
7
  6
BYLAYER
 70
0
 71
3
 72
28
 73
24
 74
0
 42
0.0000001
 43
0.0000001
 44
0.0000000001
 40
0.0
 40
0.0
 40
0.0
 40
0.0
 40
0.0502465619
 40
0.1037304417
 40
0.1598017728
 40
0.2176246749
 40
0.276733622
 40
0.3360668188
 40
0.3946597252
 40
0.4516900258
 40
0.5064473096
 40
0.5582838682
 40
0.6066860314
 40
0.6513777627
 40
0.6923947665
 40
0.7301604237
 40
0.7655403394
 40
0.799808511
 40
0.8344658824
 40
0.8708561418
 40
0.9102707712
 40
0.9532742658
 40
1.0
 40
1.0
 40
1.0
 40
1.0
 10
166.0284008821
 20
125.6388579427
 30
0.0
 10
166.0284008821
 20
127.9866972499
 30
0.0
 10
165.7047026636
 20
132.8369527242
 30
0.0
 10
164.3751174725
 20
140.1975779768
 30
0.0
 10
162.217918061
 20
147.7279712263
 30
0.0
 10
159.2804976201
 20
155.2707205914
 30
0.0
 10
155.6258980978
 20
162.6632769497
 30
0.0
 10
151.33131764
 20
169.7452919249
 30
0.0
 10
146.4976504431
 20
176.3513257037
 30
0.0
 10
141.2321971365
 20
182.3377380749
 30
0.0
 10
135.647305122
 20
187.5778797267
 30
0.0
 10
129.8615319549
 20
191.9591476237
 30
0.0
 10
123.9984538301
 20
195.3849243414
 30
0.0
 10
118.1814120976
 20
197.7779245045
 30
0.0
 10
112.5291619293
 20
199.0794887772
 30
0.0
 10
107.1572479741
 20
199.2452526921
 30
0.0
 10
102.1878728566
 20
198.2443702602
 30
0.0
 10
97.7600860829
 20
196.0764897872
 30
0.0
 10
94.0148688009
 20
192.8013700655
 30
0.0
 10
91.0450433041
 20
188.5244932794
 30
0.0
 10
88.9035515062
 20
183.3638429619
 30
0.0
 10
87.6212745982
 20
177.4402145656
 30
0.0
 10
87.3610297401
 20
173.2397821865
 30
0.0
 10
87.3610297401
 20
171.0564583646
 30
0.0
  0
SPLINE
  5
339
100
AcDbEntity
  8
0
100
AcDbSpline
 62
7
  6
BYLAYER
 70
0
 71
3
 72
28
 73
24
 74
0
 42
0.0000001
 43
0.0000001
 44
0.0000000001
 40
0.0
 40
0.0
 40
0.0
 40
0.0
 40
0.0502465619
 40
0.1037304417
 40
0.1598017728
 40
0.2176246749
 40
0.276733622
 40
0.3360668188
 40
0.3946597252
 40
0.4516900258
 40
0.5064473096
 40
0.5582838682
 40
0.6066860314
 40
0.6513777627
 40
0.6923947665
 40
0.7301604237
 40
0.7655403394
 40
0.799808511
 40
0.8344658824
 40
0.8708561418
 40
0.9102707712
 40
0.9532742658
 40
1.0
 40
1.0
 40
1.0
 40
1.0
 10
87.3610297401
 20
171.0564583646
 30
0.0
 10
87.3610297401
 20
168.7086190575
 30
0.0
 10
87.6847279586
 20
163.8583635832
 30
0.0
 10
89.0143131497
 20
156.4977383305
 30
0.0
 10
91.1715125612
 20
148.967345081
 30
0.0
 10
94.1089330022
 20
141.424595716
 30
0.0
 10
97.7635325245
 20
134.0320393577
 30
0.0
 10
102.0581129823
 20
126.9500243824
 30
0.0
 10
106.8917801791
 20
120.3439906037
 30
0.0
 10
112.1572334857
 20
114.3575782324
 30
0.0
 10
117.7421255003
 20
109.1174365807
 30
0.0
 10
123.5278986673
 20
104.7361686837
 30
0.0
 10
129.3909767921
 20
101.3103919659
 30
0.0
 10
135.2080185247
 20
98.9173918029
 30
0.0
 10
140.8602686929
 20
97.6158275302
 30
0.0
 10
146.2321826481
 20
97.4500636153
 30
0.0
 10
151.2015577656
 20
98.4509460472
 30
0.0
 10
155.6293445393
 20
100.6188265202
 30
0.0
 10
159.3745618214
 20
103.8939462419
 30
0.0
 10
162.3443873181
 20
108.170823028
 30
0.0
 10
164.485879116
 20
113.3314733455
 30
0.0
 10
165.7681560241
 20
119.2551017418
 30
0.0
 10
166.0284008821
 20
123.4555341208
 30
0.0
 10
166.0284008821
 20
125.6388579427
 30
0.0
  0
SPLINE
  5
33A
100
AcDbEntity
  8
0
100
AcDbSpline
 62
7
  6
BYLAYER
 70
0
 71
3
 72
28
 73
24
 74
0
 42
0.0000001
 43
0.0000001
 44
0.0000000001
 40
0.0
 40
0.0
 40
0.0
 40
0.0
 40
0.0466234572
 40
0.0895169032
 40
0.128858346
 40
0.1652273428
 40
0.1999216783
 40
0.234241312
 40
0.269631376
 40
0.3073699559
 40
0.3483572766
 40
0.3930295534
 40
0.4414131689
 40
0.4932319332
 40
0.547986062
 40
0.605017746
 40
0.6635653666
 40
0.7228004855
 40
0.7818606282
 40
0.8397652569
 40
0.8959986801
 40
0.949646962
 40
1.0
 40
1.0
 40
1.0
 40
1.0
 10
165.2417271707
 20
126.093033947
 30
0.0
 10
165.2417271707
 20
123.9580598165
 30
0.0
 10
164.9878401855
 20
119.8514122209
 30
0.0
 10
163.7373390765
 20
114.0585541039
 30
0.0
 10
161.6484983038
 20
109.007520814
 30
0.0
 10
158.7475142258
 20
104.8131342648
 30
0.0
 10
155.0817610963
 20
101.5935574552
 30
0.0
 10
150.7422371188
 20
99.4587932313
 30
0.0
 10
145.8720128339
 20
98.470427745
 30
0.0
 10
140.6094402516
 20
98.6262198655
 30
0.0
 10
135.0722072974
 20
99.8949171268
 30
0.0
 10
129.3721704098
 20
102.2336285039
 30
0.0
 10
123.6259265718
 20
105.5851466548
 30
0.0
 10
117.9544076697
 20
109.8738933007
 30
0.0
 10
112.4788277558
 20
115.005406535
 30
0.0
 10
107.3170288753
 20
120.8677795547
 30
0.0
 10
102.5805294205
 20
127.3339761868
 30
0.0
 10
98.3722310339
 20
134.2642444111
 30
0.0
 10
94.7868569657
 20
141.5036774696
 30
0.0
 10
91.8994860804
 20
148.9017960049
 30
0.0
 10
89.7757486428
 20
156.2983355809
 30
0.0
 10
88.466423516
 20
163.5308534403
 30
0.0
 10
88.1477034515
 20
168.2965238436
 30
0.0
 10
88.1477034515
 20
170.6022823604
 30
0.0
  0
SPLINE
  5
33B
100
AcDbEntity
  8
0
100
AcDbSpline
 62
7
  6
BYLAYER
 70
0
 71
3
 72
28
 73
24
 74
0
 42
0.0000001
 43
0.0000001
 44
0.0000000001
 40
0.0
 40
0.0
 40
0.0
 40
0.0
 40
0.0466234572
 40
0.0895169032
 40
0.128858346
 40
0.1652273428
 40
0.1999216783
 40
0.234241312
 40
0.269631376
 40
0.3073699559
 40
0.3483572766
 40
0.3930295534
 40
0.4414131689
 40
0.4932319332
 40
0.547986062
 40
0.605017746
 40
0.6635653666
 40
0.7228004855
 40
0.7818606282
 40
0.8397652569
 40
0.8959986801
 40
0.949646962
 40
1.0
 40
1.0
 40
1.0
 40
1.0
 10
88.1477034515
 20
170.6022823604
 30
0.0
 10
88.1477034515
 20
172.7372564909
 30
0.0
 10
88.4015904367
 20
176.8439040865
 30
0.0
 10
89.6520915458
 20
182.6367622035
 30
0.0
 10
91.7409323184
 20
187.6877954934
 30
0.0
 10
94.6419163965
 20
191.8821820426
 30
0.0
 10
98.3076695259
 20
195.1017588522
 30
0.0
 10
102.6471935034
 20
197.2365230761
 30
0.0
 10
107.5174177883
 20
198.2248885623
 30
0.0
 10
112.7799903706
 20
198.0690964419
 30
0.0
 10
118.3172233248
 20
196.8003991806
 30
0.0
 10
124.0172602124
 20
194.4616878035
 30
0.0
 10
129.7635040504
 20
191.1101696526
 30
0.0
 10
135.4350229525
 20
186.8214230067
 30
0.0
 10
140.9106028664
 20
181.6899097723
 30
0.0
 10
146.072401747
 20
175.8275367526
 30
0.0
 10
150.8089012017
 20
169.3613401206
 30
0.0
 10
155.0171995884
 20
162.4310718963
 30
0.0
 10
158.6025736565
 20
155.1916388378
 30
0.0
 10
161.4899445418
 20
147.7935203025
 30
0.0
 10
163.6136819794
 20
140.3969807264
 30
0.0
 10
164.9230071062
 20
133.164462867
 30
0.0
 10
165.2417271707
 20
128.3987924638
 30
0.0
 10
165.2417271707
 20
126.093033947
 30
0.0
  0
SPLINE
  5
33C
100
AcDbEntity
  8
0
100
AcDbSpline
 62
7
  6
BYLAYER
 70
0
 71
3
 72
28
 73
24
 74
0
 42
0.0000001
 43
0.0000001
 44
0.0000000001
 40
0.0
 40
0.0
 40
0.0
 40
0.0
 40
0.0466286085
 40
0.0895225266
 40
0.1288601477
 40
0.1652290554
 40
0.199926439
 40
0.2342471558
 40
0.2696385432
 40
0.3073786556
 40
0.3483662399
 40
0.3930367485
 40
0.4414173413
 40
0.4932332868
 40
0.5479866295
 40
0.6050200023
 40
0.663569978
 40
0.7228060847
 40
0.7818679204
 40
0.8397678118
 40
0.895992726
 40
0.9496406345
 40
1.0
 40
1.0
 40
1.0
 40
1.0
 10
164.9507746342
 20
125.0166938522
 30
0.0
 10
164.9507746342
 20
122.8379081588
 30
0.0
 10
164.6916618741
 20
118.6471858769
 30
0.0
 10
163.4155010435
 20
112.7360464672
 30
0.0
 10
161.2839940227
 20
107.5821278831
 30
0.0
 10
158.3237828404
 20
103.3022073451
 30
0.0
 10
154.5829891556
 20
100.0168789232
 30
0.0
 10
150.1545804842
 20
97.8386148213
 30
0.0
 10
145.1847350979
 20
96.8302673057
 30
0.0
 10
139.8146242994
 20
96.9894854933
 30
0.0
 10
134.1644385492
 20
98.2842915497
 30
0.0
 10
128.348338559
 20
100.6708048585
 30
0.0
 10
122.4851852095
 20
104.0906254405
 30
0.0
 10
116.6981950448
 20
108.4667420316
 30
0.0
 10
111.1109434174
 20
113.7029279856
 30
0.0
 10
105.843714775
 20
119.6850685469
 30
0.0
 10
101.0104468812
 20
126.2834439982
 30
0.0
 10
96.71619498
 20
133.3553795219
 30
0.0
 10
93.0577620317
 20
140.7425050403
 30
0.0
 10
90.1117209085
 20
148.2911233009
 30
0.0
 10
87.9448004795
 20
155.8379906907
 30
0.0
 10
86.6086870489
 20
163.2179757763
 30
0.0
 10
86.2834034922
 20
168.0811838386
 30
0.0
 10
86.2834034922
 20
170.4342942741
 30
0.0
  0
SPLINE
  5
33D
100
AcDbEntity
  8
0
100
AcDbSpline
 62
7
  6
BYLAYER
 70
0
 71
3
 72
28
 73
24
 74
0
 42
0.0000001
 43
0.0000001
 44
0.0000000001
 40
0.0
 40
0.0
 40
0.0
 40
0.0
 40
0.0466286085
 40
0.0895225266
 40
0.1288601477
 40
0.1652290554
 40
0.199926439
 40
0.2342471558
 40
0.2696385432
 40
0.3073786556
 40
0.3483662399
 40
0.3930367485
 40
0.4414173413
 40
0.4932332868
 40
0.5479866295
 40
0.6050200023
 40
0.663569978
 40
0.7228060847
 40
0.7818679204
 40
0.8397678118
 40
0.895992726
 40
0.9496406345
 40
1.0
 40
1.0
 40
1.0
 40
1.0
 10
86.2834034922
 20
170.4342942741
 30
0.0
 10
86.2834034922
 20
172.6130799676
 30
0.0
 10
86.5425162523
 20
176.8038022495
 30
0.0
 10
87.8186770829
 20
182.7149416591
 30
0.0
 10
89.9501841036
 20
187.8688602433
 30
0.0
 10
92.910395286
 20
192.1487807813
 30
0.0
 10
96.6511889708
 20
195.4341092031
 30
0.0
 10
101.0795976422
 20
197.6123733051
 30
0.0
 10
106.0494430285
 20
198.6207208206
 30
0.0
 10
111.419553827
 20
198.4615026331
 30
0.0
 10
117.0697395772
 20
197.1666965767
 30
0.0
 10
122.8858395674
 20
194.7801832679
 30
0.0
 10
128.7489929169
 20
191.3603626859
 30
0.0
 10
134.5359830816
 20
186.9842460947
 30
0.0
 10
140.1232347089
 20
181.7480601408
 30
0.0
 10
145.3904633514
 20
175.7659195795
 30
0.0
 10
150.2237312451
 20
169.1675441282
 30
0.0
 10
154.5179831464
 20
162.0956086044
 30
0.0
 10
158.1764160947
 20
154.708483086
 30
0.0
 10
161.1224572179
 20
147.1598648255
 30
0.0
 10
163.2893776469
 20
139.6129974357
 30
0.0
 10
164.6254910774
 20
132.2330123501
 30
0.0
 10
164.9507746342
 20
127.3698042878
 30
0.0
 10
164.9507746342
 20
125.0166938522
 30
0.0
  0
SPLINE
  5
33E
100
AcDbEntity
  8
0
100
AcDbSpline
 62
7
  6
BYLAYER
 70
0
 71
3
 72
28
 73
24
 74
0
 42
0.0000001
 43
0.0000001
 44
0.0000000001
 40
0.0
 40
0.0
 40
0.0
 40
0.0
 40
0.050240581
 40
0.1037229178
 40
0.159799055
 40
0.2176218447
 40
0.2767253584
 40
0.3360568211
 40
0.3946482882
 40
0.4516775911
 40
0.5064361107
 40
0.5582761034
 40
0.6066821544
 40
0.6513766737
 40
0.6923943659
 40
0.7301590083
 40
0.7655376472
 40
0.7998052936
 40
0.8344615086
 40
0.8708544641
 40
0.9102752152
 40
0.9532797114
 40
1.0
 40
1.0
 40
1.0
 40
1.0
 10
164.1641009228
 20
125.4708698565
 30
0.0
 10
164.1641009228
 20
127.7714784808
 30
0.0
 10
163.846937014
 20
132.524383395
 30
0.0
 10
162.5440625558
 20
139.7376911047
 30
0.0
 10
160.4300293957
 20
147.117635788
 30
0.0
 10
157.5514016413
 20
154.5095108549
 30
0.0
 10
153.970102424
 20
161.7539444014
 30
0.0
 10
149.7617103478
 20
168.6940369145
 30
0.0
 10
145.0249337699
 20
175.167871018
 30
0.0
 10
139.8649397054
 20
181.0346125862
 30
0.0
 10
134.3917342072
 20
186.1701849901
 30
0.0
 10
128.7214518251
 20
190.4641826903
 30
0.0
 10
122.9752863549
 20
193.8217705799
 30
0.0
 10
117.2742911951
 20
196.1670912747
 30
0.0
 10
111.7349790098
 20
197.4426689605
 30
0.0
 10
106.4705805957
 20
197.6051400923
 30
0.0
 10
101.600711847
 20
196.6243697416
 30
0.0
 10
97.2615572293
 20
194.5000066696
 30
0.0
 10
93.5911196367
 20
191.2904651382
 30
0.0
 10
90.6804064593
 20
187.098881252
 30
0.0
 10
88.5816116007
 20
182.0409972103
 30
0.0
 10
87.3250753117
 20
176.2357433619
 30
0.0
 10
87.0700772036
 20
172.1195262306
 30
0.0
 10
87.0700772036
 20
169.9801182699
 30
0.0
  0
SPLINE
  5
33F
100
AcDbEntity
  8
0
100
AcDbSpline
 62
7
  6
BYLAYER
 70
0
 71
3
 72
28
 73
24
 74
0
 42
0.0000001
 43
0.0000001
 44
0.0000000001
 40
0.0
 40
0.0
 40
0.0
 40
0.0
 40
0.050240581
 40
0.1037229178
 40
0.159799055
 40
0.2176218447
 40
0.2767253584
 40
0.3360568211
 40
0.3946482882
 40
0.4516775911
 40
0.5064361107
 40
0.5582761034
 40
0.6066821544
 40
0.6513766737
 40
0.6923943659
 40
0.7301590083
 40
0.7655376472
 40
0.7998052936
 40
0.8344615086
 40
0.8708544641
 40
0.9102752152
 40
0.9532797114
 40
1.0
 40
1.0
 40
1.0
 40
1.0
 10
87.0700772036
 20
169.9801182699
 30
0.0
 10
87.0700772036
 20
167.6795096456
 30
0.0
 10
87.3872411124
 20
162.9266047313
 30
0.0
 10
88.6901155706
 20
155.7132970217
 30
0.0
 10
90.8041487307
 20
148.3333523384
 30
0.0
 10
93.682776485
 20
140.9414772715
 30
0.0
 10
97.2640757024
 20
133.697043725
 30
0.0
 10
101.4724677786
 20
126.7569512118
 30
0.0
 10
106.2092443565
 20
120.2831171084
 30
0.0
 10
111.369238421
 20
114.4163755402
 30
0.0
 10
116.8424439192
 20
109.2808031362
 30
0.0
 10
122.5127263013
 20
104.986805436
 30
0.0
 10
128.2588917715
 20
101.6292175464
 30
0.0
 10
133.9598869313
 20
99.2838968516
 30
0.0
 10
139.4991991166
 20
98.0083191659
 30
0.0
 10
144.7635975307
 20
97.845848034
 30
0.0
 10
149.6334662794
 20
98.8266183848
 30
0.0
 10
153.9726208971
 20
100.9509814568
 30
0.0
 10
157.6430584897
 20
104.1605229882
 30
0.0
 10
160.5537716671
 20
108.3521068744
 30
0.0
 10
162.6525665257
 20
113.4099909161
 30
0.0
 10
163.9091028147
 20
119.2152447645
 30
0.0
 10
164.1641009228
 20
123.3314618958
 30
0.0
 10
164.1641009228
 20
125.4708698565
 30
0.0
  0
SPLINE
  5
340
100
AcDbEntity
  8
0
100
AcDbSpline
 62
7
  6
BYLAYER
 70
0
 71
3
 72
28
 73
24
 74
0
 42
0.0000001
 43
0.0000001
 44
0.0000000001
 40
0.0
 40
0.0
 40
0.0
 40
0.0
 40
0.0502465619
 40
0.1037304417
 40
0.1598017728
 40
0.2176246749
 40
0.276733622
 40
0.3360668188
 40
0.3946597252
 40
0.4516900258
 40
0.5064473096
 40
0.5582838682
 40
0.6066860314
 40
0.6513777627
 40
0.6923947665
 40
0.7301604237
 40
0.7655403394
 40
0.799808511
 40
0.8344658824
 40
0.8708561418
 40
0.9102707712
 40
0.9532742658
 40
1.0
 40
1.0
 40
1.0
 40
1.0
 10
84.4873597456
 20
169.3973541233
 30
0.0
 10
84.4873597456
 20
167.0495148162
 30
0.0
 10
84.8110579641
 20
162.1992593418
 30
0.0
 10
86.1406431553
 20
154.8386340892
 30
0.0
 10
88.2978425668
 20
147.3082408397
 30
0.0
 10
91.2352630077
 20
139.7654914747
 30
0.0
 10
94.88986253
 20
132.3729351163
 30
0.0
 10
99.1844429878
 20
125.2909201411
 30
0.0
 10
104.0181101846
 20
118.6848863623
 30
0.0
 10
109.2835634913
 20
112.6984739911
 30
0.0
 10
114.8684555058
 20
107.4583323393
 30
0.0
 10
120.6542286729
 20
103.0770644423
 30
0.0
 10
126.5173067977
 20
99.6512877246
 30
0.0
 10
132.3343485302
 20
97.2582875615
 30
0.0
 10
137.9865986984
 20
95.9567232888
 30
0.0
 10
143.3585126537
 20
95.7909593739
 30
0.0
 10
148.3278877711
 20
96.7918418059
 30
0.0
 10
152.7556745449
 20
98.9597222789
 30
0.0
 10
156.5008918269
 20
102.2348420005
 30
0.0
 10
159.4707173237
 20
106.5117187866
 30
0.0
 10
161.6122091216
 20
111.6723691041
 30
0.0
 10
162.8944860296
 20
117.5959975004
 30
0.0
 10
163.1547308877
 20
121.7964298795
 30
0.0
 10
163.1547308877
 20
123.9797537014
 30
0.0
  0
SPLINE
  5
341
100
AcDbEntity
  8
0
100
AcDbSpline
 62
7
  6
BYLAYER
 70
0
 71
3
 72
28
 73
24
 74
0
 42
0.0000001
 43
0.0000001
 44
0.0000000001
 40
0.0
 40
0.0
 40
0.0
 40
0.0
 40
0.0502465619
 40
0.1037304417
 40
0.1598017728
 40
0.2176246749
 40
0.276733622
 40
0.3360668188
 40
0.3946597252
 40
0.4516900258
 40
0.5064473096
 40
0.5582838682
 40
0.6066860314
 40
0.6513777627
 40
0.6923947665
 40
0.7301604237
 40
0.7655403394
 40
0.799808511
 40
0.8344658824
 40
0.8708561418
 40
0.9102707712
 40
0.9532742658
 40
1.0
 40
1.0
 40
1.0
 40
1.0
 10
163.1547308877
 20
123.9797537014
 30
0.0
 10
163.1547308877
 20
126.3275930085
 30
0.0
 10
162.8310326692
 20
131.1778484829
 30
0.0
 10
161.501447478
 20
138.5384737355
 30
0.0
 10
159.3442480665
 20
146.068866985
 30
0.0
 10
156.4068276256
 20
153.61161635
 30
0.0
 10
152.7522281033
 20
161.0041727084
 30
0.0
 10
148.4576476455
 20
168.0861876836
 30
0.0
 10
143.6239804487
 20
174.6922214624
 30
0.0
 10
138.3585271421
 20
180.6786338336
 30
0.0
 10
132.7736351275
 20
185.9187754854
 30
0.0
 10
126.9878619605
 20
190.3000433824
 30
0.0
 10
121.1247838356
 20
193.7258201001
 30
0.0
 10
115.3077421031
 20
196.1188202632
 30
0.0
 10
109.6554919349
 20
197.4203845359
 30
0.0
 10
104.2835779797
 20
197.5861484508
 30
0.0
 10
99.3142028622
 20
196.5852660188
 30
0.0
 10
94.8864160884
 20
194.4173855458
 30
0.0
 10
91.1411988064
 20
191.1422658242
 30
0.0
 10
88.1713733097
 20
186.8653890381
 30
0.0
 10
86.0298815118
 20
181.7047387205
 30
0.0
 10
84.7476046037
 20
175.7811103243
 30
0.0
 10
84.4873597456
 20
171.5806779452
 30
0.0
 10
84.4873597456
 20
169.3973541233
 30
0.0
  0
SPLINE
  5
342
100
AcDbEntity
  8
0
100
AcDbSpline
 62
7
  6
BYLAYER
 70
0
 71
3
 72
27
 73
23
 74
0
 42
0.0000001
 43
0.0000001
 44
0.0000000001
 40
0.0
 40
0.0
 40
0.0
 40
0.0
 40
0.0487391003
 40
0.0934757952
 40
0.1343537414
 40
0.1720580184
 40
0.2085190294
 40
0.2449370634
 40
0.2830045657
 40
0.3240505056
 40
0.3688587134
 40
0.4177039256
 40
0.4704471532
 40
0.5266380126
 40
0.5856095736
 40
0.6465709916
 40
0.7086400647
 40
0.7708441757
 40
0.8314130845
 40
0.8904572601
 40
0.9469379968
 40
1.0
 40
1.0
 40
1.0
 40
1.0
 10
157.254678052
 20
127.386073733
 30
0.0
 10
157.254678052
 20
125.4504738075
 30
0.0
 10
157.0144896661
 20
121.7306581801
 30
0.0
 10
155.8246530425
 20
116.5025423548
 30
0.0
 10
153.833953192
 20
111.988500513
 30
0.0
 10
151.063070609
 20
108.2981778002
 30
0.0
 10
147.5580409761
 20
105.5603523494
 30
0.0
 10
143.4196209195
 20
103.8923305661
 30
0.0
 10
138.8168000594
 20
103.3444468395
 30
0.0
 10
133.8899938124
 20
103.8941902391
 30
0.0
 10
128.7578110932
 20
105.4957022005
 30
0.0
 10
123.5334412431
 20
108.0929131396
 30
0.0
 10
118.3325105277
 20
111.6163582887
 30
0.0
 10
113.2726500774
 20
115.9797126473
 30
0.0
 10
108.469501256
 20
121.0800609385
 30
0.0
 10
104.0335988233
 20
126.7999589193
 30
0.0
 10
100.0690840309
 20
133.0084446405
 30
0.0
 10
96.6861393489
 20
139.5345693872
 30
0.0
 10
93.9568150757
 20
146.2304886837
 30
0.0
 10
91.943589358
 20
152.9400978992
 30
0.0
 10
90.6940081899
 20
159.5302492912
 30
0.0
 10
90.3874125813
 20
163.883756589
 30
0.0
 10
90.3874125813
 20
165.9910340917
 30
0.0
  0
SPLINE
  5
343
100
AcDbEntity
  8
0
100
AcDbSpline
 62
7
  6
BYLAYER
 70
0
 71
3
 72
27
 73
23
 74
0
 42
0.0000001
 43
0.0000001
 44
0.0000000001
 40
0.0
 40
0.0
 40
0.0
 40
0.0
 40
0.0487391003
 40
0.0934757952
 40
0.1343537414
 40
0.1720580184
 40
0.2085190294
 40
0.2449370634
 40
0.2830045657
 40
0.3240505056
 40
0.3688587134
 40
0.4177039256
 40
0.4704471532
 40
0.5266380126
 40
0.5856095736
 40
0.6465709916
 40
0.7086400647
 40
0.7708441757
 40
0.8314130845
 40
0.8904572601
 40
0.9469379968
 40
1.0
 40
1.0
 40
1.0
 40
1.0
 10
90.3874125813
 20
165.9910340917
 30
0.0
 10
90.3874125813
 20
167.9266340172
 30
0.0
 10
90.6276009672
 20
171.6464496446
 30
0.0
 10
91.8174375908
 20
176.8745654699
 30
0.0
 10
93.8081374413
 20
181.3886073117
 30
0.0
 10
96.5790200243
 20
185.0789300245
 30
0.0
 10
100.0840496572
 20
187.8167554753
 30
0.0
 10
104.2224697139
 20
189.4847772586
 30
0.0
 10
108.825290574
 20
190.0326609852
 30
0.0
 10
113.752096821
 20
189.4829175856
 30
0.0
 10
118.8842795401
 20
187.8814056242
 30
0.0
 10
124.1086493902
 20
185.2841946851
 30
0.0
 10
129.3095801056
 20
181.760749536
 30
0.0
 10
134.3694405559
 20
177.3973951774
 30
0.0
 10
139.1725893774
 20
172.2970468862
 30
0.0
 10
143.60849181
 20
166.5771489054
 30
0.0
 10
147.5730066024
 20
160.3686631842
 30
0.0
 10
150.9559512845
 20
153.8425384375
 30
0.0
 10
153.6852755576
 20
147.146619141
 30
0.0
 10
155.6985012753
 20
140.4370099255
 30
0.0
 10
156.9480824434
 20
133.8468585335
 30
0.0
 10
157.254678052
 20
129.4933512357
 30
0.0
 10
157.254678052
 20
127.386073733
 30
0.0
  0
SPLINE
  5
344
100
AcDbEntity
  8
0
100
AcDbSpline
 62
7
  6
BYLAYER
 70
0
 71
3
 72
27
 73
23
 74
0
 42
0.0000001
 43
0.0000001
 44
0.0000000001
 40
0.0
 40
0.0
 40
0.0
 40
0.0
 40
0.0488181678
 40
0.0935234856
 40
0.1344057798
 40
0.172269114
 40
0.208444332
 40
0.2446194534
 40
0.2824825198
 40
0.3233644276
 40
0.3680693002
 40
0.4168870161
 40
0.4696848383
 40
0.526007641
 40
0.585163888
 40
0.6462964609
 40
0.7084428779
 40
0.7705893511
 40
0.8317220898
 40
0.8908786039
 40
0.9472017599
 40
1.0
 40
1.0
 40
1.0
 40
1.0
 10
153.8206987987
 20
127.6470770106
 30
0.0
 10
153.8206987987
 20
125.821003561
 30
0.0
 10
153.5939966802
 20
122.3155294405
 30
0.0
 10
152.4715995117
 20
117.3896303688
 30
0.0
 10
150.5935676035
 20
113.1338542906
 30
0.0
 10
147.9832619203
 20
109.6633927883
 30
0.0
 10
144.6921931969
 20
107.0957239523
 30
0.0
 10
140.8230498876
 20
105.5293129752
 30
0.0
 10
136.512390094
 20
105.0038821808
 30
0.0
 10
131.8879521207
 20
105.5051659191
 30
0.0
 10
127.0601534341
 20
106.9964099155
 30
0.0
 10
122.13598516
 20
109.429702122
 30
0.0
 10
117.2261034869
 20
112.7427152387
 30
0.0
 10
112.4441314023
 20
116.8552331776
 30
0.0
 10
107.903193772
 20
121.6684819674
 30
0.0
 10
103.7121411941
 20
127.0665585134
 30
0.0
 10
99.9721390985
 20
132.9190162551
 30
0.0
 10
96.7737251742
 20
139.0841984459
 30
0.0
 10
94.1943435718
 20
145.4127137829
 30
0.0
 10
92.296366871
 20
151.7522201011
 30
0.0
 10
91.1257733554
 20
157.9487887314
 30
0.0
 10
90.8395185759
 20
162.0335052736
 30
0.0
 10
90.8395185759
 20
164.0084557619
 30
0.0
  0
SPLINE
  5
345
100
AcDbEntity
  8
0
100
AcDbSpline
 62
7
  6
BYLAYER
 70
0
 71
3
 72
27
 73
23
 74
0
 42
0.0000001
 43
0.0000001
 44
0.0000000001
 40
0.0
 40
0.0
 40
0.0
 40
0.0
 40
0.0488181678
 40
0.0935234856
 40
0.1344057798
 40
0.172269114
 40
0.208444332
 40
0.2446194534
 40
0.2824825198
 40
0.3233644276
 40
0.3680693002
 40
0.4168870161
 40
0.4696848383
 40
0.526007641
 40
0.585163888
 40
0.6462964609
 40
0.7084428779
 40
0.7705893511
 40
0.8317220898
 40
0.8908786039
 40
0.9472017599
 40
1.0
 40
1.0
 40
1.0
 40
1.0
 10
90.8395185759
 20
164.0084557619
 30
0.0
 10
90.8395185759
 20
165.8345292115
 30
0.0
 10
91.0662206944
 20
169.340003332
 30
0.0
 10
92.1886178628
 20
174.2659024037
 30
0.0
 10
94.0666497711
 20
178.5216784819
 30
0.0
 10
96.6769554543
 20
181.9921399842
 30
0.0
 10
99.9680241777
 20
184.5598088202
 30
0.0
 10
103.8371674869
 20
186.1262197973
 30
0.0
 10
108.1478272806
 20
186.6516505917
 30
0.0
 10
112.7722652539
 20
186.1503668534
 30
0.0
 10
117.6000639405
 20
184.6591228569
 30
0.0
 10
122.5242322146
 20
182.2258306504
 30
0.0
 10
127.4341138877
 20
178.9128175338
 30
0.0
 10
132.2160859723
 20
174.8002995949
 30
0.0
 10
136.7570236026
 20
169.9870508051
 30
0.0
 10
140.9480761804
 20
164.5889742591
 30
0.0
 10
144.6880782761
 20
158.7365165174
 30
0.0
 10
147.8864922004
 20
152.5713343265
 30
0.0
 10
150.4658738028
 20
146.2428189896
 30
0.0
 10
152.3638505036
 20
139.9033126714
 30
0.0
 10
153.5344440191
 20
133.7067440411
 30
0.0
 10
153.8206987987
 20
129.6220274988
 30
0.0
 10
153.8206987987
 20
127.6470770106
 30
0.0
  0
SPLINE
  5
346
100
AcDbEntity
  8
0
100
AcDbSpline
 62
7
  6
BYLAYER
 70
0
 71
3
 72
27
 73
23
 74
0
 42
0.0000001
 43
0.0000001
 44
0.0000000001
 40
0.0
 40
0.0
 40
0.0
 40
0.0
 40
0.0527982401
 40
0.1091213961
 40
0.1682779102
 40
0.2294106489
 40
0.2915571221
 40
0.3537035391
 40
0.414836112
 40
0.473992359
 40
0.5303151617
 40
0.5831129839
 40
0.6319306998
 40
0.6766355724
 40
0.7175174802
 40
0.7553805466
 40
0.791555668
 40
0.827730886
 40
0.8655942202
 40
0.9064765144
 40
0.9511818322
 40
1.0
 40
1.0
 40
1.0
 40
1.0
 10
88.7952600816
 20
161.9642068367
 30
0.0
 10
88.7952600816
 20
160.0361838457
 30
0.0
 10
89.0747130601
 20
156.0485256983
 30
0.0
 10
90.217491689
 20
149.9991959273
 30
0.0
 10
92.070369894
 20
143.8103248615
 30
0.0
 10
94.5884618977
 20
137.6321836162
 30
0.0
 10
97.7108771771
 20
131.6134945005
 30
0.0
 10
101.3620117599
 20
125.9000990775
 30
0.0
 10
105.4534792549
 20
120.630288138
 30
0.0
 10
109.8865180597
 20
115.9314086555
 30
0.0
 10
114.5548640139
 20
111.9166097102
 30
0.0
 10
119.3480802516
 20
108.6823182702
 30
0.0
 10
124.1552436214
 20
106.3068443807
 30
0.0
 10
128.8683272755
 20
104.8510343604
 30
0.0
 10
133.382882342
 20
104.3616618023
 30
0.0
 10
137.5911150234
 20
104.8746076497
 30
0.0
 10
141.3683222497
 20
106.4037985815
 30
0.0
 10
144.5811907249
 20
108.9104561299
 30
0.0
 10
147.1294720114
 20
112.2984547687
 30
0.0
 10
148.962879339
 20
116.453107846
 30
0.0
 10
150.0586068313
 20
121.2619608872
 30
0.0
 10
150.2799222006
 20
124.684140197
 30
0.0
 10
150.2799222006
 20
126.4668236694
 30
0.0
  0
SPLINE
  5
347
100
AcDbEntity
  8
0
100
AcDbSpline
 62
7
  6
BYLAYER
 70
0
 71
3
 72
27
 73
23
 74
0
 42
0.0000001
 43
0.0000001
 44
0.0000000001
 40
0.0
 40
0.0
 40
0.0
 40
0.0
 40
0.0527982401
 40
0.1091213961
 40
0.1682779102
 40
0.2294106489
 40
0.2915571221
 40
0.3537035391
 40
0.414836112
 40
0.473992359
 40
0.5303151617
 40
0.5831129839
 40
0.6319306998
 40
0.6766355724
 40
0.7175174802
 40
0.7553805466
 40
0.791555668
 40
0.827730886
 40
0.8655942202
 40
0.9064765144
 40
0.9511818322
 40
1.0
 40
1.0
 40
1.0
 40
1.0
 10
150.2799222006
 20
126.4668236694
 30
0.0
 10
150.2799222006
 20
128.3948466604
 30
0.0
 10
150.0004692221
 20
132.3825048078
 30
0.0
 10
148.8576905932
 20
138.4318345788
 30
0.0
 10
147.0048123882
 20
144.6207056446
 30
0.0
 10
144.4867203845
 20
150.7988468899
 30
0.0
 10
141.364305105
 20
156.8175360057
 30
0.0
 10
137.7131705222
 20
162.5309314286
 30
0.0
 10
133.6217030273
 20
167.8007423681
 30
0.0
 10
129.1886642225
 20
172.4996218507
 30
0.0
 10
124.5203182683
 20
176.514420796
 30
0.0
 10
119.7271020306
 20
179.7487122359
 30
0.0
 10
114.9199386608
 20
182.1241861255
 30
0.0
 10
110.2068550067
 20
183.5799961458
 30
0.0
 10
105.6922999401
 20
184.0693687038
 30
0.0
 10
101.4840672588
 20
183.5564228564
 30
0.0
 10
97.7068600325
 20
182.0272319246
 30
0.0
 10
94.4939915573
 20
179.5205743763
 30
0.0
 10
91.9457102708
 20
176.1325757374
 30
0.0
 10
90.1123029431
 20
171.9779226602
 30
0.0
 10
89.0165754509
 20
167.169069619
 30
0.0
 10
88.7952600816
 20
163.7468903091
 30
0.0
 10
88.7952600816
 20
161.9642068367
 30
0.0
  0
SPLINE
  5
348
100
AcDbEntity
  8
0
100
AcDbSpline
 62
7
  6
BYLAYER
 70
0
 71
3
 72
27
 73
23
 74
0
 42
0.0000001
 43
0.0000001
 44
0.0000000001
 40
0.0
 40
0.0
 40
0.0
 40
0.0
 40
0.0526794328
 40
0.1090077386
 40
0.1681634915
 40
0.2290203623
 40
0.2915396221
 40
0.35410003
 40
0.4155207304
 40
0.4748204768
 40
0.5311440389
 40
0.583838918
 40
0.6324973952
 40
0.6770282329
 40
0.7177556316
 40
0.7555156046
 40
0.791661871
 40
0.8278328254
 40
0.8653738741
 40
0.9061874246
 40
0.9509831822
 40
1.0
 40
1.0
 40
1.0
 40
1.0
 10
89.0213130789
 20
160.9729176718
 30
0.0
 10
89.0213130789
 20
159.1100223391
 30
0.0
 10
89.2910540667
 20
155.252409451
 30
0.0
 10
90.3956541356
 20
149.39795495
 30
0.0
 10
92.1860794955
 20
143.4135131013
 30
0.0
 10
94.6234943257
 20
137.4265882743
 30
0.0
 10
97.6539261104
 20
131.5810325387
 30
0.0
 10
101.2117650675
 20
126.0169822238
 30
0.0
 10
105.1965693387
 20
120.8932278715
 30
0.0
 10
109.5058727435
 20
116.3370952565
 30
0.0
 10
114.034131578
 20
112.4554808201
 30
0.0
 10
118.6740039237
 20
109.3371320136
 30
0.0
 10
123.3198706132
 20
107.0526736688
 30
0.0
 10
127.8700954602
 20
105.6567006367
 30
0.0
 10
132.2273729328
 20
105.1917398778
 30
0.0
 10
136.2916841997
 20
105.6923194876
 30
0.0
 10
139.9435953441
 20
107.1746875987
 30
0.0
 10
143.0429750082
 20
109.5967823563
 30
0.0
 10
145.5033498817
 20
112.8646140287
 30
0.0
 10
147.2799144494
 20
116.8758833157
 30
0.0
 10
148.3470813355
 20
121.5395932184
 30
0.0
 10
148.5629325739
 20
124.863950512
 30
0.0
 10
148.5629325739
 20
126.5973253082
 30
0.0
  0
SPLINE
  5
349
100
AcDbEntity
  8
0
100
AcDbSpline
 62
7
  6
BYLAYER
 70
0
 71
3
 72
27
 73
23
 74
0
 42
0.0000001
 43
0.0000001
 44
0.0000000001
 40
0.0
 40
0.0
 40
0.0
 40
0.0
 40
0.0526794328
 40
0.1090077386
 40
0.1681634915
 40
0.2290203623
 40
0.2915396221
 40
0.35410003
 40
0.4155207304
 40
0.4748204768
 40
0.5311440389
 40
0.583838918
 40
0.6324973952
 40
0.6770282329
 40
0.7177556316
 40
0.7555156046
 40
0.791661871
 40
0.8278328254
 40
0.8653738741
 40
0.9061874246
 40
0.9509831822
 40
1.0
 40
1.0
 40
1.0
 40
1.0
 10
148.5629325739
 20
126.5973253082
 30
0.0
 10
148.5629325739
 20
128.4602206409
 30
0.0
 10
148.2931915861
 20
132.317833529
 30
0.0
 10
147.1885915172
 20
138.17228803
 30
0.0
 10
145.3981661573
 20
144.1567298787
 30
0.0
 10
142.9607513271
 20
150.1436547057
 30
0.0
 10
139.9303195424
 20
155.9892104413
 30
0.0
 10
136.3724805853
 20
161.5532607562
 30
0.0
 10
132.3876763141
 20
166.6770151085
 30
0.0
 10
128.0783729094
 20
171.2331477235
 30
0.0
 10
123.5501140749
 20
175.1147621599
 30
0.0
 10
118.9102417291
 20
178.2331109664
 30
0.0
 10
114.2643750396
 20
180.5175693112
 30
0.0
 10
109.7141501926
 20
181.9135423433
 30
0.0
 10
105.35687272
 20
182.3785031023
 30
0.0
 10
101.2925614531
 20
181.8779234924
 30
0.0
 10
97.6406503087
 20
180.3955553813
 30
0.0
 10
94.5412706446
 20
177.9734606237
 30
0.0
 10
92.0808957711
 20
174.7056289513
 30
0.0
 10
90.3043312034
 20
170.6943596643
 30
0.0
 10
89.2371643173
 20
166.0306497616
 30
0.0
 10
89.0213130789
 20
162.706292468
 30
0.0
 10
89.0213130789
 20
160.9729176718
 30
0.0
  0
SPLINE
  5
34A
100
AcDbEntity
  8
0
100
AcDbSpline
 62
7
  6
BYLAYER
 70
0
 71
3
 72
12
 73
8
 74
0
 42
0.0000001
 43
0.0000001
 44
0.0000000001
 40
0.0
 40
0.0
 40
0.0
 40
0.0
 40
0.2255153764
 40
0.4138366211
 40
0.5861993306
 40
0.774511867
 40
1.0
 40
1.0
 40
1.0
 40
1.0
 10
128.6704456849
 20
128.9982454635
 30
0.0
 10
128.6704456847
 20
128.7748393379
 30
0.0
 10
128.62138389
 20
128.3606488629
 30
0.0
 10
128.3341989706
 20
127.8310572076
 30
0.0
 10
127.8376983919
 20
127.5444299739
 30
0.0
 10
127.2355084005
 20
127.560544239
 30
0.0
 10
126.8523130308
 20
127.7251350137
 30
0.0
 10
126.6588599293
 20
127.836822687
 30
0.0
  0
SPLINE
  5
34B
100
AcDbEntity
  8
0
100
AcDbSpline
 62
7
  6
BYLAYER
 70
0
 71
3
 72
12
 73
8
 74
0
 42
0.0000001
 43
0.0000001
 44
0.0000000001
 40
0.0
 40
0.0
 40
0.0
 40
0.0
 40
0.1877167251
 40
0.3937434277
 40
0.6062936855
 40
0.8123063456
 40
1.0
 40
1.0
 40
1.0
 40
1.0
 10
126.658859937
 20
150.6499002151
 30
0.0
 10
126.8850598147
 20
150.519306609
 30
0.0
 10
127.3209587126
 20
150.177353111
 30
0.0
 10
127.868644985
 20
149.5300803343
 30
0.0
 10
128.3055935207
 20
148.773238826
 30
0.0
 10
128.5922679038
 20
147.9753342161
 30
0.0
 10
128.6704456847
 20
147.4269103841
 30
0.0
 10
128.6704456849
 20
147.1657508415
 30
0.0
  0
SPLINE
  5
34C
100
AcDbEntity
  8
0
100
AcDbSpline
 62
7
  6
BYLAYER
 70
0
 71
3
 72
12
 73
8
 74
0
 42
0.0000001
 43
0.0000001
 44
0.0000000001
 40
0.0
 40
0.0
 40
0.0
 40
0.0
 40
0.2255153773
 40
0.4138366228
 40
0.586199333
 40
0.7745118702
 40
1.0
 40
1.0
 40
1.0
 40
1.0
 10
108.9137999679
 20
158.5719975165
 30
0.0
 10
108.9137999681
 20
158.7954036422
 30
0.0
 10
108.9628617628
 20
159.2095941172
 30
0.0
 10
109.2500466823
 20
159.7391857725
 30
0.0
 10
109.7465472609
 20
160.025813006
 30
0.0
 10
110.3487372482
 20
160.0096987414
 30
0.0
 10
110.7319326142
 20
159.8451079687
 30
0.0
 10
110.9253857122
 20
159.7334202974
 30
0.0
  0
SPLINE
  5
34D
100
AcDbEntity
  8
0
100
AcDbSpline
 62
7
  6
BYLAYER
 70
0
 71
3
 72
12
 73
8
 74
0
 42
0.0000001
 43
0.0000001
 44
0.0000000001
 40
0.0
 40
0.0
 40
0.0
 40
0.0
 40
0.1877167278
 40
0.3937434297
 40
0.6062936868
 40
0.8123063463
 40
1.0
 40
1.0
 40
1.0
 40
1.0
 10
110.9253857271
 20
136.9203427563
 30
0.0
 10
110.6991858453
 20
137.0509363648
 30
0.0
 10
110.2632869435
 20
137.3928898655
 30
0.0
 10
109.7156006678
 20
138.0401626456
 30
0.0
 10
109.2786521322
 20
138.797004154
 30
0.0
 10
108.991977749
 20
139.5949087639
 30
0.0
 10
108.9137999681
 20
140.143332596
 30
0.0
 10
108.9137999679
 20
140.4044921386
 30
0.0
  0
SPLINE
  5
34E
100
AcDbEntity
  8
0
100
AcDbSpline
 62
7
  6
BYLAYER
 70
0
 71
3
 72
12
 73
8
 74
0
 42
0.0000001
 43
0.0000001
 44
0.0000000001
 40
0.0
 40
0.0
 40
0.0
 40
0.0
 40
0.225513188
 40
0.4138328287
 40
0.5861955384
 40
0.7745096789
 40
1.0
 40
1.0
 40
1.0
 40
1.0
 10
125.760838056
 20
127.3183526116
 30
0.0
 10
125.954312653
 20
127.2066525282
 30
0.0
 10
126.3375417024
 20
127.0420517778
 30
0.0
 10
126.9397713145
 20
127.0259779232
 30
0.0
 10
127.4362401033
 20
127.3126602172
 30
0.0
 10
127.7233702171
 20
127.8422377638
 30
0.0
 10
127.7724238115
 20
128.2563940834
 30
0.0
 10
127.7724238116
 20
128.4797753881
 30
0.0
  0
SPLINE
  5
34F
100
AcDbEntity
  8
0
100
AcDbSpline
 62
7
  6
BYLAYER
 70
0
 71
3
 72
12
 73
8
 74
0
 42
0.0000001
 43
0.0000001
 44
0.0000000001
 40
0.0
 40
0.0
 40
0.0
 40
0.0
 40
0.1877180596
 40
0.3937455046
 40
0.6062957617
 40
0.8123076779
 40
1.0
 40
1.0
 40
1.0
 40
1.0
 10
108.0157780946
 20
139.8860220632
 30
0.0
 10
108.0157780948
 20
139.6248285619
 30
0.0
 10
108.0939734041
 20
139.0763501396
 30
0.0
 10
108.3806899627
 20
138.2784022903
 30
0.0
 10
108.8176630751
 20
137.5215749716
 30
0.0
 10
109.3653329918
 20
136.8743603363
 30
0.0
 10
109.8011933811
 20
136.5324493104
 30
0.0
 10
110.0273638538
 20
136.4018726809
 30
0.0
  0
SPLINE
  5
350
100
AcDbEntity
  8
0
100
AcDbSpline
 62
7
  6
BYLAYER
 70
0
 71
3
 72
12
 73
8
 74
0
 42
0.0000001
 43
0.0000001
 44
0.0000000001
 40
0.0
 40
0.0
 40
0.0
 40
0.0
 40
0.2255131848
 40
0.4138328263
 40
0.5861955367
 40
0.774509678
 40
1.0
 40
1.0
 40
1.0
 40
1.0
 10
110.0273638389
 20
159.214950222
 30
0.0
 10
109.8338892455
 20
159.3266503034
 30
0.0
 10
109.4506601997
 20
159.4912510518
 30
0.0
 10
108.8484305918
 20
159.5073249059
 30
0.0
 10
108.351961803
 20
159.220642612
 30
0.0
 10
108.0648316892
 20
158.6910650654
 30
0.0
 10
108.0157780948
 20
158.2769087458
 30
0.0
 10
108.0157780946
 20
158.0535274411
 30
0.0
  0
SPLINE
  5
351
100
AcDbEntity
  8
0
100
AcDbSpline
 62
7
  6
BYLAYER
 70
0
 71
3
 72
12
 73
8
 74
0
 42
0.0000001
 43
0.0000001
 44
0.0000000001
 40
0.0
 40
0.0
 40
0.0
 40
0.0
 40
0.1877180603
 40
0.393745506
 40
0.6062957637
 40
0.8123076806
 40
1.0
 40
1.0
 40
1.0
 40
1.0
 10
127.7724238116
 20
146.647280766
 30
0.0
 10
127.7724238114
 20
146.9084742673
 30
0.0
 10
127.6942285022
 20
147.4569526896
 30
0.0
 10
127.4075119436
 20
148.2549005389
 30
0.0
 10
126.9705388312
 20
149.0117278576
 30
0.0
 10
126.4228689177
 20
149.6589424894
 30
0.0
 10
125.9870085324
 20
150.0008535125
 30
0.0
 10
125.7608380638
 20
150.1314301397
 30
0.0
  0
SPLINE
  5
352
100
AcDbEntity
  8
0
100
AcDbSpline
 62
7
  6
BYLAYER
 70
0
 71
3
 72
12
 73
8
 74
0
 42
0.0000001
 43
0.0000001
 44
0.0000000001
 40
0.0
 40
0.0
 40
0.0
 40
0.0
 40
0.1877166931
 40
0.3937437768
 40
0.6062944133
 40
0.8123070694
 40
1.0
 40
1.0
 40
1.0
 40
1.0
 10
93.1085013247
 20
134.1410850896
 30
0.0
 10
93.2498753837
 20
134.2227069531
 30
0.0
 10
93.5711823977
 20
134.3517803013
 30
0.0
 10
94.0926810066
 20
134.4459489208
 30
0.0
 10
94.6388794454
 20
134.4459413252
 30
0.0
 10
95.1603427843
 20
134.3517658139
 30
0.0
 10
95.4816163099
 20
134.2227016456
 30
0.0
 10
95.6229730612
 20
134.1410911336
 30
0.0
  0
SPLINE
  5
353
100
AcDbEntity
  8
0
100
AcDbSpline
 62
7
  6
BYLAYER
 70
0
 71
3
 72
12
 73
8
 74
0
 42
0.0000001
 43
0.0000001
 44
0.0000000001
 40
0.0
 40
0.0
 40
0.0
 40
0.0
 40
0.2255162333
 40
0.4138364488
 40
0.5861975396
 40
0.7745098783
 40
1.0
 40
1.0
 40
1.0
 40
1.0
 10
30.9653981864
 20
96.8112457036
 30
0.0
 10
30.8444768915
 20
96.8810580666
 30
0.0
 10
30.6356232444
 20
97.0370429026
 30
0.0
 10
30.4387189158
 20
97.3579760776
 30
0.0
 10
30.4387359394
 20
97.7162791894
 30
0.0
 10
30.6356452862
 20
98.0371799708
 30
0.0
 10
30.8444809271
 20
98.1931507322
 30
0.0
 10
30.9653877176
 20
98.2629558838
 30
0.0
  0
SPLINE
  5
354
100
AcDbEntity
  8
0
100
AcDbSpline
 62
7
  6
BYLAYER
 70
0
 71
3
 72
12
 73
8
 74
0
 42
0.0000001
 43
0.0000001
 44
0.0000000001
 40
0.0
 40
0.0
 40
0.0
 40
0.0
 40
0.1877166931
 40
0.3937437768
 40
0.6062944133
 40
0.8123070694
 40
1.0
 40
1.0
 40
1.0
 40
1.0
 10
93.8274422832
 20
61.970352807
 30
0.0
 10
93.6860682243
 20
61.8887309434
 30
0.0
 10
93.3647612102
 20
61.7596575953
 30
0.0
 10
92.8432626014
 20
61.6654889758
 30
0.0
 10
92.2970641625
 20
61.6654965713
 30
0.0
 10
91.7756008236
 20
61.7596720826
 30
0.0
 10
91.454327298
 20
61.888736251
 30
0.0
 10
91.3129705467
 20
61.9703467629
 30
0.0
  0
SPLINE
  5
355
100
AcDbEntity
  8
0
100
AcDbSpline
 62
7
  6
BYLAYER
 70
0
 71
3
 72
12
 73
8
 74
0
 42
0.0000001
 43
0.0000001
 44
0.0000000001
 40
0.0
 40
0.0
 40
0.0
 40
0.0
 40
0.2255162333
 40
0.4138364488
 40
0.5861975396
 40
0.7745098783
 40
1.0
 40
1.0
 40
1.0
 40
1.0
 10
155.9705454216
 20
99.3001921929
 30
0.0
 10
156.0914667164
 20
99.2303798299
 30
0.0
 10
156.3003203635
 20
99.074394994
 30
0.0
 10
156.4972246921
 20
98.7534618189
 30
0.0
 10
156.4972076686
 20
98.3951587071
 30
0.0
 10
156.3002983217
 20
98.0742579258
 30
0.0
 10
156.0914626808
 20
97.9182871643
 30
0.0
 10
155.9705558903
 20
97.8484820127
 30
0.0
  0
SPLINE
  5
356
100
AcDbEntity
  8
0
100
AcDbSpline
 62
7
  6
BYLAYER
 70
0
 71
3
 72
12
 73
8
 74
0
 42
0.0000001
 43
0.0000001
 44
0.0000000001
 40
0.0
 40
0.0
 40
0.0
 40
0.0
 40
0.1877173364
 40
0.3937447782
 40
0.6062954147
 40
0.8123077127
 40
1.0
 40
1.0
 40
1.0
 40
1.0
 10
91.3219481483
 20
62.3384590054
 30
0.0
 10
91.4633232803
 20
62.2568378817
 30
0.0
 10
91.7846318313
 20
62.1277661416
 30
0.0
 10
92.3061317539
 20
62.0335999459
 30
0.0
 10
92.8523301927
 20
62.0336100867
 30
0.0
 10
93.3737922177
 20
62.1277880216
 30
0.0
 10
93.6950642064
 20
62.2568537979
 30
0.0
 10
93.8364198847
 20
62.3384650495
 30
0.0
  0
SPLINE
  5
357
100
AcDbEntity
  8
0
100
AcDbSpline
 62
7
  6
BYLAYER
 70
0
 71
3
 72
12
 73
8
 74
0
 42
0.0000001
 43
0.0000001
 44
0.0000000001
 40
0.0
 40
0.0
 40
0.0
 40
0.0
 40
0.2255151768
 40
0.4138346195
 40
0.5861957104
 40
0.774508822
 40
1.0
 40
1.0
 40
1.0
 40
1.0
 10
31.6029858648
 20
98.2681420956
 30
0.0
 10
31.4820656399
 20
98.1983291877
 30
0.0
 10
31.2732140747
 20
98.0423433147
 30
0.0
 10
31.0763142185
 20
97.72140846
 30
0.0
 10
31.076336932
 20
97.3631053485
 30
0.0
 10
31.2732507507
 20
97.0422062467
 30
0.0
 10
31.4820884733
 20
96.8862365221
 30
0.0
 10
31.6029963336
 20
96.8164319154
 30
0.0
  0
SPLINE
  5
358
100
AcDbEntity
  8
0
100
AcDbSpline
 62
7
  6
BYLAYER
 70
0
 71
3
 72
12
 73
8
 74
0
 42
0.0000001
 43
0.0000001
 44
0.0000000001
 40
0.0
 40
0.0
 40
0.0
 40
0.0
 40
0.1877173364
 40
0.3937447782
 40
0.6062954147
 40
0.8123077127
 40
1.0
 40
1.0
 40
1.0
 40
1.0
 10
95.6139954597
 20
133.7729788911
 30
0.0
 10
95.4726203276
 20
133.8546000149
 30
0.0
 10
95.1513117766
 20
133.983671755
 30
0.0
 10
94.629811854
 20
134.0778379506
 30
0.0
 10
94.0836134153
 20
134.0778278099
 30
0.0
 10
93.5621513902
 20
133.9836498749
 30
0.0
 10
93.2408794015
 20
133.8545840986
 30
0.0
 10
93.0995237232
 20
133.7729728471
 30
0.0
  0
SPLINE
  5
359
100
AcDbEntity
  8
0
100
AcDbSpline
 62
7
  6
BYLAYER
 70
0
 71
3
 72
12
 73
8
 74
0
 42
0.0000001
 43
0.0000001
 44
0.0000000001
 40
0.0
 40
0.0
 40
0.0
 40
0.0
 40
0.2255151768
 40
0.4138346195
 40
0.5861957104
 40
0.774508822
 40
1.0
 40
1.0
 40
1.0
 40
1.0
 10
155.3329577431
 20
97.843295801
 30
0.0
 10
155.4538779681
 20
97.9131087089
 30
0.0
 10
155.6627295333
 20
98.0690945819
 30
0.0
 10
155.8596293895
 20
98.3900294366
 30
0.0
 10
155.8596066759
 20
98.7483325481
 30
0.0
 10
155.6626928573
 20
99.0692316499
 30
0.0
 10
155.4538551347
 20
99.2252013744
 30
0.0
 10
155.3329472744
 20
99.2950059812
 30
0.0
  0
SPLINE
  5
35A
100
AcDbEntity
  8
0
100
AcDbSpline
 62
7
  6
BYLAYER
 70
0
 71
3
 72
12
 73
8
 74
0
 42
0.0000001
 43
0.0000001
 44
0.0000000001
 40
0.0
 40
0.0
 40
0.0
 40
0.0
 40
0.2255151768
 40
0.4138346195
 40
0.5861957104
 40
0.774508822
 40
1.0
 40
1.0
 40
1.0
 40
1.0
 10
155.9705558903
 20
145.1337699936
 30
0.0
 10
156.0914761153
 20
145.2035829015
 30
0.0
 10
156.3003276805
 20
145.3595687745
 30
0.0
 10
156.4972275367
 20
145.6805036291
 30
0.0
 10
156.4972048231
 20
146.0388067407
 30
0.0
 10
156.3002910045
 20
146.3597058424
 30
0.0
 10
156.0914532819
 20
146.515675567
 30
0.0
 10
155.9705454216
 20
146.5854801737
 30
0.0
  0
SPLINE
  5
35B
100
AcDbEntity
  8
0
100
AcDbSpline
 62
7
  6
BYLAYER
 70
0
 71
3
 72
12
 73
8
 74
0
 42
0.0000001
 43
0.0000001
 44
0.0000000001
 40
0.0
 40
0.0
 40
0.0
 40
0.0
 40
0.1877173364
 40
0.3937447782
 40
0.6062954147
 40
0.8123077127
 40
1.0
 40
1.0
 40
1.0
 40
1.0
 10
91.3129705467
 20
109.2556347437
 30
0.0
 10
91.4543456788
 20
109.1740136199
 30
0.0
 10
91.7756542298
 20
109.0449418799
 30
0.0
 10
92.2971541524
 20
108.9507756842
 30
0.0
 10
92.8433525911
 20
108.9507858249
 30
0.0
 10
93.3648146162
 20
109.0449637599
 30
0.0
 10
93.6860866048
 20
109.1740295362
 30
0.0
 10
93.8274422832
 20
109.2556407878
 30
0.0
  0
SPLINE
  5
35C
100
AcDbEntity
  8
0
100
AcDbSpline
 62
7
  6
BYLAYER
 70
0
 71
3
 72
12
 73
8
 74
0
 42
0.0000001
 43
0.0000001
 44
0.0000000001
 40
0.0
 40
0.0
 40
0.0
 40
0.0
 40
0.2255151768
 40
0.4138346195
 40
0.5861957104
 40
0.774508822
 40
1.0
 40
1.0
 40
1.0
 40
1.0
 10
30.9653877176
 20
145.5482438646
 30
0.0
 10
30.8444674927
 20
145.4784309567
 30
0.0
 10
30.6356159275
 20
145.3224450837
 30
0.0
 10
30.4387160713
 20
145.001510229
 30
0.0
 10
30.4387387848
 20
144.6432071175
 30
0.0
 10
30.6356526035
 20
144.3223080157
 30
0.0
 10
30.8444903261
 20
144.1663382911
 30
0.0
 10
30.9653981864
 20
144.0965336844
 30
0.0
  0
SPLINE
  5
35D
100
AcDbEntity
  8
0
100
AcDbSpline
 62
7
  6
BYLAYER
 70
0
 71
3
 72
12
 73
8
 74
0
 42
0.0000001
 43
0.0000001
 44
0.0000000001
 40
0.0
 40
0.0
 40
0.0
 40
0.0
 40
0.1877173364
 40
0.3937447782
 40
0.6062954147
 40
0.8123077127
 40
1.0
 40
1.0
 40
1.0
 40
1.0
 10
95.6229730612
 20
181.4263791145
 30
0.0
 10
95.4815979292
 20
181.5080002382
 30
0.0
 10
95.1602893782
 20
181.6370719783
 30
0.0
 10
94.6387894555
 20
181.731238174
 30
0.0
 10
94.0925910168
 20
181.7312280332
 30
0.0
 10
93.5711289918
 20
181.6370500982
 30
0.0
 10
93.2498570031
 20
181.507984322
 30
0.0
 10
93.1085013247
 20
181.4263730704
 30
0.0
  0
SPLINE
  5
35E
100
AcDbEntity
  8
0
100
AcDbSpline
 62
7
  6
BYLAYER
 70
0
 71
3
 72
19
 73
15
 74
0
 42
0.0000001
 43
0.0000001
 44
0.0000000001
 40
0.0
 40
0.0
 40
0.0
 40
0.0
 40
0.0903086763
 40
0.1891076345
 40
0.2921287189
 40
0.3944961282
 40
0.4927479027
 40
0.582446831
 40
0.6612355444
 40
0.7293591303
 40
0.7903198038
 40
0.8516814139
 40
0.920470894
 40
1.0
 40
1.0
 40
1.0
 40
1.0
 10
47.9380960775
 20
142.178243196
 30
0.0
 10
47.5467133668
 20
141.9522796315
 30
0.0
 10
46.6701559764
 20
141.5756831898
 30
0.0
 10
45.2405462168
 20
141.2433421858
 30
0.0
 10
43.7165474867
 20
141.1308373023
 30
0.0
 10
42.1956432328
 20
141.2435550037
 30
0.0
 10
40.7741216493
 20
141.5732852951
 30
0.0
 10
39.5388955901
 20
142.1009406913
 30
0.0
 10
38.5667882818
 20
142.7976440464
 30
0.0
 10
37.9184997352
 20
143.6375701277
 30
0.0
 10
37.6729531797
 20
144.5924813485
 30
0.0
 10
37.8986748049
 20
145.5570408336
 30
0.0
 10
38.5433454063
 20
146.4124234186
 30
0.0
 10
39.1519543241
 20
146.8528295874
 30
0.0
 10
39.4966201786
 20
147.0518213235
 30
0.0
  0
SPLINE
  5
35F
100
AcDbEntity
  8
0
100
AcDbSpline
 62
7
  6
BYLAYER
 70
0
 71
3
 72
19
 73
15
 74
0
 42
0.0000001
 43
0.0000001
 44
0.0000000001
 40
0.0
 40
0.0
 40
0.0
 40
0.0
 40
0.0903086763
 40
0.1891076345
 40
0.2921287189
 40
0.3944961282
 40
0.4927479027
 40
0.582446831
 40
0.6612355444
 40
0.7293591303
 40
0.7903198038
 40
0.8516814139
 40
0.920470894
 40
1.0
 40
1.0
 40
1.0
 40
1.0
 10
39.4966201786
 20
147.0518213235
 30
0.0
 10
39.8880028893
 20
147.277784888
 30
0.0
 10
40.7645602797
 20
147.6543813297
 30
0.0
 10
42.1941700393
 20
147.9867223337
 30
0.0
 10
43.7181687693
 20
148.0992272172
 30
0.0
 10
45.2390730232
 20
147.9865095158
 30
0.0
 10
46.6605946068
 20
147.6567792244
 30
0.0
 10
47.895820666
 20
147.1291238282
 30
0.0
 10
48.8679279743
 20
146.4324204731
 30
0.0
 10
49.5162165209
 20
145.5924943918
 30
0.0
 10
49.7617630764
 20
144.637583171
 30
0.0
 10
49.5360414512
 20
143.6730236859
 30
0.0
 10
48.8913708498
 20
142.8176411009
 30
0.0
 10
48.282761932
 20
142.3772349321
 30
0.0
 10
47.9380960775
 20
142.178243196
 30
0.0
  0
SPLINE
  5
360
100
AcDbEntity
  8
0
100
AcDbSpline
 62
7
  6
BYLAYER
 70
0
 71
3
 72
19
 73
15
 74
0
 42
0.0000001
 43
0.0000001
 44
0.0000000001
 40
0.0
 40
0.0
 40
0.0
 40
0.0
 40
0.0903086763
 40
0.1891076345
 40
0.2921287189
 40
0.3944961282
 40
0.4927479027
 40
0.582446831
 40
0.6612355444
 40
0.7293591303
 40
0.7903198038
 40
0.8516814139
 40
0.920470894
 40
1.0
 40
1.0
 40
1.0
 40
1.0
 10
145.6432826738
 20
142.1784780504
 30
0.0
 10
145.2518999632
 20
141.9525144859
 30
0.0
 10
144.3753425728
 20
141.5759180442
 30
0.0
 10
142.9457328132
 20
141.2435770401
 30
0.0
 10
141.4217340831
 20
141.1310721567
 30
0.0
 10
139.9008298292
 20
141.243789858
 30
0.0
 10
138.4793082457
 20
141.5735201495
 30
0.0
 10
137.2440821865
 20
142.1011755457
 30
0.0
 10
136.2719748782
 20
142.7978789008
 30
0.0
 10
135.6236863316
 20
143.6378049821
 30
0.0
 10
135.3781397761
 20
144.5927162029
 30
0.0
 10
135.6038614013
 20
145.5572756879
 30
0.0
 10
136.2485320027
 20
146.412658273
 30
0.0
 10
136.8571409205
 20
146.8530644418
 30
0.0
 10
137.201806775
 20
147.0520561779
 30
0.0
  0
SPLINE
  5
361
100
AcDbEntity
  8
0
100
AcDbSpline
 62
7
  6
BYLAYER
 70
0
 71
3
 72
19
 73
15
 74
0
 42
0.0000001
 43
0.0000001
 44
0.0000000001
 40
0.0
 40
0.0
 40
0.0
 40
0.0
 40
0.0903086763
 40
0.1891076345
 40
0.2921287189
 40
0.3944961282
 40
0.4927479027
 40
0.582446831
 40
0.6612355444
 40
0.7293591303
 40
0.7903198038
 40
0.8516814139
 40
0.920470894
 40
1.0
 40
1.0
 40
1.0
 40
1.0
 10
137.201806775
 20
147.0520561779
 30
0.0
 10
137.5931894857
 20
147.2780197424
 30
0.0
 10
138.4697468761
 20
147.6546161841
 30
0.0
 10
139.8993566357
 20
147.9869571881
 30
0.0
 10
141.4233553657
 20
148.0994620716
 30
0.0
 10
142.9442596196
 20
147.9867443702
 30
0.0
 10
144.3657812032
 20
147.6570140787
 30
0.0
 10
145.6010072623
 20
147.1293586826
 30
0.0
 10
146.5731145707
 20
146.4326553275
 30
0.0
 10
147.2214031173
 20
145.5927292461
 30
0.0
 10
147.4669496727
 20
144.6378180253
 30
0.0
 10
147.2412280475
 20
143.6732585403
 30
0.0
 10
146.5965574462
 20
142.8178759552
 30
0.0
 10
145.9879485283
 20
142.3774697865
 30
0.0
 10
145.6432826738
 20
142.1784780504
 30
0.0
  0
SPLINE
  5
362
100
AcDbEntity
  8
0
100
AcDbSpline
 62
7
  6
BYLAYER
 70
0
 71
3
 72
11
 73
7
 74
0
 42
0.0000001
 43
0.0000001
 44
0.0000000001
 40
0.0
 40
0.0
 40
0.0
 40
0.0
 40
0.2392837223
 40
0.4999989081
 40
0.7607146786
 40
1.0
 40
1.0
 40
1.0
 40
1.0
 10
68.23361623
 20
115.3214982409
 30
0.0
 10
68.3236305705
 20
115.2695296125
 30
0.0
 10
68.4923585556
 20
115.1271160132
 30
0.0
 10
68.6886919329
 20
114.8583727369
 30
0.0
 10
68.8232654111
 20
114.5539713764
 30
0.0
 10
68.8622367843
 20
114.3366412601
 30
0.0
 10
68.8622367846
 20
114.2327015458
 30
0.0
  0
SPLINE
  5
363
100
AcDbEntity
  8
0
100
AcDbSpline
 62
7
  6
BYLAYER
 70
0
 71
3
 72
11
 73
7
 74
0
 42
0.0000001
 43
0.0000001
 44
0.0000000001
 40
0.0
 40
0.0
 40
0.0
 40
0.0
 40
0.2773267567
 40
0.500002049
 40
0.7226759822
 40
1.0
 40
1.0
 40
1.0
 40
1.0
 10
37.610815372
 20
132.2753099325
 30
0.0
 10
37.6108153722
 20
132.3608099514
 30
0.0
 10
37.63167805
 20
132.5187618233
 30
0.0
 10
37.7815914198
 20
132.705387962
 30
0.0
 10
38.0181695228
 20
132.7419096813
 30
0.0
 10
38.1653910507
 20
132.6810034175
 30
0.0
 10
38.2394359266
 20
132.6382545558
 30
0.0
  0
SPLINE
  5
364
100
AcDbEntity
  8
0
100
AcDbSpline
 62
7
  6
BYLAYER
 70
0
 71
3
 72
11
 73
7
 74
0
 42
0.0000001
 43
0.0000001
 44
0.0000000001
 40
0.0
 40
0.0
 40
0.0
 40
0.0
 40
0.2392837223
 40
0.4999989081
 40
0.7607146786
 40
1.0
 40
1.0
 40
1.0
 40
1.0
 10
38.2394359266
 20
96.5521137283
 30
0.0
 10
38.1494215861
 20
96.6040823566
 30
0.0
 10
37.980693601
 20
96.746495956
 30
0.0
 10
37.7843602237
 20
97.0152392323
 30
0.0
 10
37.6497867455
 20
97.3196405928
 30
0.0
 10
37.6108153723
 20
97.5369707091
 30
0.0
 10
37.610815372
 20
97.6409104234
 30
0.0
  0
SPLINE
  5
365
100
AcDbEntity
  8
0
100
AcDbSpline
 62
7
  6
BYLAYER
 70
0
 71
3
 72
11
 73
7
 74
0
 42
0.0000001
 43
0.0000001
 44
0.0000000001
 40
0.0
 40
0.0
 40
0.0
 40
0.0
 40
0.2773267567
 40
0.500002049
 40
0.7226759822
 40
1.0
 40
1.0
 40
1.0
 40
1.0
 10
68.8622367846
 20
79.5983020366
 30
0.0
 10
68.8622367844
 20
79.5128020178
 30
0.0
 10
68.8413741066
 20
79.3548501458
 30
0.0
 10
68.6914607368
 20
79.1682240072
 30
0.0
 10
68.4548826338
 20
79.1317022878
 30
0.0
 10
68.3076611059
 20
79.1926085517
 30
0.0
 10
68.23361623
 20
79.2353574134
 30
0.0
  0
SPLINE
  5
366
100
AcDbEntity
  8
0
100
AcDbSpline
 62
7
  6
BYLAYER
 70
0
 71
3
 72
21
 73
17
 74
0
 42
0.0000001
 43
0.0000001
 44
0.0000000001
 40
0.0
 40
0.0
 40
0.0
 40
0.0
 40
0.0685041205
 40
0.1287760745
 40
0.1825433197
 40
0.2335227536
 40
0.2872959498
 40
0.3475568926
 40
0.4159218051
 40
0.492285213
 40
0.5752822948
 40
0.6626233754
 40
0.7512635169
 40
0.8392207448
 40
0.9230452312
 40
1.0
 40
1.0
 40
1.0
 40
1.0
 10
81.0357250428
 20
79.9327515091
 30
0.0
 10
81.0357250428
 20
79.3228186241
 30
0.0
 10
80.932344875
 20
78.1707355645
 30
0.0
 10
80.3936087685
 20
76.6156640996
 30
0.0
 10
79.4805204439
 20
75.4238106169
 30
0.0
 10
78.2269772574
 20
74.6969243965
 30
0.0
 10
76.7388537005
 20
74.497270847
 30
0.0
 10
75.1227735693
 20
74.8047798133
 30
0.0
 10
73.4529424626
 20
75.5750488339
 30
0.0
 10
71.7977523397
 20
76.7631384158
 30
0.0
 10
70.2295324168
 20
78.3121789199
 30
0.0
 10
68.8225231196
 20
80.1474746002
 30
0.0
 10
67.6404481702
 20
82.1858243035
 30
0.0
 10
66.7419249701
 20
84.3309630838
 30
0.0
 10
66.1736590944
 20
86.4788524699
 30
0.0
 10
66.0283973475
 20
87.9118661539
 30
0.0
 10
66.0283973475
 20
88.5970401814
 30
0.0
  0
SPLINE
  5
367
100
AcDbEntity
  8
0
100
AcDbSpline
 62
7
  6
BYLAYER
 70
0
 71
3
 72
21
 73
17
 74
0
 42
0.0000001
 43
0.0000001
 44
0.0000000001
 40
0.0
 40
0.0
 40
0.0
 40
0.0
 40
0.0685041205
 40
0.1287760745
 40
0.1825433197
 40
0.2335227536
 40
0.2872959498
 40
0.3475568926
 40
0.4159218051
 40
0.492285213
 40
0.5752822948
 40
0.6626233754
 40
0.7512635169
 40
0.8392207448
 40
0.9230452312
 40
1.0
 40
1.0
 40
1.0
 40
1.0
 10
66.0283973475
 20
88.5970401814
 30
0.0
 10
66.0283973475
 20
89.2069730664
 30
0.0
 10
66.1317775153
 20
90.359056126
 30
0.0
 10
66.6705136218
 20
91.9141275909
 30
0.0
 10
67.5836019464
 20
93.1059810736
 30
0.0
 10
68.8371451329
 20
93.8328672939
 30
0.0
 10
70.3252686898
 20
94.0325208435
 30
0.0
 10
71.941348821
 20
93.7250118772
 30
0.0
 10
73.6111799278
 20
92.9547428566
 30
0.0
 10
75.2663700506
 20
91.7666532747
 30
0.0
 10
76.8345899736
 20
90.2176127706
 30
0.0
 10
78.2415992707
 20
88.3823170903
 30
0.0
 10
79.4236742202
 20
86.343967387
 30
0.0
 10
80.3221974202
 20
84.1988286067
 30
0.0
 10
80.890463296
 20
82.0509392206
 30
0.0
 10
81.0357250428
 20
80.6179255366
 30
0.0
 10
81.0357250428
 20
79.9327515091
 30
0.0
  0
SPLINE
  5
368
100
AcDbEntity
  8
0
100
AcDbSpline
 62
7
  6
BYLAYER
 70
0
 71
3
 72
21
 73
17
 74
0
 42
0.0000001
 43
0.0000001
 44
0.0000000001
 40
0.0
 40
0.0
 40
0.0
 40
0.0
 40
0.0684788707
 40
0.1287411203
 40
0.1825880967
 40
0.2339517029
 40
0.287798312
 40
0.3480599701
 40
0.4165381917
 40
0.4931106762
 40
0.5763041999
 40
0.6637867938
 40
0.752750163
 40
0.840232983
 40
0.9234269351
 40
1.0
 40
1.0
 40
1.0
 40
1.0
 10
81.0357162227
 20
81.1558428425
 30
0.0
 10
81.0357162227
 20
80.6322048776
 30
0.0
 10
80.9469875132
 20
79.6430266443
 30
0.0
 10
80.4843736319
 20
78.3071167291
 30
0.0
 10
79.6980369536
 20
77.280592908
 30
0.0
 10
78.6161643835
 20
76.6559806366
 30
0.0
 10
77.3340991481
 20
76.4881647612
 30
0.0
 10
75.9454786667
 20
76.7557023537
 30
0.0
 10
74.5103026273
 20
77.4208155338
 30
0.0
 10
73.0872153003
 20
78.4458503056
 30
0.0
 10
71.7395681276
 20
79.7813764005
 30
0.0
 10
70.5307220053
 20
81.3636224462
 30
0.0
 10
69.5188699567
 20
83.1161416131
 30
0.0
 10
68.7530227481
 20
84.9543430172
 30
0.0
 10
68.2702507805
 20
86.7885430125
 30
0.0
 10
68.1468839648
 20
88.0115133651
 30
0.0
 10
68.1468839648
 20
88.5970452736
 30
0.0
  0
SPLINE
  5
369
100
AcDbEntity
  8
0
100
AcDbSpline
 62
7
  6
BYLAYER
 70
0
 71
3
 72
21
 73
17
 74
0
 42
0.0000001
 43
0.0000001
 44
0.0000000001
 40
0.0
 40
0.0
 40
0.0
 40
0.0
 40
0.0684788707
 40
0.1287411203
 40
0.1825880967
 40
0.2339517029
 40
0.287798312
 40
0.3480599701
 40
0.4165381917
 40
0.4931106762
 40
0.5763041999
 40
0.6637867938
 40
0.752750163
 40
0.840232983
 40
0.9234269351
 40
1.0
 40
1.0
 40
1.0
 40
1.0
 10
68.1468839648
 20
88.5970452736
 30
0.0
 10
68.1468839648
 20
89.1206832384
 30
0.0
 10
68.2356126743
 20
90.1098614718
 30
0.0
 10
68.6982265556
 20
91.445771387
 30
0.0
 10
69.4845632339
 20
92.472295208
 30
0.0
 10
70.566435804
 20
93.0969074794
 30
0.0
 10
71.8485010394
 20
93.2647233548
 30
0.0
 10
73.2371215208
 20
92.9971857623
 30
0.0
 10
74.6722975602
 20
92.3320725822
 30
0.0
 10
76.0953848872
 20
91.3070378104
 30
0.0
 10
77.4430320599
 20
89.9715117155
 30
0.0
 10
78.6518781822
 20
88.3892656699
 30
0.0
 10
79.6637302308
 20
86.6367465029
 30
0.0
 10
80.4295774394
 20
84.7985450989
 30
0.0
 10
80.912349407
 20
82.9643451036
 30
0.0
 10
81.0357162227
 20
81.741374751
 30
0.0
 10
81.0357162227
 20
81.1558428425
 30
0.0
  0
SPLINE
  5
36A
100
AcDbEntity
  8
0
100
AcDbSpline
 62
7
  6
BYLAYER
 70
0
 71
3
 72
21
 73
17
 74
0
 42
0.0000001
 43
0.0000001
 44
0.0000000001
 40
0.0
 40
0.0
 40
0.0
 40
0.0
 40
0.0768857983
 40
0.1600843433
 40
0.2473549273
 40
0.3353122679
 40
0.4224622325
 40
0.505806295
 40
0.5825985849
 40
0.6512162327
 40
0.7115024988
 40
0.7652512651
 40
0.8163392598
 40
0.8703978928
 40
0.9310172053
 40
1.0
 40
1.0
 40
1.0
 40
1.0
 10
89.3069358468
 20
86.2381239416
 30
0.0
 10
89.3069358468
 20
86.801795958
 30
0.0
 10
89.1879497522
 20
87.9766566248
 30
0.0
 10
88.7239330576
 20
89.7356666714
 30
0.0
 10
87.9925710538
 20
91.4895623854
 30
0.0
 10
87.0291809176
 20
93.1603556592
 30
0.0
 10
85.8779444154
 20
94.6721916528
 30
0.0
 10
84.5883012005
 20
95.9554367006
 30
0.0
 10
83.2230412168
 20
96.9433734108
 30
0.0
 10
81.8461265321
 20
97.5856501122
 30
0.0
 10
80.5152810165
 20
97.8465445147
 30
0.0
 10
79.2882333777
 20
97.6920744387
 30
0.0
 10
78.24792536
 20
97.1017714215
 30
0.0
 10
77.4859974516
 20
96.1203188861
 30
0.0
 10
77.0359621174
 20
94.8329428807
 30
0.0
 10
76.9497100189
 20
93.8781430125
 30
0.0
 10
76.9497100189
 20
93.3724102006
 30
0.0
  0
SPLINE
  5
36B
100
AcDbEntity
  8
0
100
AcDbSpline
 62
7
  6
BYLAYER
 70
0
 71
3
 72
21
 73
17
 74
0
 42
0.0000001
 43
0.0000001
 44
0.0000000001
 40
0.0
 40
0.0
 40
0.0
 40
0.0
 40
0.0768857983
 40
0.1600843433
 40
0.2473549273
 40
0.3353122679
 40
0.4224622325
 40
0.505806295
 40
0.5825985849
 40
0.6512162327
 40
0.7115024988
 40
0.7652512651
 40
0.8163392598
 40
0.8703978928
 40
0.9310172053
 40
1.0
 40
1.0
 40
1.0
 40
1.0
 10
76.9497100189
 20
93.3724102006
 30
0.0
 10
76.9497100189
 20
92.8087381842
 30
0.0
 10
77.0686961135
 20
91.6338775175
 30
0.0
 10
77.5327128081
 20
89.8748674709
 30
0.0
 10
78.2640748119
 20
88.1209717568
 30
0.0
 10
79.227464948
 20
86.4501784831
 30
0.0
 10
80.3787014503
 20
84.9383424894
 30
0.0
 10
81.6683446652
 20
83.6550974416
 30
0.0
 10
83.0336046488
 20
82.6671607315
 30
0.0
 10
84.4105193336
 20
82.0248840301
 30
0.0
 10
85.7413648491
 20
81.7639896276
 30
0.0
 10
86.9684124879
 20
81.9184597035
 30
0.0
 10
88.0087205057
 20
82.5087627208
 30
0.0
 10
88.770648414
 20
83.4902152562
 30
0.0
 10
89.2206837483
 20
84.7775912616
 30
0.0
 10
89.3069358468
 20
85.7323911298
 30
0.0
 10
89.3069358468
 20
86.2381239416
 30
0.0
  0
SPLINE
  5
36C
100
AcDbEntity
  8
0
100
AcDbSpline
 62
7
  6
BYLAYER
 70
0
 71
3
 72
11
 73
7
 74
0
 42
0.0000001
 43
0.0000001
 44
0.0000000001
 40
0.0
 40
0.0
 40
0.0
 40
0.0
 40
0.2773240178
 40
0.499997951
 40
0.7226732433
 40
1.0
 40
1.0
 40
1.0
 40
1.0
 10
59.0378722478
 20
73.9262238411
 30
0.0
 10
59.1119171237
 20
73.8834749795
 30
0.0
 10
59.2591386516
 20
73.8225687156
 30
0.0
 10
59.4957167546
 20
73.8590904349
 30
0.0
 10
59.6456301244
 20
74.0457165736
 30
0.0
 10
59.6664928022
 20
74.2036684456
 30
0.0
 10
59.6664928024
 20
74.2891684644
 30
0.0
  0
SPLINE
  5
36D
100
AcDbEntity
  8
0
100
AcDbSpline
 62
7
  6
BYLAYER
 70
0
 71
3
 72
11
 73
7
 74
0
 42
0.0000001
 43
0.0000001
 44
0.0000000001
 40
0.0
 40
0.0
 40
0.0
 40
0.0
 40
0.2392853214
 40
0.5000010919
 40
0.7607162777
 40
1.0
 40
1.0
 40
1.0
 40
1.0
 10
28.4150713898
 20
92.3317768511
 30
0.0
 10
28.4150713901
 20
92.2278371368
 30
0.0
 10
28.4540427633
 20
92.0105070205
 30
0.0
 10
28.5886162415
 20
91.70610566
 30
0.0
 10
28.7849496188
 20
91.4373623837
 30
0.0
 10
28.9536776039
 20
91.2949487844
 30
0.0
 10
29.0436919444
 20
91.242980156
 30
0.0
  0
SPLINE
  5
36E
100
AcDbEntity
  8
0
100
AcDbSpline
 62
7
  6
BYLAYER
 70
0
 71
3
 72
11
 73
7
 74
0
 42
0.0000001
 43
0.0000001
 44
0.0000000001
 40
0.0
 40
0.0
 40
0.0
 40
0.0
 40
0.2773240178
 40
0.499997951
 40
0.7226732433
 40
1.0
 40
1.0
 40
1.0
 40
1.0
 10
29.0436919444
 20
127.3291209835
 30
0.0
 10
28.9696470685
 20
127.3718698452
 30
0.0
 10
28.8224255406
 20
127.4327761091
 30
0.0
 10
28.5858474376
 20
127.3962543897
 30
0.0
 10
28.4359340678
 20
127.2096282511
 30
0.0
 10
28.41507139
 20
127.0516763791
 30
0.0
 10
28.4150713898
 20
126.9661763603
 30
0.0
  0
SPLINE
  5
36F
100
AcDbEntity
  8
0
100
AcDbSpline
 62
7
  6
BYLAYER
 70
0
 71
3
 72
11
 73
7
 74
0
 42
0.0000001
 43
0.0000001
 44
0.0000000001
 40
0.0
 40
0.0
 40
0.0
 40
0.0
 40
0.2392853214
 40
0.5000010919
 40
0.7607162777
 40
1.0
 40
1.0
 40
1.0
 40
1.0
 10
59.6664928024
 20
108.9235679735
 30
0.0
 10
59.6664928021
 20
109.0275076878
 30
0.0
 10
59.6275214289
 20
109.2448378041
 30
0.0
 10
59.4929479507
 20
109.5492391646
 30
0.0
 10
59.2966145734
 20
109.8179824409
 30
0.0
 10
59.1278865883
 20
109.9603960403
 30
0.0
 10
59.0378722478
 20
110.0123646686
 30
0.0
  0
SPLINE
  5
370
100
AcDbEntity
  8
0
100
AcDbSpline
 62
7
  6
BYLAYER
 70
0
 71
3
 72
11
 73
7
 74
0
 42
0.0000001
 43
0.0000001
 44
0.0000000001
 40
0.0
 40
0.0
 40
0.0
 40
0.0
 40
0.2392837223
 40
0.4999989081
 40
0.7607146786
 40
1.0
 40
1.0
 40
1.0
 40
1.0
 10
58.8816151407
 20
109.9221470064
 30
0.0
 10
58.9716294812
 20
109.8701783781
 30
0.0
 10
59.1403574663
 20
109.7277647787
 30
0.0
 10
59.3366908437
 20
109.4590215024
 30
0.0
 10
59.4712643219
 20
109.1546201419
 30
0.0
 10
59.5102356951
 20
108.9372900256
 30
0.0
 10
59.5102356953
 20
108.8333503113
 30
0.0
  0
SPLINE
  5
371
100
AcDbEntity
  8
0
100
AcDbSpline
 62
7
  6
BYLAYER
 70
0
 71
3
 72
11
 73
7
 74
0
 42
0.0000001
 43
0.0000001
 44
0.0000000001
 40
0.0
 40
0.0
 40
0.0
 40
0.0
 40
0.2773267567
 40
0.500002049
 40
0.7226759822
 40
1.0
 40
1.0
 40
1.0
 40
1.0
 10
28.5713284969
 20
126.6955326142
 30
0.0
 10
28.5713284971
 20
126.781032633
 30
0.0
 10
28.5921911748
 20
126.938984505
 30
0.0
 10
28.7421045447
 20
127.1256106436
 30
0.0
 10
28.9786826477
 20
127.162132363
 30
0.0
 10
29.1259041756
 20
127.1012260991
 30
0.0
 10
29.1999490515
 20
127.0584772374
 30
0.0
  0
SPLINE
  5
372
100
AcDbEntity
  8
0
100
AcDbSpline
 62
7
  6
BYLAYER
 70
0
 71
3
 72
11
 73
7
 74
0
 42
0.0000001
 43
0.0000001
 44
0.0000000001
 40
0.0
 40
0.0
 40
0.0
 40
0.0
 40
0.2392837223
 40
0.4999989081
 40
0.7607146786
 40
1.0
 40
1.0
 40
1.0
 40
1.0
 10
29.1999490515
 20
91.3331978182
 30
0.0
 10
29.109934711
 20
91.3851664466
 30
0.0
 10
28.9412067259
 20
91.5275800459
 30
0.0
 10
28.7448733485
 20
91.7963233222
 30
0.0
 10
28.6102998704
 20
92.1007246827
 30
0.0
 10
28.5713284971
 20
92.318054799
 30
0.0
 10
28.5713284969
 20
92.4219945133
 30
0.0
  0
SPLINE
  5
373
100
AcDbEntity
  8
0
100
AcDbSpline
 62
7
  6
BYLAYER
 70
0
 71
3
 72
11
 73
7
 74
0
 42
0.0000001
 43
0.0000001
 44
0.0000000001
 40
0.0
 40
0.0
 40
0.0
 40
0.0
 40
0.2773267567
 40
0.500002049
 40
0.7226759822
 40
1.0
 40
1.0
 40
1.0
 40
1.0
 10
59.5102356953
 20
74.5598122104
 30
0.0
 10
59.5102356951
 20
74.4743121916
 30
0.0
 10
59.4893730174
 20
74.3163603196
 30
0.0
 10
59.3394596475
 20
74.129734181
 30
0.0
 10
59.1028815445
 20
74.0932124616
 30
0.0
 10
58.9556600166
 20
74.1541187255
 30
0.0
 10
58.8816151407
 20
74.1968675872
 30
0.0
  0
SPLINE
  5
374
100
AcDbEntity
  8
0
100
AcDbSpline
 62
7
  6
BYLAYER
 70
0
 71
3
 72
11
 73
7
 74
0
 42
0.0000001
 43
0.0000001
 44
0.0000000001
 40
0.0
 40
0.0
 40
0.0
 40
0.0
 40
0.2773240178
 40
0.499997951
 40
0.7226732433
 40
1.0
 40
1.0
 40
1.0
 40
1.0
 10
54.2837431496
 20
71.5423008011
 30
0.0
 10
54.3577880255
 20
71.4995519394
 30
0.0
 10
54.5050095534
 20
71.4386456755
 30
0.0
 10
54.7415876564
 20
71.4751673949
 30
0.0
 10
54.8915010263
 20
71.6617935335
 30
0.0
 10
54.912363704
 20
71.8197454055
 30
0.0
 10
54.9123637042
 20
71.9052454243
 30
0.0
  0
SPLINE
  5
375
100
AcDbEntity
  8
0
100
AcDbSpline
 62
7
  6
BYLAYER
 70
0
 71
3
 72
11
 73
7
 74
0
 42
0.0000001
 43
0.0000001
 44
0.0000000001
 40
0.0
 40
0.0
 40
0.0
 40
0.0
 40
0.2392853214
 40
0.5000010919
 40
0.7607162777
 40
1.0
 40
1.0
 40
1.0
 40
1.0
 10
23.9734565058
 20
89.7674277272
 30
0.0
 10
23.973456506
 20
89.6634880129
 30
0.0
 10
24.0124278793
 20
89.4461578966
 30
0.0
 10
24.1470013574
 20
89.1417565361
 30
0.0
 10
24.3433347348
 20
88.8730132598
 30
0.0
 10
24.5120627199
 20
88.7305996604
 30
0.0
 10
24.6020770604
 20
88.6786310321
 30
0.0
  0
SPLINE
  5
376
100
AcDbEntity
  8
0
100
AcDbSpline
 62
7
  6
BYLAYER
 70
0
 71
3
 72
11
 73
7
 74
0
 42
0.0000001
 43
0.0000001
 44
0.0000000001
 40
0.0
 40
0.0
 40
0.0
 40
0.0
 40
0.2773240178
 40
0.499997951
 40
0.7226732433
 40
1.0
 40
1.0
 40
1.0
 40
1.0
 10
24.6020770604
 20
124.4039104513
 30
0.0
 10
24.5280321845
 20
124.446659313
 30
0.0
 10
24.3808106566
 20
124.5075655769
 30
0.0
 10
24.1442325536
 20
124.4710438575
 30
0.0
 10
23.9943191837
 20
124.2844177189
 30
0.0
 10
23.973456506
 20
124.1264658469
 30
0.0
 10
23.9734565058
 20
124.0409658281
 30
0.0
  0
SPLINE
  5
377
100
AcDbEntity
  8
0
100
AcDbSpline
 62
7
  6
BYLAYER
 70
0
 71
3
 72
11
 73
7
 74
0
 42
0.0000001
 43
0.0000001
 44
0.0000000001
 40
0.0
 40
0.0
 40
0.0
 40
0.0
 40
0.2392853214
 40
0.5000010919
 40
0.7607162777
 40
1.0
 40
1.0
 40
1.0
 40
1.0
 10
54.9123637042
 20
106.1787835252
 30
0.0
 10
54.912363704
 20
106.2827232395
 30
0.0
 10
54.8733923308
 20
106.5000533558
 30
0.0
 10
54.7388188526
 20
106.8044547163
 30
0.0
 10
54.5424854752
 20
107.0731979926
 30
0.0
 10
54.3737574901
 20
107.2156115919
 30
0.0
 10
54.2837431496
 20
107.2675802203
 30
0.0
  0
SPLINE
  5
378
100
AcDbEntity
  8
0
100
AcDbSpline
 62
7
  6
BYLAYER
 70
0
 71
3
 72
18
 73
14
 74
0
 42
0.0000001
 43
0.0000001
 44
0.0000000001
 40
0.0
 40
0.0
 40
0.0
 40
0.0
 40
0.0859673236
 40
0.1587978638
 40
0.2239998282
 40
0.291720921
 40
0.3704768865
 40
0.4624687028
 40
0.5663514359
 40
0.6775272635
 40
0.790825354
 40
0.9004391394
 40
1.0
 40
1.0
 40
1.0
 40
1.0
 10
51.8357151479
 20
101.8100337019
 30
0.0
 10
51.8357151479
 20
101.5172792934
 30
0.0
 10
51.7754703811
 20
100.9720341052
 30
0.0
 10
51.4402080642
 20
100.2640460733
 30
0.0
 10
50.86176977
 20
99.8170613544
 30
0.0
 10
50.1215543692
 20
99.7122790914
 30
0.0
 10
49.3224259961
 20
99.9245654915
 30
0.0
 10
48.511575913
 20
100.4076607246
 30
0.0
 10
47.7402646912
 20
101.1229714675
 30
0.0
 10
47.0620675105
 20
102.0184028319
 30
0.0
 10
46.5279323817
 20
103.0288029921
 30
0.0
 10
46.1810358931
 20
104.0760295818
 30
0.0
 10
46.0883273019
 20
104.7891685121
 30
0.0
 10
46.0883273019
 20
105.1282145546
 30
0.0
  0
SPLINE
  5
379
100
AcDbEntity
  8
0
100
AcDbSpline
 62
7
  6
BYLAYER
 70
0
 71
3
 72
18
 73
14
 74
0
 42
0.0000001
 43
0.0000001
 44
0.0000000001
 40
0.0
 40
0.0
 40
0.0
 40
0.0
 40
0.0859673236
 40
0.1587978638
 40
0.2239998282
 40
0.291720921
 40
0.3704768865
 40
0.4624687028
 40
0.5663514359
 40
0.6775272635
 40
0.790825354
 40
0.9004391394
 40
1.0
 40
1.0
 40
1.0
 40
1.0
 10
46.0883273019
 20
105.1282145546
 30
0.0
 10
46.0883273019
 20
105.4209689631
 30
0.0
 10
46.1485720687
 20
105.9662141513
 30
0.0
 10
46.4838343857
 20
106.6742021832
 30
0.0
 10
47.0622726799
 20
107.121186902
 30
0.0
 10
47.8024880806
 20
107.2259691651
 30
0.0
 10
48.6016164538
 20
107.013682765
 30
0.0
 10
49.4124665368
 20
106.5305875319
 30
0.0
 10
50.1837777587
 20
105.8152767889
 30
0.0
 10
50.8619749394
 20
104.9198454245
 30
0.0
 10
51.3961100681
 20
103.9094452644
 30
0.0
 10
51.7430065567
 20
102.8622186747
 30
0.0
 10
51.8357151479
 20
102.1490797444
 30
0.0
 10
51.8357151479
 20
101.8100337019
 30
0.0
  0
SPLINE
  5
37A
100
AcDbEntity
  8
0
100
AcDbSpline
 62
7
  6
BYLAYER
 70
0
 71
3
 72
18
 73
14
 74
0
 42
0.0000001
 43
0.0000001
 44
0.0000000001
 40
0.0
 40
0.0
 40
0.0
 40
0.0
 40
0.0859673236
 40
0.1587978638
 40
0.2239998282
 40
0.291720921
 40
0.3704768865
 40
0.4624687028
 40
0.5663514359
 40
0.6775272635
 40
0.790825354
 40
0.9004391394
 40
1.0
 40
1.0
 40
1.0
 40
1.0
 10
51.8357151479
 20
79.8265226231
 30
0.0
 10
51.8357151479
 20
79.5337682146
 30
0.0
 10
51.7754703811
 20
78.9885230264
 30
0.0
 10
51.4402080642
 20
78.2805349945
 30
0.0
 10
50.86176977
 20
77.8335502756
 30
0.0
 10
50.1215543692
 20
77.7287680126
 30
0.0
 10
49.3224259961
 20
77.9410544127
 30
0.0
 10
48.511575913
 20
78.4241496458
 30
0.0
 10
47.7402646912
 20
79.1394603887
 30
0.0
 10
47.0620675105
 20
80.0348917531
 30
0.0
 10
46.5279323817
 20
81.0452919133
 30
0.0
 10
46.1810358931
 20
82.092518503
 30
0.0
 10
46.0883273019
 20
82.8056574333
 30
0.0
 10
46.0883273019
 20
83.1447034758
 30
0.0
  0
SPLINE
  5
37B
100
AcDbEntity
  8
0
100
AcDbSpline
 62
7
  6
BYLAYER
 70
0
 71
3
 72
18
 73
14
 74
0
 42
0.0000001
 43
0.0000001
 44
0.0000000001
 40
0.0
 40
0.0
 40
0.0
 40
0.0
 40
0.0859673236
 40
0.1587978638
 40
0.2239998282
 40
0.291720921
 40
0.3704768865
 40
0.4624687028
 40
0.5663514359
 40
0.6775272635
 40
0.790825354
 40
0.9004391394
 40
1.0
 40
1.0
 40
1.0
 40
1.0
 10
46.0883273019
 20
83.1447034758
 30
0.0
 10
46.0883273019
 20
83.4374578843
 30
0.0
 10
46.1485720687
 20
83.9827030725
 30
0.0
 10
46.4838343857
 20
84.6906911044
 30
0.0
 10
47.0622726799
 20
85.1376758232
 30
0.0
 10
47.8024880806
 20
85.2424580863
 30
0.0
 10
48.6016164538
 20
85.0301716862
 30
0.0
 10
49.4124665368
 20
84.5470764531
 30
0.0
 10
50.1837777587
 20
83.8317657101
 30
0.0
 10
50.8619749394
 20
82.9363343457
 30
0.0
 10
51.3961100681
 20
81.9259341856
 30
0.0
 10
51.7430065567
 20
80.8787075959
 30
0.0
 10
51.8357151479
 20
80.1655686656
 30
0.0
 10
51.8357151479
 20
79.8265226231
 30
0.0
  0
SPLINE
  5
37C
100
AcDbEntity
  8
0
100
AcDbSpline
 62
7
  6
BYLAYER
 70
0
 71
3
 72
18
 73
14
 74
0
 42
0.0000001
 43
0.0000001
 44
0.0000000001
 40
0.0
 40
0.0
 40
0.0
 40
0.0
 40
0.0859673236
 40
0.1587978638
 40
0.2239998282
 40
0.291720921
 40
0.3704768865
 40
0.4624687028
 40
0.5663514359
 40
0.6775272635
 40
0.790825354
 40
0.9004391394
 40
1.0
 40
1.0
 40
1.0
 40
1.0
 10
32.7974929081
 20
112.8015077766
 30
0.0
 10
32.7974929081
 20
112.5087533681
 30
0.0
 10
32.7372481413
 20
111.9635081799
 30
0.0
 10
32.4019858243
 20
111.255520148
 30
0.0
 10
31.8235475302
 20
110.8085354292
 30
0.0
 10
31.0833321294
 20
110.7037531661
 30
0.0
 10
30.2842037562
 20
110.9160395662
 30
0.0
 10
29.4733536732
 20
111.3991347993
 30
0.0
 10
28.7020424513
 20
112.1144455422
 30
0.0
 10
28.0238452707
 20
113.0098769066
 30
0.0
 10
27.4897101419
 20
114.0202770668
 30
0.0
 10
27.1428136533
 20
115.0675036565
 30
0.0
 10
27.0501050621
 20
115.7806425868
 30
0.0
 10
27.0501050621
 20
116.1196886293
 30
0.0
  0
SPLINE
  5
37D
100
AcDbEntity
  8
0
100
AcDbSpline
 62
7
  6
BYLAYER
 70
0
 71
3
 72
18
 73
14
 74
0
 42
0.0000001
 43
0.0000001
 44
0.0000000001
 40
0.0
 40
0.0
 40
0.0
 40
0.0
 40
0.0859673236
 40
0.1587978638
 40
0.2239998282
 40
0.291720921
 40
0.3704768865
 40
0.4624687028
 40
0.5663514359
 40
0.6775272635
 40
0.790825354
 40
0.9004391394
 40
1.0
 40
1.0
 40
1.0
 40
1.0
 10
27.0501050621
 20
116.1196886293
 30
0.0
 10
27.0501050621
 20
116.4124430378
 30
0.0
 10
27.1103498289
 20
116.957688226
 30
0.0
 10
27.4456121458
 20
117.6656762579
 30
0.0
 10
28.02405044
 20
118.1126609767
 30
0.0
 10
28.7642658408
 20
118.2174432398
 30
0.0
 10
29.5633942139
 20
118.0051568397
 30
0.0
 10
30.374244297
 20
117.5220616066
 30
0.0
 10
31.1455555188
 20
116.8067508636
 30
0.0
 10
31.8237526995
 20
115.9113194992
 30
0.0
 10
32.3578878283
 20
114.9009193391
 30
0.0
 10
32.7047843169
 20
113.8536927494
 30
0.0
 10
32.7974929081
 20
113.1405538191
 30
0.0
 10
32.7974929081
 20
112.8015077766
 30
0.0
  0
SPLINE
  5
37E
100
AcDbEntity
  8
0
100
AcDbSpline
 62
7
  6
BYLAYER
 70
0
 71
3
 72
18
 73
14
 74
0
 42
0.0000001
 43
0.0000001
 44
0.0000000001
 40
0.0
 40
0.0
 40
0.0
 40
0.0
 40
0.0859673236
 40
0.1587978638
 40
0.2239998282
 40
0.291720921
 40
0.3704768865
 40
0.4624687028
 40
0.5663514359
 40
0.6775272635
 40
0.790825354
 40
0.9004391394
 40
1.0
 40
1.0
 40
1.0
 40
1.0
 10
32.7974929081
 20
90.8179966978
 30
0.0
 10
32.7974929081
 20
90.5252422893
 30
0.0
 10
32.7372481413
 20
89.9799971011
 30
0.0
 10
32.4019858243
 20
89.2720090692
 30
0.0
 10
31.8235475302
 20
88.8250243504
 30
0.0
 10
31.0833321294
 20
88.7202420873
 30
0.0
 10
30.2842037562
 20
88.9325284874
 30
0.0
 10
29.4733536732
 20
89.4156237205
 30
0.0
 10
28.7020424513
 20
90.1309344634
 30
0.0
 10
28.0238452707
 20
91.0263658278
 30
0.0
 10
27.4897101419
 20
92.036765988
 30
0.0
 10
27.1428136533
 20
93.0839925777
 30
0.0
 10
27.0501050621
 20
93.797131508
 30
0.0
 10
27.0501050621
 20
94.1361775505
 30
0.0
  0
SPLINE
  5
37F
100
AcDbEntity
  8
0
100
AcDbSpline
 62
7
  6
BYLAYER
 70
0
 71
3
 72
18
 73
14
 74
0
 42
0.0000001
 43
0.0000001
 44
0.0000000001
 40
0.0
 40
0.0
 40
0.0
 40
0.0
 40
0.0859673236
 40
0.1587978638
 40
0.2239998282
 40
0.291720921
 40
0.3704768865
 40
0.4624687028
 40
0.5663514359
 40
0.6775272635
 40
0.790825354
 40
0.9004391394
 40
1.0
 40
1.0
 40
1.0
 40
1.0
 10
27.0501050621
 20
94.1361775505
 30
0.0
 10
27.0501050621
 20
94.428931959
 30
0.0
 10
27.1103498289
 20
94.9741771472
 30
0.0
 10
27.4456121458
 20
95.6821651791
 30
0.0
 10
28.02405044
 20
96.1291498979
 30
0.0
 10
28.7642658408
 20
96.233932161
 30
0.0
 10
29.5633942139
 20
96.0216457609
 30
0.0
 10
30.374244297
 20
95.5385505278
 30
0.0
 10
31.1455555188
 20
94.8232397848
 30
0.0
 10
31.8237526995
 20
93.9278084204
 30
0.0
 10
32.3578878283
 20
92.9174082603
 30
0.0
 10
32.7047843169
 20
91.8701816706
 30
0.0
 10
32.7974929081
 20
91.1570427403
 30
0.0
 10
32.7974929081
 20
90.8179966978
 30
0.0
  0
SPLINE
  5
380
100
AcDbEntity
  8
0
100
AcDbSpline
 62
7
  6
BYLAYER
 70
0
 71
3
 72
18
 73
14
 74
0
 42
0.0000001
 43
0.0000001
 44
0.0000000001
 40
0.0
 40
0.0
 40
0.0
 40
0.0
 40
0.0991163509
 40
0.2075809399
 40
0.3197478553
 40
0.4305139539
 40
0.5347609617
 40
0.6271263053
 40
0.7061949729
 40
0.7744420012
 40
0.8402385287
 40
0.9136950731
 40
1.0
 40
1.0
 40
1.0
 40
1.0
 10
42.6399233086
 20
103.137289465
 30
0.0
 10
42.6399233086
 20
102.7997648045
 30
0.0
 10
42.7315236004
 20
102.0920693973
 30
0.0
 10
43.0736410769
 20
101.0532110603
 30
0.0
 10
43.6002911576
 20
100.0494008405
 30
0.0
 10
44.2721051388
 20
99.1543184096
 30
0.0
 10
45.0403010012
 20
98.4341420455
 30
0.0
 10
45.8508983693
 20
97.9438379772
 30
0.0
 10
46.6516205271
 20
97.7230950239
 30
0.0
 10
47.3980869526
 20
97.8189162329
 30
0.0
 10
47.9864894669
 20
98.2642268722
 30
0.0
 10
48.3265143373
 20
98.9766807206
 30
0.0
 10
48.3873111546
 20
99.5252111788
 30
0.0
 10
48.3873111546
 20
99.8191086123
 30
0.0
  0
SPLINE
  5
381
100
AcDbEntity
  8
0
100
AcDbSpline
 62
7
  6
BYLAYER
 70
0
 71
3
 72
18
 73
14
 74
0
 42
0.0000001
 43
0.0000001
 44
0.0000000001
 40
0.0
 40
0.0
 40
0.0
 40
0.0
 40
0.0991163509
 40
0.2075809399
 40
0.3197478553
 40
0.4305139539
 40
0.5347609617
 40
0.6271263053
 40
0.7061949729
 40
0.7744420012
 40
0.8402385287
 40
0.9136950731
 40
1.0
 40
1.0
 40
1.0
 40
1.0
 10
48.3873111546
 20
99.8191086123
 30
0.0
 10
48.3873111546
 20
100.1566332727
 30
0.0
 10
48.2957108629
 20
100.8643286799
 30
0.0
 10
47.9535933864
 20
101.903187017
 30
0.0
 10
47.4269433057
 20
102.9069972367
 30
0.0
 10
46.7551293245
 20
103.8020796677
 30
0.0
 10
45.9869334621
 20
104.5222560318
 30
0.0
 10
45.1763360939
 20
105.0125601001
 30
0.0
 10
44.3756139362
 20
105.2333030534
 30
0.0
 10
43.6291475106
 20
105.1374818443
 30
0.0
 10
43.0407449963
 20
104.692171205
 30
0.0
 10
42.7007201259
 20
103.9797173566
 30
0.0
 10
42.6399233086
 20
103.4311868985
 30
0.0
 10
42.6399233086
 20
103.137289465
 30
0.0
  0
SPLINE
  5
382
100
AcDbEntity
  8
0
100
AcDbSpline
 62
7
  6
BYLAYER
 70
0
 71
3
 72
18
 73
14
 74
0
 42
0.0000001
 43
0.0000001
 44
0.0000000001
 40
0.0
 40
0.0
 40
0.0
 40
0.0
 40
0.0991163509
 40
0.2075809399
 40
0.3197478553
 40
0.4305139539
 40
0.5347609617
 40
0.6271263053
 40
0.7061949729
 40
0.7744420012
 40
0.8402385287
 40
0.9136950731
 40
1.0
 40
1.0
 40
1.0
 40
1.0
 10
42.6399233086
 20
81.1537783862
 30
0.0
 10
42.6399233086
 20
80.8162537257
 30
0.0
 10
42.7315236004
 20
80.1085583185
 30
0.0
 10
43.0736410769
 20
79.0696999815
 30
0.0
 10
43.6002911576
 20
78.0658897618
 30
0.0
 10
44.2721051388
 20
77.1708073308
 30
0.0
 10
45.0403010012
 20
76.4506309667
 30
0.0
 10
45.8508983693
 20
75.9603268984
 30
0.0
 10
46.6516205271
 20
75.7395839451
 30
0.0
 10
47.3980869526
 20
75.8354051541
 30
0.0
 10
47.9864894669
 20
76.2807157934
 30
0.0
 10
48.3265143373
 20
76.9931696418
 30
0.0
 10
48.3873111546
 20
77.5417001
 30
0.0
 10
48.3873111546
 20
77.8355975335
 30
0.0
  0
SPLINE
  5
383
100
AcDbEntity
  8
0
100
AcDbSpline
 62
7
  6
BYLAYER
 70
0
 71
3
 72
18
 73
14
 74
0
 42
0.0000001
 43
0.0000001
 44
0.0000000001
 40
0.0
 40
0.0
 40
0.0
 40
0.0
 40
0.0991163509
 40
0.2075809399
 40
0.3197478553
 40
0.4305139539
 40
0.5347609617
 40
0.6271263053
 40
0.7061949729
 40
0.7744420012
 40
0.8402385287
 40
0.9136950731
 40
1.0
 40
1.0
 40
1.0
 40
1.0
 10
48.3873111546
 20
77.8355975335
 30
0.0
 10
48.3873111546
 20
78.1731221939
 30
0.0
 10
48.2957108629
 20
78.8808176011
 30
0.0
 10
47.9535933864
 20
79.9196759382
 30
0.0
 10
47.4269433057
 20
80.9234861579
 30
0.0
 10
46.7551293245
 20
81.8185685889
 30
0.0
 10
45.9869334621
 20
82.538744953
 30
0.0
 10
45.1763360939
 20
83.0290490213
 30
0.0
 10
44.3756139362
 20
83.2497919746
 30
0.0
 10
43.6291475106
 20
83.1539707655
 30
0.0
 10
43.0407449963
 20
82.7086601262
 30
0.0
 10
42.7007201259
 20
81.9962062778
 30
0.0
 10
42.6399233086
 20
81.4476758197
 30
0.0
 10
42.6399233086
 20
81.1537783862
 30
0.0
  0
SPLINE
  5
384
100
AcDbEntity
  8
0
100
AcDbSpline
 62
7
  6
BYLAYER
 70
0
 71
3
 72
18
 73
14
 74
0
 42
0.0000001
 43
0.0000001
 44
0.0000000001
 40
0.0
 40
0.0
 40
0.0
 40
0.0
 40
0.0991163509
 40
0.2075809399
 40
0.3197478553
 40
0.4305139539
 40
0.5347609617
 40
0.6271263053
 40
0.7061949729
 40
0.7744420012
 40
0.8402385287
 40
0.9136950731
 40
1.0
 40
1.0
 40
1.0
 40
1.0
 10
23.6017010688
 20
114.1287635397
 30
0.0
 10
23.6017010688
 20
113.7912388792
 30
0.0
 10
23.6933013605
 20
113.083543472
 30
0.0
 10
24.035418837
 20
112.044685135
 30
0.0
 10
24.5620689177
 20
111.0408749153
 30
0.0
 10
25.2338828989
 20
110.1457924843
 30
0.0
 10
26.0020787613
 20
109.4256161202
 30
0.0
 10
26.8126761295
 20
108.9353120519
 30
0.0
 10
27.6133982872
 20
108.7145690986
 30
0.0
 10
28.3598647127
 20
108.8103903076
 30
0.0
 10
28.948267227
 20
109.2557009469
 30
0.0
 10
29.2882920975
 20
109.9681547953
 30
0.0
 10
29.3490889148
 20
110.5166852535
 30
0.0
 10
29.3490889148
 20
110.810582687
 30
0.0
  0
SPLINE
  5
385
100
AcDbEntity
  8
0
100
AcDbSpline
 62
7
  6
BYLAYER
 70
0
 71
3
 72
18
 73
14
 74
0
 42
0.0000001
 43
0.0000001
 44
0.0000000001
 40
0.0
 40
0.0
 40
0.0
 40
0.0
 40
0.0991163509
 40
0.2075809399
 40
0.3197478553
 40
0.4305139539
 40
0.5347609617
 40
0.6271263053
 40
0.7061949729
 40
0.7744420012
 40
0.8402385287
 40
0.9136950731
 40
1.0
 40
1.0
 40
1.0
 40
1.0
 10
29.3490889148
 20
110.810582687
 30
0.0
 10
29.3490889148
 20
111.1481073474
 30
0.0
 10
29.257488623
 20
111.8558027546
 30
0.0
 10
28.9153711465
 20
112.8946610917
 30
0.0
 10
28.3887210658
 20
113.8984713114
 30
0.0
 10
27.7169070846
 20
114.7935537424
 30
0.0
 10
26.9487112222
 20
115.5137301065
 30
0.0
 10
26.1381138541
 20
116.0040341748
 30
0.0
 10
25.3373916963
 20
116.2247771281
 30
0.0
 10
24.5909252708
 20
116.128955919
 30
0.0
 10
24.0025227565
 20
115.6836452797
 30
0.0
 10
23.662497886
 20
114.9711914313
 30
0.0
 10
23.6017010688
 20
114.4226609732
 30
0.0
 10
23.6017010688
 20
114.1287635397
 30
0.0
  0
SPLINE
  5
386
100
AcDbEntity
  8
0
100
AcDbSpline
 62
7
  6
BYLAYER
 70
0
 71
3
 72
18
 73
14
 74
0
 42
0.0000001
 43
0.0000001
 44
0.0000000001
 40
0.0
 40
0.0
 40
0.0
 40
0.0
 40
0.0991163509
 40
0.2075809399
 40
0.3197478553
 40
0.4305139539
 40
0.5347609617
 40
0.6271263053
 40
0.7061949729
 40
0.7744420012
 40
0.8402385287
 40
0.9136950731
 40
1.0
 40
1.0
 40
1.0
 40
1.0
 10
23.6017010688
 20
92.1452524609
 30
0.0
 10
23.6017010688
 20
91.8077278004
 30
0.0
 10
23.6933013605
 20
91.1000323933
 30
0.0
 10
24.035418837
 20
90.0611740562
 30
0.0
 10
24.5620689177
 20
89.0573638365
 30
0.0
 10
25.2338828989
 20
88.1622814055
 30
0.0
 10
26.0020787613
 20
87.4421050414
 30
0.0
 10
26.8126761295
 20
86.9518009731
 30
0.0
 10
27.6133982872
 20
86.7310580198
 30
0.0
 10
28.3598647127
 20
86.8268792288
 30
0.0
 10
28.948267227
 20
87.2721898681
 30
0.0
 10
29.2882920975
 20
87.9846437165
 30
0.0
 10
29.3490889148
 20
88.5331741747
 30
0.0
 10
29.3490889148
 20
88.8270716082
 30
0.0
  0
SPLINE
  5
387
100
AcDbEntity
  8
0
100
AcDbSpline
 62
7
  6
BYLAYER
 70
0
 71
3
 72
18
 73
14
 74
0
 42
0.0000001
 43
0.0000001
 44
0.0000000001
 40
0.0
 40
0.0
 40
0.0
 40
0.0
 40
0.0991163509
 40
0.2075809399
 40
0.3197478553
 40
0.4305139539
 40
0.5347609617
 40
0.6271263053
 40
0.7061949729
 40
0.7744420012
 40
0.8402385287
 40
0.9136950731
 40
1.0
 40
1.0
 40
1.0
 40
1.0
 10
29.3490889148
 20
88.8270716082
 30
0.0
 10
29.3490889148
 20
89.1645962686
 30
0.0
 10
29.257488623
 20
89.8722916758
 30
0.0
 10
28.9153711465
 20
90.9111500129
 30
0.0
 10
28.3887210658
 20
91.9149602326
 30
0.0
 10
27.7169070846
 20
92.8100426636
 30
0.0
 10
26.9487112222
 20
93.5302190277
 30
0.0
 10
26.1381138541
 20
94.020523096
 30
0.0
 10
25.3373916963
 20
94.2412660493
 30
0.0
 10
24.5909252708
 20
94.1454448403
 30
0.0
 10
24.0025227565
 20
93.7001342009
 30
0.0
 10
23.662497886
 20
92.9876803525
 30
0.0
 10
23.6017010688
 20
92.4391498944
 30
0.0
 10
23.6017010688
 20
92.1452524609
 30
0.0
  0
SPLINE
  5
388
100
AcDbEntity
  8
0
100
AcDbSpline
 62
7
  6
BYLAYER
 70
0
 71
3
 72
19
 73
15
 74
0
 42
0.0000001
 43
0.0000001
 44
0.0000000001
 40
0.0
 40
0.0
 40
0.0
 40
0.0
 40
0.0792601442
 40
0.1474852124
 40
0.2082948329
 40
0.268729639
 40
0.3365192733
 40
0.4150221652
 40
0.5043418083
 40
0.6024348472
 40
0.7054381462
 40
0.8095552488
 40
0.9093454948
 40
1.0
 40
1.0
 40
1.0
 40
1.0
 10
39.4966201786
 20
135.6452825562
 30
0.0
 10
39.1531134041
 20
135.4469600113
 30
0.0
 10
38.5477835379
 20
135.0092177525
 30
0.0
 10
37.9056982455
 20
134.161455529
 30
0.0
 10
37.6742096639
 20
133.2079140951
 30
0.0
 10
37.9058033146
 20
132.2572640168
 30
0.0
 10
38.5418459569
 20
131.4147119362
 30
0.0
 10
39.5047585106
 20
130.7134769611
 30
0.0
 10
40.7331242838
 20
130.1800910421
 30
0.0
 10
42.153547784
 20
129.8431459835
 30
0.0
 10
43.6819895702
 20
129.7237188644
 30
0.0
 10
45.2200765844
 20
129.8329751792
 30
0.0
 10
46.6622279942
 20
130.1659739621
 30
0.0
 10
47.5452071038
 20
130.544871228
 30
0.0
 10
47.9380960775
 20
130.7717044287
 30
0.0
  0
SPLINE
  5
389
100
AcDbEntity
  8
0
100
AcDbSpline
 62
7
  6
BYLAYER
 70
0
 71
3
 72
19
 73
15
 74
0
 42
0.0000001
 43
0.0000001
 44
0.0000000001
 40
0.0
 40
0.0
 40
0.0
 40
0.0
 40
0.0792601442
 40
0.1474852124
 40
0.2082948329
 40
0.268729639
 40
0.3365192733
 40
0.4150221652
 40
0.5043418083
 40
0.6024348472
 40
0.7054381462
 40
0.8095552488
 40
0.9093454948
 40
1.0
 40
1.0
 40
1.0
 40
1.0
 10
47.9380960775
 20
130.7717044287
 30
0.0
 10
48.281602852
 20
130.9700269736
 30
0.0
 10
48.8869327182
 20
131.4077692324
 30
0.0
 10
49.5290180106
 20
132.2555314559
 30
0.0
 10
49.7605065922
 20
133.2090728898
 30
0.0
 10
49.5289129415
 20
134.1597229681
 30
0.0
 10
48.8928702992
 20
135.0022750487
 30
0.0
 10
47.9299577455
 20
135.7035100238
 30
0.0
 10
46.7015919723
 20
136.2368959428
 30
0.0
 10
45.2811684721
 20
136.5738410014
 30
0.0
 10
43.7527266859
 20
136.6932681205
 30
0.0
 10
42.2146396717
 20
136.5840118057
 30
0.0
 10
40.7724882619
 20
136.2510130228
 30
0.0
 10
39.8895091523
 20
135.8721157569
 30
0.0
 10
39.4966201786
 20
135.6452825562
 30
0.0
  0
SPLINE
  5
38A
100
AcDbEntity
  8
0
100
AcDbSpline
 62
7
  6
BYLAYER
 70
0
 71
3
 72
18
 73
14
 74
0
 42
0.0000001
 43
0.0000001
 44
0.0000000001
 40
0.0
 40
0.0
 40
0.0
 40
0.0
 40
0.0991161915
 40
0.2075811744
 40
0.3197488906
 40
0.4305160097
 40
0.5347640314
 40
0.6271300997
 40
0.70619891
 40
0.7744452887
 40
0.8402405559
 40
0.9136958444
 40
1.0
 40
1.0
 40
1.0
 40
1.0
 10
46.1420373756
 20
131.8086359452
 30
0.0
 10
45.8954070417
 20
131.6662447055
 30
0.0
 10
45.3396469417
 20
131.434621962
 30
0.0
 10
44.4362173512
 20
131.2463428407
 30
0.0
 10
43.4805451537
 20
131.2076849543
 30
0.0
 10
42.5430774299
 20
131.3209651523
 30
0.0
 10
41.6927514039
 20
131.5784573173
 30
0.0
 10
40.9925046392
 20
131.9639069139
 30
0.0
 10
40.4933920186
 20
132.4558588247
 30
0.0
 10
40.2484802495
 20
133.0417168364
 30
0.0
 10
40.3256280696
 20
133.6595218792
 30
0.0
 10
40.7027679616
 20
134.2085366103
 30
0.0
 10
41.077928673
 20
134.4843656896
 30
0.0
 10
41.2926788805
 20
134.6083510397
 30
0.0
  0
SPLINE
  5
38B
100
AcDbEntity
  8
0
100
AcDbSpline
 62
7
  6
BYLAYER
 70
0
 71
3
 72
18
 73
14
 74
0
 42
0.0000001
 43
0.0000001
 44
0.0000000001
 40
0.0
 40
0.0
 40
0.0
 40
0.0
 40
0.0991161915
 40
0.2075811744
 40
0.3197488906
 40
0.4305160097
 40
0.5347640314
 40
0.6271300997
 40
0.70619891
 40
0.7744452887
 40
0.8402405559
 40
0.9136958444
 40
1.0
 40
1.0
 40
1.0
 40
1.0
 10
41.2926788805
 20
134.6083510397
 30
0.0
 10
41.5393092144
 20
134.7507422794
 30
0.0
 10
42.0950693144
 20
134.9823650229
 30
0.0
 10
42.9984989049
 20
135.1706441442
 30
0.0
 10
43.9541711024
 20
135.2093020306
 30
0.0
 10
44.8916388262
 20
135.0960218326
 30
0.0
 10
45.7419648522
 20
134.8385296676
 30
0.0
 10
46.4422116169
 20
134.453080071
 30
0.0
 10
46.9413242375
 20
133.9611281602
 30
0.0
 10
47.1862360065
 20
133.3752701485
 30
0.0
 10
47.1090881865
 20
132.7574651057
 30
0.0
 10
46.7319482945
 20
132.2084503746
 30
0.0
 10
46.3567875831
 20
131.9326212953
 30
0.0
 10
46.1420373756
 20
131.8086359452
 30
0.0
  0
SPLINE
  5
38C
100
AcDbEntity
  8
0
100
AcDbSpline
 62
7
  6
BYLAYER
 70
0
 71
3
 72
19
 73
15
 74
0
 42
0.0000001
 43
0.0000001
 44
0.0000000001
 40
0.0
 40
0.0
 40
0.0
 40
0.0
 40
0.0903086763
 40
0.1891076345
 40
0.2921287189
 40
0.3944961282
 40
0.4927479027
 40
0.582446831
 40
0.6612355444
 40
0.7293591303
 40
0.7903198038
 40
0.8516814139
 40
0.920470894
 40
1.0
 40
1.0
 40
1.0
 40
1.0
 10
47.9380960775
 20
107.5438436662
 30
0.0
 10
47.5467133668
 20
107.3178801017
 30
0.0
 10
46.6701559764
 20
106.94128366
 30
0.0
 10
45.2405462168
 20
106.608942656
 30
0.0
 10
43.7165474867
 20
106.4964377725
 30
0.0
 10
42.1956432328
 20
106.6091554739
 30
0.0
 10
40.7741216493
 20
106.9388857653
 30
0.0
 10
39.5388955901
 20
107.4665411615
 30
0.0
 10
38.5667882818
 20
108.1632445166
 30
0.0
 10
37.9184997352
 20
109.0031705979
 30
0.0
 10
37.6729531797
 20
109.9580818187
 30
0.0
 10
37.8986748049
 20
110.9226413038
 30
0.0
 10
38.5433454063
 20
111.7780238888
 30
0.0
 10
39.1519543241
 20
112.2184300576
 30
0.0
 10
39.4966201786
 20
112.4174217937
 30
0.0
  0
SPLINE
  5
38D
100
AcDbEntity
  8
0
100
AcDbSpline
 62
7
  6
BYLAYER
 70
0
 71
3
 72
19
 73
15
 74
0
 42
0.0000001
 43
0.0000001
 44
0.0000000001
 40
0.0
 40
0.0
 40
0.0
 40
0.0
 40
0.0903086763
 40
0.1891076345
 40
0.2921287189
 40
0.3944961282
 40
0.4927479027
 40
0.582446831
 40
0.6612355444
 40
0.7293591303
 40
0.7903198038
 40
0.8516814139
 40
0.920470894
 40
1.0
 40
1.0
 40
1.0
 40
1.0
 10
39.4966201786
 20
112.4174217937
 30
0.0
 10
39.8880028893
 20
112.6433853582
 30
0.0
 10
40.7645602797
 20
113.0199817999
 30
0.0
 10
42.1941700393
 20
113.3523228039
 30
0.0
 10
43.7181687693
 20
113.4648276874
 30
0.0
 10
45.2390730232
 20
113.352109986
 30
0.0
 10
46.6605946068
 20
113.0223796945
 30
0.0
 10
47.895820666
 20
112.4947242984
 30
0.0
 10
48.8679279743
 20
111.7980209433
 30
0.0
 10
49.5162165209
 20
110.958094862
 30
0.0
 10
49.7617630764
 20
110.0031836412
 30
0.0
 10
49.5360414512
 20
109.0386241561
 30
0.0
 10
48.8913708498
 20
108.1832415711
 30
0.0
 10
48.282761932
 20
107.7428354023
 30
0.0
 10
47.9380960775
 20
107.5438436662
 30
0.0
  0
SPLINE
  5
38E
100
AcDbEntity
  8
0
100
AcDbSpline
 62
7
  6
BYLAYER
 70
0
 71
3
 72
18
 73
14
 74
0
 42
0.0000001
 43
0.0000001
 44
0.0000000001
 40
0.0
 40
0.0
 40
0.0
 40
0.0
 40
0.0859665567
 40
0.1587958563
 40
0.2239965666
 40
0.2917169918
 40
0.3704730792
 40
0.4624656076
 40
0.5663493495
 40
0.6775262053
 40
0.7908251106
 40
0.9004392983
 40
1.0
 40
1.0
 40
1.0
 40
1.0
 10
41.2926788805
 20
111.3804902772
 30
0.0
 10
41.0787638751
 20
111.2569871284
 30
0.0
 10
40.7057707882
 20
110.9829473418
 30
0.0
 10
40.3298848643
 20
110.4392966042
 30
0.0
 10
40.2473099051
 20
109.8280661412
 30
0.0
 10
40.4830366002
 20
109.2429951405
 30
0.0
 10
40.9752976873
 20
108.7486402492
 30
0.0
 10
41.6703835599
 20
108.3599648465
 30
0.0
 10
42.5184686051
 20
108.09814369
 30
0.0
 10
43.4588842766
 20
107.9803465746
 30
0.0
 10
44.4225295849
 20
108.0163153054
 30
0.0
 10
45.3340900716
 20
108.2046327463
 30
0.0
 10
45.8942953597
 20
108.4377421169
 30
0.0
 10
46.1420373756
 20
108.5807751827
 30
0.0
  0
SPLINE
  5
38F
100
AcDbEntity
  8
0
100
AcDbSpline
 62
7
  6
BYLAYER
 70
0
 71
3
 72
18
 73
14
 74
0
 42
0.0000001
 43
0.0000001
 44
0.0000000001
 40
0.0
 40
0.0
 40
0.0
 40
0.0
 40
0.0859665567
 40
0.1587958563
 40
0.2239965666
 40
0.2917169918
 40
0.3704730792
 40
0.4624656076
 40
0.5663493495
 40
0.6775262053
 40
0.7908251106
 40
0.9004392983
 40
1.0
 40
1.0
 40
1.0
 40
1.0
 10
46.1420373756
 20
108.5807751827
 30
0.0
 10
46.355952381
 20
108.7042783315
 30
0.0
 10
46.7289454679
 20
108.9783181181
 30
0.0
 10
47.1048313918
 20
109.5219688557
 30
0.0
 10
47.187406351
 20
110.1331993187
 30
0.0
 10
46.9516796559
 20
110.7182703194
 30
0.0
 10
46.4594185688
 20
111.2126252107
 30
0.0
 10
45.7643326962
 20
111.6013006134
 30
0.0
 10
44.916247651
 20
111.8631217699
 30
0.0
 10
43.9758319795
 20
111.9809188853
 30
0.0
 10
43.0121866712
 20
111.9449501545
 30
0.0
 10
42.1006261845
 20
111.7566327136
 30
0.0
 10
41.5404208964
 20
111.523523343
 30
0.0
 10
41.2926788805
 20
111.3804902772
 30
0.0
  0
SPLINE
  5
390
100
AcDbEntity
  8
0
100
AcDbSpline
 62
7
  6
BYLAYER
 70
0
 71
3
 72
19
 73
15
 74
0
 42
0.0000001
 43
0.0000001
 44
0.0000000001
 40
0.0
 40
0.0
 40
0.0
 40
0.0
 40
0.0792601442
 40
0.1474852124
 40
0.2082948329
 40
0.268729639
 40
0.3365192733
 40
0.4150221652
 40
0.5043418083
 40
0.6024348472
 40
0.7054381462
 40
0.8095552488
 40
0.9093454948
 40
1.0
 40
1.0
 40
1.0
 40
1.0
 10
39.4966201786
 20
99.7665333427
 30
0.0
 10
39.1531134041
 20
99.5682107978
 30
0.0
 10
38.5477835379
 20
99.130468539
 30
0.0
 10
37.9056982455
 20
98.2827063155
 30
0.0
 10
37.6742096639
 20
97.3291648816
 30
0.0
 10
37.9058033146
 20
96.3785148033
 30
0.0
 10
38.5418459569
 20
95.5359627227
 30
0.0
 10
39.5047585106
 20
94.8347277476
 30
0.0
 10
40.7331242838
 20
94.3013418286
 30
0.0
 10
42.153547784
 20
93.96439677
 30
0.0
 10
43.6819895702
 20
93.8449696508
 30
0.0
 10
45.2200765844
 20
93.9542259657
 30
0.0
 10
46.6622279942
 20
94.2872247486
 30
0.0
 10
47.5452071038
 20
94.6661220145
 30
0.0
 10
47.9380960775
 20
94.8929552152
 30
0.0
  0
SPLINE
  5
391
100
AcDbEntity
  8
0
100
AcDbSpline
 62
7
  6
BYLAYER
 70
0
 71
3
 72
19
 73
15
 74
0
 42
0.0000001
 43
0.0000001
 44
0.0000000001
 40
0.0
 40
0.0
 40
0.0
 40
0.0
 40
0.0792601442
 40
0.1474852124
 40
0.2082948329
 40
0.268729639
 40
0.3365192733
 40
0.4150221652
 40
0.5043418083
 40
0.6024348472
 40
0.7054381462
 40
0.8095552488
 40
0.9093454948
 40
1.0
 40
1.0
 40
1.0
 40
1.0
 10
47.9380960775
 20
94.8929552152
 30
0.0
 10
48.281602852
 20
95.0912777601
 30
0.0
 10
48.8869327182
 20
95.5290200189
 30
0.0
 10
49.5290180106
 20
96.3767822424
 30
0.0
 10
49.7605065922
 20
97.3303236763
 30
0.0
 10
49.5289129415
 20
98.2809737545
 30
0.0
 10
48.8928702992
 20
99.1235258352
 30
0.0
 10
47.9299577455
 20
99.8247608102
 30
0.0
 10
46.7015919723
 20
100.3581467293
 30
0.0
 10
45.2811684721
 20
100.6950917879
 30
0.0
 10
43.7527266859
 20
100.814518907
 30
0.0
 10
42.2146396717
 20
100.7052625922
 30
0.0
 10
40.7724882619
 20
100.3722638093
 30
0.0
 10
39.8895091523
 20
99.9933665434
 30
0.0
 10
39.4966201786
 20
99.7665333427
 30
0.0
  0
SPLINE
  5
392
100
AcDbEntity
  8
0
100
AcDbSpline
 62
7
  6
BYLAYER
 70
0
 71
3
 72
19
 73
15
 74
0
 42
0.0000001
 43
0.0000001
 44
0.0000000001
 40
0.0
 40
0.0
 40
0.0
 40
0.0
 40
0.0792601442
 40
0.1474852124
 40
0.2082948329
 40
0.268729639
 40
0.3365192733
 40
0.4150221652
 40
0.5043418083
 40
0.6024348472
 40
0.7054381462
 40
0.8095552488
 40
0.9093454948
 40
1.0
 40
1.0
 40
1.0
 40
1.0
 10
137.201806775
 20
135.6455174106
 30
0.0
 10
136.8583000005
 20
135.4471948656
 30
0.0
 10
136.2529701342
 20
135.0094526069
 30
0.0
 10
135.6108848419
 20
134.1616903833
 30
0.0
 10
135.3793962603
 20
133.2081489495
 30
0.0
 10
135.6109899109
 20
132.2574988712
 30
0.0
 10
136.2470325533
 20
131.4149467905
 30
0.0
 10
137.209945107
 20
130.7137118155
 30
0.0
 10
138.4383108802
 20
130.1803258965
 30
0.0
 10
139.8587343804
 20
129.8433808379
 30
0.0
 10
141.3871761665
 20
129.7239537187
 30
0.0
 10
142.9252631808
 20
129.8332100336
 30
0.0
 10
144.3674145906
 20
130.1662088165
 30
0.0
 10
145.2503937002
 20
130.5451060824
 30
0.0
 10
145.6432826738
 20
130.7719392831
 30
0.0
  0
SPLINE
  5
393
100
AcDbEntity
  8
0
100
AcDbSpline
 62
7
  6
BYLAYER
 70
0
 71
3
 72
19
 73
15
 74
0
 42
0.0000001
 43
0.0000001
 44
0.0000000001
 40
0.0
 40
0.0
 40
0.0
 40
0.0
 40
0.0792601442
 40
0.1474852124
 40
0.2082948329
 40
0.268729639
 40
0.3365192733
 40
0.4150221652
 40
0.5043418083
 40
0.6024348472
 40
0.7054381462
 40
0.8095552488
 40
0.9093454948
 40
1.0
 40
1.0
 40
1.0
 40
1.0
 10
145.6432826738
 20
130.7719392831
 30
0.0
 10
145.9867894484
 20
130.970261828
 30
0.0
 10
146.5921193146
 20
131.4080040868
 30
0.0
 10
147.234204607
 20
132.2557663103
 30
0.0
 10
147.4656931885
 20
133.2093077442
 30
0.0
 10
147.2340995379
 20
134.1599578224
 30
0.0
 10
146.5980568956
 20
135.0025099031
 30
0.0
 10
145.6351443419
 20
135.7037448781
 30
0.0
 10
144.4067785687
 20
136.2371307972
 30
0.0
 10
142.9863550685
 20
136.5740758558
 30
0.0
 10
141.4579132823
 20
136.6935029749
 30
0.0
 10
139.919826268
 20
136.5842466601
 30
0.0
 10
138.4776748583
 20
136.2512478772
 30
0.0
 10
137.5946957487
 20
135.8723506113
 30
0.0
 10
137.201806775
 20
135.6455174106
 30
0.0
  0
SPLINE
  5
394
100
AcDbEntity
  8
0
100
AcDbSpline
 62
7
  6
BYLAYER
 70
0
 71
3
 72
18
 73
14
 74
0
 42
0.0000001
 43
0.0000001
 44
0.0000000001
 40
0.0
 40
0.0
 40
0.0
 40
0.0
 40
0.0991161915
 40
0.2075811744
 40
0.3197488906
 40
0.4305160097
 40
0.5347640314
 40
0.6271300997
 40
0.70619891
 40
0.7744452887
 40
0.8402405559
 40
0.9136958444
 40
1.0
 40
1.0
 40
1.0
 40
1.0
 10
143.847223972
 20
131.8088707996
 30
0.0
 10
143.6005936381
 20
131.6664795599
 30
0.0
 10
143.0448335381
 20
131.4348568164
 30
0.0
 10
142.1414039476
 20
131.2465776951
 30
0.0
 10
141.1857317501
 20
131.2079198087
 30
0.0
 10
140.2482640263
 20
131.3212000067
 30
0.0
 10
139.3979380003
 20
131.5786921717
 30
0.0
 10
138.6976912356
 20
131.9641417683
 30
0.0
 10
138.1985786149
 20
132.4560936791
 30
0.0
 10
137.9536668459
 20
133.0419516908
 30
0.0
 10
138.0308146659
 20
133.6597567335
 30
0.0
 10
138.407954558
 20
134.2087714647
 30
0.0
 10
138.7831152693
 20
134.484600544
 30
0.0
 10
138.9978654769
 20
134.6085858941
 30
0.0
  0
SPLINE
  5
395
100
AcDbEntity
  8
0
100
AcDbSpline
 62
7
  6
BYLAYER
 70
0
 71
3
 72
18
 73
14
 74
0
 42
0.0000001
 43
0.0000001
 44
0.0000000001
 40
0.0
 40
0.0
 40
0.0
 40
0.0
 40
0.0991161915
 40
0.2075811744
 40
0.3197488906
 40
0.4305160097
 40
0.5347640314
 40
0.6271300997
 40
0.70619891
 40
0.7744452887
 40
0.8402405559
 40
0.9136958444
 40
1.0
 40
1.0
 40
1.0
 40
1.0
 10
138.9978654769
 20
134.6085858941
 30
0.0
 10
139.2444958108
 20
134.7509771338
 30
0.0
 10
139.8002559108
 20
134.9825998773
 30
0.0
 10
140.7036855013
 20
135.1708789985
 30
0.0
 10
141.6593576987
 20
135.209536885
 30
0.0
 10
142.5968254226
 20
135.096256687
 30
0.0
 10
143.4471514486
 20
134.8387645219
 30
0.0
 10
144.1473982133
 20
134.4533149254
 30
0.0
 10
144.6465108339
 20
133.9613630146
 30
0.0
 10
144.8914226029
 20
133.3755050029
 30
0.0
 10
144.8142747829
 20
132.7576999601
 30
0.0
 10
144.4371348909
 20
132.208685229
 30
0.0
 10
144.0619741795
 20
131.9328561496
 30
0.0
 10
143.847223972
 20
131.8088707996
 30
0.0
  0
SPLINE
  5
396
100
AcDbEntity
  8
0
100
AcDbSpline
 62
7
  6
BYLAYER
 70
0
 71
3
 72
19
 73
15
 74
0
 42
0.0000001
 43
0.0000001
 44
0.0000000001
 40
0.0
 40
0.0
 40
0.0
 40
0.0
 40
0.0903086763
 40
0.1891076345
 40
0.2921287189
 40
0.3944961282
 40
0.4927479027
 40
0.582446831
 40
0.6612355444
 40
0.7293591303
 40
0.7903198038
 40
0.8516814139
 40
0.920470894
 40
1.0
 40
1.0
 40
1.0
 40
1.0
 10
145.6432826738
 20
107.5440785206
 30
0.0
 10
145.2518999632
 20
107.3181149561
 30
0.0
 10
144.3753425728
 20
106.9415185144
 30
0.0
 10
142.9457328132
 20
106.6091775103
 30
0.0
 10
141.4217340831
 20
106.4966726268
 30
0.0
 10
139.9008298292
 20
106.6093903282
 30
0.0
 10
138.4793082457
 20
106.9391206197
 30
0.0
 10
137.2440821865
 20
107.4667760159
 30
0.0
 10
136.2719748782
 20
108.163479371
 30
0.0
 10
135.6236863316
 20
109.0034054523
 30
0.0
 10
135.3781397761
 20
109.9583166731
 30
0.0
 10
135.6038614013
 20
110.9228761581
 30
0.0
 10
136.2485320027
 20
111.7782587432
 30
0.0
 10
136.8571409205
 20
112.218664912
 30
0.0
 10
137.201806775
 20
112.4176566481
 30
0.0
  0
SPLINE
  5
397
100
AcDbEntity
  8
0
100
AcDbSpline
 62
7
  6
BYLAYER
 70
0
 71
3
 72
19
 73
15
 74
0
 42
0.0000001
 43
0.0000001
 44
0.0000000001
 40
0.0
 40
0.0
 40
0.0
 40
0.0
 40
0.0903086763
 40
0.1891076345
 40
0.2921287189
 40
0.3944961282
 40
0.4927479027
 40
0.582446831
 40
0.6612355444
 40
0.7293591303
 40
0.7903198038
 40
0.8516814139
 40
0.920470894
 40
1.0
 40
1.0
 40
1.0
 40
1.0
 10
137.201806775
 20
112.4176566481
 30
0.0
 10
137.5931894857
 20
112.6436202126
 30
0.0
 10
138.4697468761
 20
113.0202166543
 30
0.0
 10
139.8993566357
 20
113.3525576583
 30
0.0
 10
141.4233553657
 20
113.4650625418
 30
0.0
 10
142.9442596196
 20
113.3523448404
 30
0.0
 10
144.3657812032
 20
113.0226145489
 30
0.0
 10
145.6010072623
 20
112.4949591528
 30
0.0
 10
146.5731145707
 20
111.7982557977
 30
0.0
 10
147.2214031173
 20
110.9583297163
 30
0.0
 10
147.4669496727
 20
110.0034184955
 30
0.0
 10
147.2412280475
 20
109.0388590105
 30
0.0
 10
146.5965574462
 20
108.1834764254
 30
0.0
 10
145.9879485283
 20
107.7430702566
 30
0.0
 10
145.6432826738
 20
107.5440785206
 30
0.0
  0
SPLINE
  5
398
100
AcDbEntity
  8
0
100
AcDbSpline
 62
7
  6
BYLAYER
 70
0
 71
3
 72
18
 73
14
 74
0
 42
0.0000001
 43
0.0000001
 44
0.0000000001
 40
0.0
 40
0.0
 40
0.0
 40
0.0
 40
0.0859665567
 40
0.1587958563
 40
0.2239965666
 40
0.2917169918
 40
0.3704730792
 40
0.4624656076
 40
0.5663493495
 40
0.6775262053
 40
0.7908251106
 40
0.9004392983
 40
1.0
 40
1.0
 40
1.0
 40
1.0
 10
138.9978654769
 20
111.3807251316
 30
0.0
 10
138.7839504714
 20
111.2572219828
 30
0.0
 10
138.4109573846
 20
110.9831821962
 30
0.0
 10
138.0350714607
 20
110.4395314586
 30
0.0
 10
137.9524965015
 20
109.8283009956
 30
0.0
 10
138.1882231966
 20
109.2432299949
 30
0.0
 10
138.6804842836
 20
108.7488751036
 30
0.0
 10
139.3755701563
 20
108.3601997008
 30
0.0
 10
140.2236552015
 20
108.0983785444
 30
0.0
 10
141.164070873
 20
107.9805814289
 30
0.0
 10
142.1277161813
 20
108.0165501598
 30
0.0
 10
143.039276668
 20
108.2048676006
 30
0.0
 10
143.5994819561
 20
108.4379769713
 30
0.0
 10
143.847223972
 20
108.5810100371
 30
0.0
  0
SPLINE
  5
399
100
AcDbEntity
  8
0
100
AcDbSpline
 62
7
  6
BYLAYER
 70
0
 71
3
 72
18
 73
14
 74
0
 42
0.0000001
 43
0.0000001
 44
0.0000000001
 40
0.0
 40
0.0
 40
0.0
 40
0.0
 40
0.0859665567
 40
0.1587958563
 40
0.2239965666
 40
0.2917169918
 40
0.3704730792
 40
0.4624656076
 40
0.5663493495
 40
0.6775262053
 40
0.7908251106
 40
0.9004392983
 40
1.0
 40
1.0
 40
1.0
 40
1.0
 10
143.847223972
 20
108.5810100371
 30
0.0
 10
144.0611389774
 20
108.7045131858
 30
0.0
 10
144.4341320643
 20
108.9785529725
 30
0.0
 10
144.8100179881
 20
109.5222037101
 30
0.0
 10
144.8925929474
 20
110.1334341731
 30
0.0
 10
144.6568662523
 20
110.7185051737
 30
0.0
 10
144.1646051652
 20
111.212860065
 30
0.0
 10
143.4695192925
 20
111.6015354678
 30
0.0
 10
142.6214342474
 20
111.8633566243
 30
0.0
 10
141.6810185759
 20
111.9811537397
 30
0.0
 10
140.7173732676
 20
111.9451850089
 30
0.0
 10
139.8058127808
 20
111.756867568
 30
0.0
 10
139.2456074928
 20
111.5237581973
 30
0.0
 10
138.9978654769
 20
111.3807251316
 30
0.0
  0
SPLINE
  5
39A
100
AcDbEntity
  8
0
100
AcDbSpline
 62
7
  6
BYLAYER
 70
0
 71
3
 72
19
 73
15
 74
0
 42
0.0000001
 43
0.0000001
 44
0.0000000001
 40
0.0
 40
0.0
 40
0.0
 40
0.0
 40
0.0792601442
 40
0.1474852124
 40
0.2082948329
 40
0.268729639
 40
0.3365192733
 40
0.4150221652
 40
0.5043418083
 40
0.6024348472
 40
0.7054381462
 40
0.8095552488
 40
0.9093454948
 40
1.0
 40
1.0
 40
1.0
 40
1.0
 10
137.201806775
 20
99.766768197
 30
0.0
 10
136.8583000005
 20
99.5684456521
 30
0.0
 10
136.2529701342
 20
99.1307033934
 30
0.0
 10
135.6108848419
 20
98.2829411698
 30
0.0
 10
135.3793962603
 20
97.329399736
 30
0.0
 10
135.6109899109
 20
96.3787496577
 30
0.0
 10
136.2470325533
 20
95.536197577
 30
0.0
 10
137.209945107
 20
94.834962602
 30
0.0
 10
138.4383108802
 20
94.301576683
 30
0.0
 10
139.8587343804
 20
93.9646316244
 30
0.0
 10
141.3871761665
 20
93.8452045052
 30
0.0
 10
142.9252631808
 20
93.9544608201
 30
0.0
 10
144.3674145906
 20
94.2874596029
 30
0.0
 10
145.2503937002
 20
94.6663568689
 30
0.0
 10
145.6432826738
 20
94.8931900696
 30
0.0
  0
SPLINE
  5
39B
100
AcDbEntity
  8
0
100
AcDbSpline
 62
7
  6
BYLAYER
 70
0
 71
3
 72
19
 73
15
 74
0
 42
0.0000001
 43
0.0000001
 44
0.0000000001
 40
0.0
 40
0.0
 40
0.0
 40
0.0
 40
0.0792601442
 40
0.1474852124
 40
0.2082948329
 40
0.268729639
 40
0.3365192733
 40
0.4150221652
 40
0.5043418083
 40
0.6024348472
 40
0.7054381462
 40
0.8095552488
 40
0.9093454948
 40
1.0
 40
1.0
 40
1.0
 40
1.0
 10
145.6432826738
 20
94.8931900696
 30
0.0
 10
145.9867894484
 20
95.0915126145
 30
0.0
 10
146.5921193146
 20
95.5292548733
 30
0.0
 10
147.234204607
 20
96.3770170968
 30
0.0
 10
147.4656931885
 20
97.3305585307
 30
0.0
 10
147.2340995379
 20
98.2812086089
 30
0.0
 10
146.5980568956
 20
99.1237606896
 30
0.0
 10
145.6351443419
 20
99.8249956646
 30
0.0
 10
144.4067785687
 20
100.3583815837
 30
0.0
 10
142.9863550685
 20
100.6953266423
 30
0.0
 10
141.4579132823
 20
100.8147537614
 30
0.0
 10
139.919826268
 20
100.7054974466
 30
0.0
 10
138.4776748583
 20
100.3724986637
 30
0.0
 10
137.5946957487
 20
99.9936013977
 30
0.0
 10
137.201806775
 20
99.766768197
 30
0.0
  0
SPLINE
  5
39C
100
AcDbEntity
  8
0
100
AcDbSpline
 62
7
  6
BYLAYER
 70
0
 71
3
 72
12
 73
8
 74
0
 42
0.0000001
 43
0.0000001
 44
0.0000000001
 40
0.0
 40
0.0
 40
0.0
 40
0.0
 40
0.1877166931
 40
0.3937437768
 40
0.6062944133
 40
0.8123070694
 40
1.0
 40
1.0
 40
1.0
 40
1.0
 10
93.8364198847
 20
58.7091118053
 30
0.0
 10
93.6950458258
 20
58.6274899418
 30
0.0
 10
93.3737388118
 20
58.4984165937
 30
0.0
 10
92.8522402029
 20
58.4042479742
 30
0.0
 10
92.3060417641
 20
58.4042555697
 30
0.0
 10
91.7845784252
 20
58.498431081
 30
0.0
 10
91.4633048996
 20
58.6274952494
 30
0.0
 10
91.3219481483
 20
58.7091057613
 30
0.0
  0
SPLINE
  5
39D
100
AcDbEntity
  8
0
100
AcDbSpline
 62
7
  6
BYLAYER
 70
0
 71
3
 72
12
 73
8
 74
0
 42
0.0000001
 43
0.0000001
 44
0.0000000001
 40
0.0
 40
0.0
 40
0.0
 40
0.0
 40
0.2255162333
 40
0.4138364488
 40
0.5861975396
 40
0.7745098783
 40
1.0
 40
1.0
 40
1.0
 40
1.0
 10
155.3329472744
 20
95.665652737
 30
0.0
 10
155.4538685692
 20
95.595840374
 30
0.0
 10
155.6627222163
 20
95.4398555381
 30
0.0
 10
155.8596265449
 20
95.118922363
 30
0.0
 10
155.8596095214
 20
94.7606192512
 30
0.0
 10
155.6627001745
 20
94.4397184699
 30
0.0
 10
155.4538645336
 20
94.2837477084
 30
0.0
 10
155.3329577431
 20
94.2139425568
 30
0.0
  0
SPLINE
  5
39E
100
AcDbEntity
  8
0
100
AcDbSpline
 62
7
  6
BYLAYER
 70
0
 71
3
 72
18
 73
14
 74
0
 42
0.0000001
 43
0.0000001
 44
0.0000000001
 40
0.0
 40
0.0
 40
0.0
 40
0.0
 40
0.0859665567
 40
0.1587958563
 40
0.2239965666
 40
0.2917169918
 40
0.3704730792
 40
0.4624656076
 40
0.5663493495
 40
0.6775262053
 40
0.7908251106
 40
0.9004392983
 40
1.0
 40
1.0
 40
1.0
 40
1.0
 10
130.9336809501
 20
83.2482874736
 30
0.0
 10
131.1998862902
 20
83.401980281
 30
0.0
 10
131.6640554649
 20
83.743007571
 30
0.0
 10
132.1318246147
 20
84.4195507111
 30
0.0
 10
132.2345845639
 20
85.1801930651
 30
0.0
 10
131.9412357878
 20
85.9082814215
 30
0.0
 10
131.3286442128
 20
86.5234786195
 30
0.0
 10
130.4636484601
 20
87.0071635652
 30
0.0
 10
129.4082537372
 20
87.3329854488
 30
0.0
 10
128.2379586794
 20
87.4795774146
 30
0.0
 10
127.0387556291
 20
87.4348163274
 30
0.0
 10
125.9043692456
 20
87.2004657343
 30
0.0
 10
125.2072248871
 20
86.910374073
 30
0.0
 10
124.8989237118
 20
86.732377369
 30
0.0
  0
SPLINE
  5
39F
100
AcDbEntity
  8
0
100
AcDbSpline
 62
7
  6
BYLAYER
 70
0
 71
3
 72
18
 73
14
 74
0
 42
0.0000001
 43
0.0000001
 44
0.0000000001
 40
0.0
 40
0.0
 40
0.0
 40
0.0
 40
0.0859665567
 40
0.1587958563
 40
0.2239965666
 40
0.2917169918
 40
0.3704730792
 40
0.4624656076
 40
0.5663493495
 40
0.6775262053
 40
0.7908251106
 40
0.9004392983
 40
1.0
 40
1.0
 40
1.0
 40
1.0
 10
124.8989237118
 20
86.732377369
 30
0.0
 10
124.6327183716
 20
86.5786845616
 30
0.0
 10
124.1685491969
 20
86.2376572716
 30
0.0
 10
123.7007800472
 20
85.5611141315
 30
0.0
 10
123.5980200979
 20
84.8004717775
 30
0.0
 10
123.891368874
 20
84.0723834211
 30
0.0
 10
124.5039604491
 20
83.4571862231
 30
0.0
 10
125.3689562017
 20
82.9735012774
 30
0.0
 10
126.4243509246
 20
82.6476793938
 30
0.0
 10
127.5946459824
 20
82.5010874279
 30
0.0
 10
128.7938490328
 20
82.5458485152
 30
0.0
 10
129.9282354163
 20
82.7801991082
 30
0.0
 10
130.6253797748
 20
83.0702907695
 30
0.0
 10
130.9336809501
 20
83.2482874736
 30
0.0
  0
SPLINE
  5
3A0
100
AcDbEntity
  8
0
100
AcDbSpline
 62
7
  6
BYLAYER
 70
0
 71
3
 72
18
 73
14
 74
0
 42
0.0000001
 43
0.0000001
 44
0.0000000001
 40
0.0
 40
0.0
 40
0.0
 40
0.0
 40
0.0859665567
 40
0.1587958563
 40
0.2239965666
 40
0.2917169918
 40
0.3704730792
 40
0.4624656076
 40
0.5663493495
 40
0.6775262053
 40
0.7908251106
 40
0.9004392983
 40
1.0
 40
1.0
 40
1.0
 40
1.0
 10
95.5875400185
 20
62.8413053052
 30
0.0
 10
95.8537453586
 20
62.9949981126
 30
0.0
 10
96.3179145334
 20
63.3360254026
 30
0.0
 10
96.7856836831
 20
64.0125685427
 30
0.0
 10
96.8884436323
 20
64.7732108966
 30
0.0
 10
96.5950948563
 20
65.5012992531
 30
0.0
 10
95.9825032812
 20
66.1164964511
 30
0.0
 10
95.1175075286
 20
66.6001813968
 30
0.0
 10
94.0621128057
 20
66.9260032804
 30
0.0
 10
92.8918177479
 20
67.0725952462
 30
0.0
 10
91.6926146975
 20
67.027834159
 30
0.0
 10
90.558228314
 20
66.7934835659
 30
0.0
 10
89.8610839555
 20
66.5033919046
 30
0.0
 10
89.5527827802
 20
66.3253952006
 30
0.0
  0
SPLINE
  5
3A1
100
AcDbEntity
  8
0
100
AcDbSpline
 62
7
  6
BYLAYER
 70
0
 71
3
 72
18
 73
14
 74
0
 42
0.0000001
 43
0.0000001
 44
0.0000000001
 40
0.0
 40
0.0
 40
0.0
 40
0.0
 40
0.0859665567
 40
0.1587958563
 40
0.2239965666
 40
0.2917169918
 40
0.3704730792
 40
0.4624656076
 40
0.5663493495
 40
0.6775262053
 40
0.7908251106
 40
0.9004392983
 40
1.0
 40
1.0
 40
1.0
 40
1.0
 10
89.5527827802
 20
66.3253952006
 30
0.0
 10
89.2865774401
 20
66.1717023932
 30
0.0
 10
88.8224082653
 20
65.8306751032
 30
0.0
 10
88.3546391156
 20
65.1541319631
 30
0.0
 10
88.2518791664
 20
64.3934896091
 30
0.0
 10
88.5452279425
 20
63.6654012527
 30
0.0
 10
89.1578195175
 20
63.0502040547
 30
0.0
 10
90.0228152702
 20
62.566519109
 30
0.0
 10
91.078209993
 20
62.2406972254
 30
0.0
 10
92.2485050509
 20
62.0941052595
 30
0.0
 10
93.4477081012
 20
62.1388663468
 30
0.0
 10
94.5820944847
 20
62.3732169398
 30
0.0
 10
95.2792388432
 20
62.6633086011
 30
0.0
 10
95.5875400185
 20
62.8413053052
 30
0.0
  0
SPLINE
  5
3A2
100
AcDbEntity
  8
0
100
AcDbSpline
 62
7
  6
BYLAYER
 70
0
 71
3
 72
12
 73
8
 74
0
 42
0.0000001
 43
0.0000001
 44
0.0000000001
 40
0.0
 40
0.0
 40
0.0
 40
0.0
 40
0.2255131884
 40
0.4138328276
 40
0.5861955358
 40
0.7745096745
 40
1.0
 40
1.0
 40
1.0
 40
1.0
 10
81.9869330453
 20
60.4692040741
 30
0.0
 10
82.1078546695
 20
60.3993915214
 30
0.0
 10
82.3473728264
 20
60.2965160519
 30
0.0
 10
82.7237663347
 20
60.2864698925
 30
0.0
 10
83.0340593274
 20
60.4656463253
 30
0.0
 10
83.2135156504
 20
60.7966322945
 30
0.0
 10
83.2441741477
 20
61.0554799976
 30
0.0
 10
83.2441741479
 20
61.1950933167
 30
0.0
  0
SPLINE
  5
3A3
100
AcDbEntity
  8
0
100
AcDbSpline
 62
7
  6
BYLAYER
 70
0
 71
3
 72
12
 73
8
 74
0
 42
0.0000001
 43
0.0000001
 44
0.0000000001
 40
0.0
 40
0.0
 40
0.0
 40
0.0
 40
0.1877180636
 40
0.393745507
 40
0.6062957625
 40
0.8123076771
 40
1.0
 40
1.0
 40
1.0
 40
1.0
 10
39.680770334
 20
86.345867249
 30
0.0
 10
39.6807703342
 20
86.1826213062
 30
0.0
 10
39.7296424028
 20
85.8398222881
 30
0.0
 10
39.9088402529
 20
85.3411048786
 30
0.0
 10
40.1819484474
 20
84.8680878051
 30
0.0
 10
40.5242421458
 20
84.4635786572
 30
0.0
 10
40.7966548897
 20
84.2498842645
 30
0.0
 10
40.9380114366
 20
84.1682738702
 30
0.0
  0
SPLINE
  5
3A4
100
AcDbEntity
  8
0
100
AcDbSpline
 62
7
  6
BYLAYER
 70
0
 71
3
 72
12
 73
8
 74
0
 42
0.0000001
 43
0.0000001
 44
0.0000000001
 40
0.0
 40
0.0
 40
0.0
 40
0.0
 40
0.1877167286
 40
0.3937434289
 40
0.6062936844
 40
0.8123063422
 40
1.0
 40
1.0
 40
1.0
 40
1.0
 10
104.9490105627
 20
121.1248208459
 30
0.0
 10
104.8076356352
 20
121.2064418521
 30
0.0
 10
104.5351988209
 20
121.4201627915
 30
0.0
 10
104.1928948981
 20
121.8247082799
 30
0.0
 10
103.919802064
 20
122.297734222
 30
0.0
 10
103.7406305737
 20
122.7964246069
 30
0.0
 10
103.6917694602
 20
123.1391895061
 30
0.0
 10
103.69176946
 20
123.3024142247
 30
0.0
  0
SPLINE
  5
3A5
100
AcDbEntity
  8
0
100
AcDbSpline
 62
7
  6
BYLAYER
 70
0
 71
3
 72
12
 73
8
 74
0
 42
0.0000001
 43
0.0000001
 44
0.0000000001
 40
0.0
 40
0.0
 40
0.0
 40
0.0
 40
0.2255153807
 40
0.4138366237
 40
0.5861993317
 40
0.7745118666
 40
1.0
 40
1.0
 40
1.0
 40
1.0
 10
147.255173274
 20
98.1516402924
 30
0.0
 10
147.2551732738
 20
98.0120114603
 30
0.0
 10
147.2245096513
 20
97.75314241
 30
0.0
 10
147.0450190747
 20
97.4221476229
 30
0.0
 10
146.7347062133
 20
97.2430056027
 30
0.0
 10
146.358337468
 20
97.2530770187
 30
0.0
 10
146.1188403609
 20
97.3559462534
 30
0.0
 10
145.9979321714
 20
97.4257510498
 30
0.0
  0
SPLINE
  5
3A6
100
AcDbEntity
  8
0
100
AcDbSpline
 62
7
  6
BYLAYER
 70
0
 71
3
 72
12
 73
8
 74
0
 42
0.0000001
 43
0.0000001
 44
0.0000000001
 40
0.0
 40
0.0
 40
0.0
 40
0.0
 40
0.1877166931
 40
0.3937437768
 40
0.6062944133
 40
0.8123070694
 40
1.0
 40
1.0
 40
1.0
 40
1.0
 10
93.0995237232
 20
130.1436196029
 30
0.0
 10
93.2408977821
 20
130.2252414665
 30
0.0
 10
93.5622047962
 20
130.3543148146
 30
0.0
 10
94.083703405
 20
130.4484834341
 30
0.0
 10
94.6299018439
 20
130.4484758386
 30
0.0
 10
95.1513651827
 20
130.3543003272
 30
0.0
 10
95.4726387083
 20
130.2252361589
 30
0.0
 10
95.6139954597
 20
130.143625647
 30
0.0
  0
SPLINE
  5
3A7
100
AcDbEntity
  8
0
100
AcDbSpline
 62
7
  6
BYLAYER
 70
0
 71
3
 72
12
 73
8
 74
0
 42
0.0000001
 43
0.0000001
 44
0.0000000001
 40
0.0
 40
0.0
 40
0.0
 40
0.0
 40
0.2255162333
 40
0.4138364488
 40
0.5861975396
 40
0.7745098783
 40
1.0
 40
1.0
 40
1.0
 40
1.0
 10
31.6029963336
 20
93.1870786713
 30
0.0
 10
31.4820750387
 20
93.2568910342
 30
0.0
 10
31.2732213916
 20
93.4128758702
 30
0.0
 10
31.076317063
 20
93.7338090453
 30
0.0
 10
31.0763340866
 20
94.092112157
 30
0.0
 10
31.2732434334
 20
94.4130129384
 30
0.0
 10
31.4820790743
 20
94.5689836998
 30
0.0
 10
31.6029858648
 20
94.6387888514
 30
0.0
  0
SPLINE
  5
3A8
100
AcDbEntity
  8
0
100
AcDbSpline
 62
7
  6
BYLAYER
 70
0
 71
3
 72
18
 73
14
 74
0
 42
0.0000001
 43
0.0000001
 44
0.0000000001
 40
0.0
 40
0.0
 40
0.0
 40
0.0
 40
0.0859665567
 40
0.1587958563
 40
0.2239965666
 40
0.2917169918
 40
0.3704730792
 40
0.4624656076
 40
0.5663493495
 40
0.6775262053
 40
0.7908251106
 40
0.9004392983
 40
1.0
 40
1.0
 40
1.0
 40
1.0
 10
62.3962286455
 20
102.3277420695
 30
0.0
 10
62.6624339856
 20
102.4814348768
 30
0.0
 10
63.1266031603
 20
102.8224621669
 30
0.0
 10
63.59437231
 20
103.499005307
 30
0.0
 10
63.6971322593
 20
104.2596476609
 30
0.0
 10
63.4037834832
 20
104.9877360173
 30
0.0
 10
62.7911919082
 20
105.6029332154
 30
0.0
 10
61.9261961555
 20
106.086618161
 30
0.0
 10
60.8708014326
 20
106.4124400447
 30
0.0
 10
59.7005063748
 20
106.5590320105
 30
0.0
 10
58.5013033244
 20
106.5142709233
 30
0.0
 10
57.366916941
 20
106.2799203302
 30
0.0
 10
56.6697725825
 20
105.9898286689
 30
0.0
 10
56.3614714072
 20
105.8118319648
 30
0.0
  0
SPLINE
  5
3A9
100
AcDbEntity
  8
0
100
AcDbSpline
 62
7
  6
BYLAYER
 70
0
 71
3
 72
18
 73
14
 74
0
 42
0.0000001
 43
0.0000001
 44
0.0000000001
 40
0.0
 40
0.0
 40
0.0
 40
0.0
 40
0.0859665567
 40
0.1587958563
 40
0.2239965666
 40
0.2917169918
 40
0.3704730792
 40
0.4624656076
 40
0.5663493495
 40
0.6775262053
 40
0.7908251106
 40
0.9004392983
 40
1.0
 40
1.0
 40
1.0
 40
1.0
 10
56.3614714072
 20
105.8118319648
 30
0.0
 10
56.095266067
 20
105.6581391575
 30
0.0
 10
55.6310968923
 20
105.3171118674
 30
0.0
 10
55.1633277426
 20
104.6405687273
 30
0.0
 10
55.0605677933
 20
103.8799263734
 30
0.0
 10
55.3539165694
 20
103.151838017
 30
0.0
 10
55.9665081444
 20
102.5366408189
 30
0.0
 10
56.8315038971
 20
102.0529558733
 30
0.0
 10
57.88689862
 20
101.7271339896
 30
0.0
 10
59.0571936778
 20
101.5805420238
 30
0.0
 10
60.2563967282
 20
101.625303111
 30
0.0
 10
61.3907831117
 20
101.8596537041
 30
0.0
 10
62.0879274702
 20
102.1497453654
 30
0.0
 10
62.3962286455
 20
102.3277420695
 30
0.0
  0
SPLINE
  5
3AA
100
AcDbEntity
  8
0
100
AcDbSpline
 62
7
  6
BYLAYER
 70
0
 71
3
 72
18
 73
14
 74
0
 42
0.0000001
 43
0.0000001
 44
0.0000000001
 40
0.0
 40
0.0
 40
0.0
 40
0.0
 40
0.0859665567
 40
0.1587958563
 40
0.2239965666
 40
0.2917169918
 40
0.3704730792
 40
0.4624656076
 40
0.5663493495
 40
0.6775262053
 40
0.7908251106
 40
0.9004392983
 40
1.0
 40
1.0
 40
1.0
 40
1.0
 10
97.3831608277
 20
122.5273362077
 30
0.0
 10
97.6493661679
 20
122.6810290151
 30
0.0
 10
98.1135353426
 20
123.0220563051
 30
0.0
 10
98.5813044923
 20
123.6985994452
 30
0.0
 10
98.6840644416
 20
124.4592417992
 30
0.0
 10
98.3907156655
 20
125.1873301556
 30
0.0
 10
97.7781240905
 20
125.8025273536
 30
0.0
 10
96.9131283378
 20
126.2862122993
 30
0.0
 10
95.8577336149
 20
126.6120341829
 30
0.0
 10
94.6874385571
 20
126.7586261487
 30
0.0
 10
93.4882355067
 20
126.7138650615
 30
0.0
 10
92.3538491232
 20
126.4795144684
 30
0.0
 10
91.6567047647
 20
126.1894228071
 30
0.0
 10
91.3484035894
 20
126.0114261031
 30
0.0
  0
SPLINE
  5
3AB
100
AcDbEntity
  8
0
100
AcDbSpline
 62
7
  6
BYLAYER
 70
0
 71
3
 72
18
 73
14
 74
0
 42
0.0000001
 43
0.0000001
 44
0.0000000001
 40
0.0
 40
0.0
 40
0.0
 40
0.0
 40
0.0859665567
 40
0.1587958563
 40
0.2239965666
 40
0.2917169918
 40
0.3704730792
 40
0.4624656076
 40
0.5663493495
 40
0.6775262053
 40
0.7908251106
 40
0.9004392983
 40
1.0
 40
1.0
 40
1.0
 40
1.0
 10
91.3484035894
 20
126.0114261031
 30
0.0
 10
91.0821982493
 20
125.8577332957
 30
0.0
 10
90.6180290746
 20
125.5167060057
 30
0.0
 10
90.1502599249
 20
124.8401628656
 30
0.0
 10
90.0474999756
 20
124.0795205116
 30
0.0
 10
90.3408487517
 20
123.3514321552
 30
0.0
 10
90.9534403267
 20
122.7362349572
 30
0.0
 10
91.8184360794
 20
122.2525500115
 30
0.0
 10
92.8738308023
 20
121.9267281279
 30
0.0
 10
94.0441258601
 20
121.780136162
 30
0.0
 10
95.2433289104
 20
121.8248972493
 30
0.0
 10
96.3777152939
 20
122.0592478423
 30
0.0
 10
97.0748596524
 20
122.3493395036
 30
0.0
 10
97.3831608277
 20
122.5273362077
 30
0.0
  0
SPLINE
  5
3AC
100
AcDbEntity
  8
0
100
AcDbSpline
 62
7
  6
BYLAYER
 70
0
 71
3
 72
18
 73
14
 74
0
 42
0.0000001
 43
0.0000001
 44
0.0000000001
 40
0.0
 40
0.0
 40
0.0
 40
0.0
 40
0.0991161915
 40
0.2075811744
 40
0.3197488906
 40
0.4305160097
 40
0.5347640314
 40
0.6271300997
 40
0.70619891
 40
0.7744452887
 40
0.8402405559
 40
0.9136958444
 40
1.0
 40
1.0
 40
1.0
 40
1.0
 10
56.3614714072
 20
104.1526990532
 30
0.0
 10
56.668389156
 20
104.3298970404
 30
0.0
 10
57.3600017249
 20
104.6181386768
 30
0.0
 10
58.4842696597
 20
104.8524415832
 30
0.0
 10
59.6735506166
 20
104.9005491753
 30
0.0
 10
60.8401771174
 20
104.7595782622
 30
0.0
 10
61.8983606164
 20
104.4391435679
 30
0.0
 10
62.7697788124
 20
103.9594729588
 30
0.0
 10
63.3908967403
 20
103.3472661365
 30
0.0
 10
63.6956758307
 20
102.6181983886
 30
0.0
 10
63.5996696547
 20
101.8493743354
 30
0.0
 10
63.1303400113
 20
101.1661560033
 30
0.0
 10
62.6634733482
 20
100.8229020379
 30
0.0
 10
62.3962286455
 20
100.6686091579
 30
0.0
  0
SPLINE
  5
3AD
100
AcDbEntity
  8
0
100
AcDbSpline
 62
7
  6
BYLAYER
 70
0
 71
3
 72
18
 73
14
 74
0
 42
0.0000001
 43
0.0000001
 44
0.0000000001
 40
0.0
 40
0.0
 40
0.0
 40
0.0
 40
0.0991161915
 40
0.2075811744
 40
0.3197488906
 40
0.4305160097
 40
0.5347640314
 40
0.6271300997
 40
0.70619891
 40
0.7744452887
 40
0.8402405559
 40
0.9136958444
 40
1.0
 40
1.0
 40
1.0
 40
1.0
 10
62.3962286455
 20
100.6686091579
 30
0.0
 10
62.0893108966
 20
100.4914111707
 30
0.0
 10
61.3976983277
 20
100.2031695343
 30
0.0
 10
60.2734303929
 20
99.9688666278
 30
0.0
 10
59.0841494361
 20
99.9207590358
 30
0.0
 10
57.9175229353
 20
100.0617299489
 30
0.0
 10
56.8593394362
 20
100.3821646432
 30
0.0
 10
55.9879212402
 20
100.8618352523
 30
0.0
 10
55.3668033123
 20
101.4740420746
 30
0.0
 10
55.062024222
 20
102.2031098225
 30
0.0
 10
55.158030398
 20
102.9719338757
 30
0.0
 10
55.6273600414
 20
103.6551522078
 30
0.0
 10
56.0942267044
 20
103.9984061732
 30
0.0
 10
56.3614714072
 20
104.1526990532
 30
0.0
  0
SPLINE
  5
3AE
100
AcDbEntity
  8
0
100
AcDbSpline
 62
7
  6
BYLAYER
 70
0
 71
3
 72
18
 73
14
 74
0
 42
0.0000001
 43
0.0000001
 44
0.0000000001
 40
0.0
 40
0.0
 40
0.0
 40
0.0
 40
0.0991161915
 40
0.2075811744
 40
0.3197488906
 40
0.4305160097
 40
0.5347640314
 40
0.6271300997
 40
0.70619891
 40
0.7744452887
 40
0.8402405559
 40
0.9136958444
 40
1.0
 40
1.0
 40
1.0
 40
1.0
 10
91.3484035894
 20
124.3522931915
 30
0.0
 10
91.6553213383
 20
124.5294911787
 30
0.0
 10
92.3469339071
 20
124.817732815
 30
0.0
 10
93.471201842
 20
125.0520357215
 30
0.0
 10
94.6604827988
 20
125.1001433135
 30
0.0
 10
95.8271092996
 20
124.9591724004
 30
0.0
 10
96.8852927987
 20
124.6387377062
 30
0.0
 10
97.7567109947
 20
124.1590670971
 30
0.0
 10
98.3778289226
 20
123.5468602747
 30
0.0
 10
98.6826080129
 20
122.8177925269
 30
0.0
 10
98.5866018369
 20
122.0489684737
 30
0.0
 10
98.1172721935
 20
121.3657501416
 30
0.0
 10
97.6504055305
 20
121.0224961762
 30
0.0
 10
97.3831608277
 20
120.8682032961
 30
0.0
  0
SPLINE
  5
3AF
100
AcDbEntity
  8
0
100
AcDbSpline
 62
7
  6
BYLAYER
 70
0
 71
3
 72
18
 73
14
 74
0
 42
0.0000001
 43
0.0000001
 44
0.0000000001
 40
0.0
 40
0.0
 40
0.0
 40
0.0
 40
0.0991161915
 40
0.2075811744
 40
0.3197488906
 40
0.4305160097
 40
0.5347640314
 40
0.6271300997
 40
0.70619891
 40
0.7744452887
 40
0.8402405559
 40
0.9136958444
 40
1.0
 40
1.0
 40
1.0
 40
1.0
 10
97.3831608277
 20
120.8682032961
 30
0.0
 10
97.0762430789
 20
120.6910053089
 30
0.0
 10
96.38463051
 20
120.4027636725
 30
0.0
 10
95.2603625752
 20
120.1684607661
 30
0.0
 10
94.0710816183
 20
120.1203531741
 30
0.0
 10
92.9044551175
 20
120.2613240871
 30
0.0
 10
91.8462716185
 20
120.5817587814
 30
0.0
 10
90.9748534225
 20
121.0614293905
 30
0.0
 10
90.3537354945
 20
121.6736362128
 30
0.0
 10
90.0489564042
 20
122.4027039607
 30
0.0
 10
90.1449625802
 20
123.1715280139
 30
0.0
 10
90.6142922236
 20
123.854746346
 30
0.0
 10
91.0811588867
 20
124.1980003114
 30
0.0
 10
91.3484035894
 20
124.3522931915
 30
0.0
  0
SPLINE
  5
3B0
100
AcDbEntity
  8
0
100
AcDbSpline
 62
7
  6
BYLAYER
 70
0
 71
3
 72
18
 73
14
 74
0
 42
0.0000001
 43
0.0000001
 44
0.0000000001
 40
0.0
 40
0.0
 40
0.0
 40
0.0
 40
0.0991161915
 40
0.2075811744
 40
0.3197488906
 40
0.4305160097
 40
0.5347640314
 40
0.6271300997
 40
0.70619891
 40
0.7744452887
 40
0.8402405559
 40
0.9136958444
 40
1.0
 40
1.0
 40
1.0
 40
1.0
 10
124.8989237118
 20
85.0732444574
 30
0.0
 10
125.2058414606
 20
85.2504424446
 30
0.0
 10
125.8974540295
 20
85.5386840809
 30
0.0
 10
127.0217219643
 20
85.7729869874
 30
0.0
 10
128.2110029212
 20
85.8210945794
 30
0.0
 10
129.377629422
 20
85.6801236663
 30
0.0
 10
130.435812921
 20
85.3596889721
 30
0.0
 10
131.307231117
 20
84.880018363
 30
0.0
 10
131.928349045
 20
84.2678115406
 30
0.0
 10
132.2331281353
 20
83.5387437928
 30
0.0
 10
132.1371219593
 20
82.7699197396
 30
0.0
 10
131.6677923159
 20
82.0867014075
 30
0.0
 10
131.2009256528
 20
81.7434474421
 30
0.0
 10
130.9336809501
 20
81.589154562
 30
0.0
  0
SPLINE
  5
3B1
100
AcDbEntity
  8
0
100
AcDbSpline
 62
7
  6
BYLAYER
 70
0
 71
3
 72
18
 73
14
 74
0
 42
0.0000001
 43
0.0000001
 44
0.0000000001
 40
0.0
 40
0.0
 40
0.0
 40
0.0
 40
0.0991161915
 40
0.2075811744
 40
0.3197488906
 40
0.4305160097
 40
0.5347640314
 40
0.6271300997
 40
0.70619891
 40
0.7744452887
 40
0.8402405559
 40
0.9136958444
 40
1.0
 40
1.0
 40
1.0
 40
1.0
 10
130.9336809501
 20
81.589154562
 30
0.0
 10
130.6267632012
 20
81.4119565748
 30
0.0
 10
129.9351506324
 20
81.1237149384
 30
0.0
 10
128.8108826976
 20
80.889412032
 30
0.0
 10
127.6216017407
 20
80.84130444
 30
0.0
 10
126.4549752399
 20
80.982275353
 30
0.0
 10
125.3967917408
 20
81.3027100473
 30
0.0
 10
124.5253735448
 20
81.7823806564
 30
0.0
 10
123.9042556169
 20
82.3945874787
 30
0.0
 10
123.5994765266
 20
83.1236552266
 30
0.0
 10
123.6954827026
 20
83.8924792798
 30
0.0
 10
124.164812346
 20
84.5756976119
 30
0.0
 10
124.631679009
 20
84.9189515773
 30
0.0
 10
124.8989237118
 20
85.0732444574
 30
0.0
  0
SPLINE
  5
3B2
100
AcDbEntity
  8
0
100
AcDbSpline
 62
7
  6
BYLAYER
 70
0
 71
3
 72
18
 73
14
 74
0
 42
0.0000001
 43
0.0000001
 44
0.0000000001
 40
0.0
 40
0.0
 40
0.0
 40
0.0
 40
0.0991161915
 40
0.2075811744
 40
0.3197488906
 40
0.4305160097
 40
0.5347640314
 40
0.6271300997
 40
0.70619891
 40
0.7744452887
 40
0.8402405559
 40
0.9136958444
 40
1.0
 40
1.0
 40
1.0
 40
1.0
 10
89.5527827802
 20
64.666262289
 30
0.0
 10
89.859700529
 20
64.8434602761
 30
0.0
 10
90.5513130979
 20
65.1317019125
 30
0.0
 10
91.6755810327
 20
65.366004819
 30
0.0
 10
92.8648619896
 20
65.414112411
 30
0.0
 10
94.0314884904
 20
65.2731414979
 30
0.0
 10
95.0896719894
 20
64.9527068036
 30
0.0
 10
95.9610901854
 20
64.4730361946
 30
0.0
 10
96.5822081134
 20
63.8608293722
 30
0.0
 10
96.8869872037
 20
63.1317616244
 30
0.0
 10
96.7909810277
 20
62.3629375712
 30
0.0
 10
96.3216513843
 20
61.6797192391
 30
0.0
 10
95.8547847213
 20
61.3364652737
 30
0.0
 10
95.5875400185
 20
61.1821723936
 30
0.0
  0
SPLINE
  5
3B3
100
AcDbEntity
  8
0
100
AcDbSpline
 62
7
  6
BYLAYER
 70
0
 71
3
 72
18
 73
14
 74
0
 42
0.0000001
 43
0.0000001
 44
0.0000000001
 40
0.0
 40
0.0
 40
0.0
 40
0.0
 40
0.0991161915
 40
0.2075811744
 40
0.3197488906
 40
0.4305160097
 40
0.5347640314
 40
0.6271300997
 40
0.70619891
 40
0.7744452887
 40
0.8402405559
 40
0.9136958444
 40
1.0
 40
1.0
 40
1.0
 40
1.0
 10
95.5875400185
 20
61.1821723936
 30
0.0
 10
95.2806222697
 20
61.0049744064
 30
0.0
 10
94.5890097008
 20
60.71673277
 30
0.0
 10
93.464741766
 20
60.4824298636
 30
0.0
 10
92.2754608091
 20
60.4343222716
 30
0.0
 10
91.1088343083
 20
60.5752931846
 30
0.0
 10
90.0506508093
 20
60.8957278789
 30
0.0
 10
89.1792326133
 20
61.375398488
 30
0.0
 10
88.5581146853
 20
61.9876053103
 30
0.0
 10
88.253335595
 20
62.7166730582
 30
0.0
 10
88.349341771
 20
63.4854971114
 30
0.0
 10
88.8186714144
 20
64.1687154435
 30
0.0
 10
89.2855380775
 20
64.5119694089
 30
0.0
 10
89.5527827802
 20
64.666262289
 30
0.0
  0
SPLINE
  5
3B4
100
AcDbEntity
  8
0
100
AcDbSpline
 62
7
  6
BYLAYER
 70
0
 71
3
 72
19
 73
15
 74
0
 42
0.0000001
 43
0.0000001
 44
0.0000000001
 40
0.0
 40
0.0
 40
0.0
 40
0.0
 40
0.0601575013
 40
0.1211273201
 40
0.1853004409
 40
0.2544777956
 40
0.3297169077
 40
0.4113847374
 40
0.4992786569
 40
0.5927571073
 40
0.6908518792
 40
0.792352556
 40
0.8958894102
 40
1.0
 40
1.0
 40
1.0
 40
1.0
 10
97.3564923655
 20
195.3286035526
 30
0.0
 10
98.5708699942
 20
196.337607827
 30
0.0
 10
101.2862099706
 20
198.0692112078
 30
0.0
 10
105.9666005022
 20
199.5612646528
 30
0.0
 10
111.0978175293
 20
199.9157711557
 30
0.0
 10
116.55214439
 20
199.150901669
 30
0.0
 10
122.2183378524
 20
197.3052410723
 30
0.0
 10
127.9851704271
 20
194.4280760191
 30
0.0
 10
133.7383148217
 20
190.583475589
 30
0.0
 10
139.3607816999
 20
185.8526125279
 30
0.0
 10
144.7358885577
 20
180.334479014
 30
0.0
 10
149.7506040169
 20
174.1444473652
 30
0.0
 10
154.2979096285
 20
167.4133821905
 30
0.0
 10
156.9591150048
 20
162.6485996388
 30
0.0
 10
158.1881907526
 20
160.2082006433
 30
0.0
  0
SPLINE
  5
3B5
100
AcDbEntity
  8
0
100
AcDbSpline
 62
7
  6
BYLAYER
 70
0
 71
3
 72
12
 73
8
 74
0
 42
0.0000001
 43
0.0000001
 44
0.0000000001
 40
0.0
 40
0.0
 40
0.0
 40
0.0
 40
0.1877162795
 40
0.3937428651
 40
0.6062932469
 40
0.8123061481
 40
1.0
 40
1.0
 40
1.0
 40
1.0
 10
98.3349131139
 20
217.1078235285
 30
0.0
 10
98.1410288848
 20
216.9958850849
 30
0.0
 10
97.7674041596
 20
216.702779973
 30
0.0
 10
97.2979628975
 20
216.1479725752
 30
0.0
 10
96.9234388508
 20
215.4992496319
 30
0.0
 10
96.6777201075
 20
214.8153304351
 30
0.0
 10
96.6107111172
 20
214.3452526315
 30
0.0
 10
96.6107111172
 20
214.1214014898
 30
0.0
  0
SPLINE
  5
3B6
100
AcDbEntity
  8
0
100
AcDbSpline
 62
7
  6
BYLAYER
 70
0
 71
3
 72
13
 73
9
 74
0
 42
0.0000001
 43
0.0000001
 44
0.0000000001
 40
0.0
 40
0.0
 40
0.0
 40
0.0
 40
0.1547333199
 40
0.3235838404
 40
0.4999895763
 40
0.6763980857
 40
0.8452561974
 40
1.0
 40
1.0
 40
1.0
 40
1.0
 10
95.17387612
 20
213.2918493692
 30
0.0
 10
95.17387612
 20
213.6303617044
 30
0.0
 10
95.2577679616
 20
214.3390744955
 30
0.0
 10
95.5770468796
 20
215.3898246841
 30
0.0
 10
96.0748708342
 20
216.4216520375
 30
0.0
 10
96.719534195
 20
217.3687233502
 30
0.0
 10
97.4698864507
 20
218.1706507947
 30
0.0
 10
98.0417325338
 20
218.5976895637
 30
0.0
 10
98.3349131139
 20
218.7669564402
 30
0.0
  0
SPLINE
  5
3B7
100
AcDbEntity
  8
0
100
AcDbSpline
 62
7
  6
BYLAYER
 70
0
 71
3
 72
20
 73
16
 74
0
 42
0.0000001
 43
0.0000001
 44
0.0000000001
 40
0.0
 40
0.0
 40
0.0
 40
0.0
 40
0.0960696862
 40
0.1919728978
 40
0.2864696356
 40
0.3783831789
 40
0.4666722465
 40
0.5503756431
 40
0.6287704966
 40
0.7014723273
 40
0.7685090249
 40
0.8304256034
 40
0.8884127853
 40
0.9442219988
 40
1.0
 40
1.0
 40
1.0
 40
1.0
 10
161.8076419952
 20
156.735415051
 30
0.0
 10
160.6309388307
 20
159.2019186666
 30
0.0
 10
158.0737955233
 20
164.0353039654
 30
0.0
 10
153.6850749654
 20
170.9117234938
 30
0.0
 10
148.815540501
 20
177.3096884694
 30
0.0
 10
143.5599501868
 20
183.1061426076
 30
0.0
 10
138.0198443281
 20
188.1891773784
 30
0.0
 10
132.3023515689
 20
192.4592650261
 30
0.0
 10
126.5181228551
 20
195.8317115208
 30
0.0
 10
120.7766908372
 20
198.2389031467
 30
0.0
 10
115.1840718219
 20
199.6289488559
 30
0.0
 10
109.8428767264
 20
199.9632923598
 30
0.0
 10
104.8575240222
 20
199.2136865053
 30
0.0
 10
100.3475143926
 20
197.3745894088
 30
0.0
 10
97.7659726164
 20
195.4636376494
 30
0.0
 10
96.6107111172
 20
194.3760290992
 30
0.0
  0
SPLINE
  5
3B8
100
AcDbEntity
  8
0
100
AcDbSpline
 62
7
  6
BYLAYER
 70
0
 71
3
 72
13
 73
9
 74
0
 42
0.0000001
 43
0.0000001
 44
0.0000000001
 40
0.0
 40
0.0
 40
0.0
 40
0.0
 40
0.1547316264
 40
0.3235810194
 40
0.4999863619
 40
0.6763952646
 40
0.8452545038
 40
1.0
 40
1.0
 40
1.0
 40
1.0
 10
163.5318439919
 20
181.1263423919
 30
0.0
 10
163.2386864811
 20
180.9570888344
 30
0.0
 10
162.6668741524
 20
180.530083205
 30
0.0
 10
161.9165449511
 20
179.7282067964
 30
0.0
 10
161.2718743082
 20
178.7811637299
 30
0.0
 10
160.7740222509
 20
177.7493285601
 30
0.0
 10
160.454710662
 20
176.6985328878
 30
0.0
 10
160.370806998
 20
175.9897742945
 30
0.0
 10
160.370806998
 20
175.6512353209
 30
0.0
  0
SPLINE
  5
3B9
100
AcDbEntity
  8
0
100
AcDbSpline
 62
7
  6
BYLAYER
 70
0
 71
3
 72
12
 73
8
 74
0
 42
0.0000001
 43
0.0000001
 44
0.0000000001
 40
0.0
 40
0.0
 40
0.0
 40
0.0
 40
0.1877182578
 40
0.3937459446
 40
0.6062963263
 40
0.8123081262
 40
1.0
 40
1.0
 40
1.0
 40
1.0
 10
161.8076419952
 20
176.4807874415
 30
0.0
 10
161.8076419952
 20
176.7046676906
 30
0.0
 10
161.8746660097
 20
177.1747922859
 30
0.0
 10
162.120420903
 20
177.8587485452
 30
0.0
 10
162.4949660154
 20
178.5074593261
 30
0.0
 10
162.9643932557
 20
179.0622168854
 30
0.0
 10
163.3379849704
 20
179.3552855901
 30
0.0
 10
163.5318439919
 20
179.4672094803
 30
0.0
  0
SPLINE
  5
3BA
100
AcDbEntity
  8
0
100
AcDbSpline
 62
7
  6
BYLAYER
 70
0
 71
3
 72
18
 73
14
 74
0
 42
0.0000001
 43
0.0000001
 44
0.0000000001
 40
0.0
 40
0.0
 40
0.0
 40
0.0
 40
0.0991161915
 40
0.2075811744
 40
0.3197488906
 40
0.4305160097
 40
0.5347640314
 40
0.6271300997
 40
0.70619891
 40
0.7744452887
 40
0.8402405559
 40
0.9136958444
 40
1.0
 40
1.0
 40
1.0
 40
1.0
 10
121.4860224418
 20
217.5123197298
 30
0.0
 10
121.2302576511
 20
217.3646547405
 30
0.0
 10
120.6539138437
 20
217.1244533769
 30
0.0
 10
119.717023898
 20
216.9292009548
 30
0.0
 10
118.725956434
 20
216.8891112948
 30
0.0
 10
117.7537676833
 20
217.0065870557
 30
0.0
 10
116.8719481008
 20
217.2736159676
 30
0.0
 10
116.1457662708
 20
217.6733414752
 30
0.0
 10
115.6281679975
 20
218.1835138271
 30
0.0
 10
115.3741854222
 20
218.7910702837
 30
0.0
 10
115.4541905689
 20
219.4317569947
 30
0.0
 10
115.8452986051
 20
220.0011056048
 30
0.0
 10
116.2343541576
 20
220.2871505759
 30
0.0
 10
116.4570580766
 20
220.415727976
 30
0.0
  0
SPLINE
  5
3BB
100
AcDbEntity
  8
0
100
AcDbSpline
 62
7
  6
BYLAYER
 70
0
 71
3
 72
18
 73
14
 74
0
 42
0.0000001
 43
0.0000001
 44
0.0000000001
 40
0.0
 40
0.0
 40
0.0
 40
0.0
 40
0.0991161915
 40
0.2075811744
 40
0.3197488906
 40
0.4305160097
 40
0.5347640314
 40
0.6271300997
 40
0.70619891
 40
0.7744452887
 40
0.8402405559
 40
0.9136958444
 40
1.0
 40
1.0
 40
1.0
 40
1.0
 10
116.4570580766
 20
220.415727976
 30
0.0
 10
116.7128228673
 20
220.5633929653
 30
0.0
 10
117.2891666746
 20
220.8035943289
 30
0.0
 10
118.2260566203
 20
220.998846751
 30
0.0
 10
119.2171240844
 20
221.038936411
 30
0.0
 10
120.1893128351
 20
220.9214606501
 30
0.0
 10
121.0711324176
 20
220.6544317382
 30
0.0
 10
121.7973142476
 20
220.2547062306
 30
0.0
 10
122.3149125209
 20
219.7445338787
 30
0.0
 10
122.5688950961
 20
219.1369774221
 30
0.0
 10
122.4888899495
 20
218.4962907111
 30
0.0
 10
122.0977819133
 20
217.9269421011
 30
0.0
 10
121.7087263608
 20
217.6408971299
 30
0.0
 10
121.4860224418
 20
217.5123197298
 30
0.0
  0
SPLINE
  5
3BC
100
AcDbEntity
  8
0
100
AcDbSpline
 62
7
  6
BYLAYER
 70
0
 71
3
 72
18
 73
14
 74
0
 42
0.0000001
 43
0.0000001
 44
0.0000000001
 40
0.0
 40
0.0
 40
0.0
 40
0.0
 40
0.0991161915
 40
0.2075811744
 40
0.3197488906
 40
0.4305160097
 40
0.5347640314
 40
0.6271300997
 40
0.70619891
 40
0.7744452887
 40
0.8402405559
 40
0.9136958444
 40
1.0
 40
1.0
 40
1.0
 40
1.0
 10
166.3874899886
 20
191.5890318178
 30
0.0
 10
166.1317251979
 20
191.4413668285
 30
0.0
 10
165.5553813905
 20
191.2011654648
 30
0.0
 10
164.6184914449
 20
191.0059130428
 30
0.0
 10
163.6274239808
 20
190.9658233828
 30
0.0
 10
162.6552352301
 20
191.0832991437
 30
0.0
 10
161.7734156476
 20
191.3503280556
 30
0.0
 10
161.0472338176
 20
191.7500535631
 30
0.0
 10
160.5296355443
 20
192.2602259151
 30
0.0
 10
160.275652969
 20
192.8677823716
 30
0.0
 10
160.3556581157
 20
193.5084690826
 30
0.0
 10
160.7467661519
 20
194.0778176927
 30
0.0
 10
161.1358217044
 20
194.3638626639
 30
0.0
 10
161.3585256234
 20
194.4924400639
 30
0.0
  0
SPLINE
  5
3BD
100
AcDbEntity
  8
0
100
AcDbSpline
 62
7
  6
BYLAYER
 70
0
 71
3
 72
18
 73
14
 74
0
 42
0.0000001
 43
0.0000001
 44
0.0000000001
 40
0.0
 40
0.0
 40
0.0
 40
0.0
 40
0.0991161915
 40
0.2075811744
 40
0.3197488906
 40
0.4305160097
 40
0.5347640314
 40
0.6271300997
 40
0.70619891
 40
0.7744452887
 40
0.8402405559
 40
0.9136958444
 40
1.0
 40
1.0
 40
1.0
 40
1.0
 10
161.3585256234
 20
194.4924400639
 30
0.0
 10
161.6142904141
 20
194.6401050533
 30
0.0
 10
162.1906342215
 20
194.8803064169
 30
0.0
 10
163.1275241672
 20
195.0755588389
 30
0.0
 10
164.1185916312
 20
195.115648499
 30
0.0
 10
165.0907803819
 20
194.9981727381
 30
0.0
 10
165.9725999644
 20
194.7311438262
 30
0.0
 10
166.6987817944
 20
194.3314183186
 30
0.0
 10
167.2163800677
 20
193.8212459667
 30
0.0
 10
167.470362643
 20
193.2136895101
 30
0.0
 10
167.3903574963
 20
192.5730027991
 30
0.0
 10
166.9992494601
 20
192.003654189
 30
0.0
 10
166.6101939076
 20
191.7176092178
 30
0.0
 10
166.3874899886
 20
191.5890318178
 30
0.0
  0
SPLINE
  5
3BE
100
AcDbEntity
  8
0
100
AcDbSpline
 62
7
  6
BYLAYER
 70
0
 71
3
 72
18
 73
14
 74
0
 42
0.0000001
 43
0.0000001
 44
0.0000000001
 40
0.0
 40
0.0
 40
0.0
 40
0.0
 40
0.0991161915
 40
0.2075811744
 40
0.3197488906
 40
0.4305160097
 40
0.5347640314
 40
0.6271300997
 40
0.70619891
 40
0.7744452887
 40
0.8402405559
 40
0.9136958444
 40
1.0
 40
1.0
 40
1.0
 40
1.0
 10
143.9367562152
 20
204.5506757738
 30
0.0
 10
143.6809914245
 20
204.4030107845
 30
0.0
 10
143.1046476171
 20
204.1628094208
 30
0.0
 10
142.1677576714
 20
203.9675569988
 30
0.0
 10
141.1766902074
 20
203.9274673388
 30
0.0
 10
140.2045014567
 20
204.0449430997
 30
0.0
 10
139.3226818742
 20
204.3119720116
 30
0.0
 10
138.5965000442
 20
204.7116975191
 30
0.0
 10
138.0789017709
 20
205.2218698711
 30
0.0
 10
137.8249191956
 20
205.8294263276
 30
0.0
 10
137.9049243423
 20
206.4701130387
 30
0.0
 10
138.2960323785
 20
207.0394616487
 30
0.0
 10
138.685087931
 20
207.3255066199
 30
0.0
 10
138.90779185
 20
207.45408402
 30
0.0
  0
SPLINE
  5
3BF
100
AcDbEntity
  8
0
100
AcDbSpline
 62
7
  6
BYLAYER
 70
0
 71
3
 72
18
 73
14
 74
0
 42
0.0000001
 43
0.0000001
 44
0.0000000001
 40
0.0
 40
0.0
 40
0.0
 40
0.0
 40
0.0991161915
 40
0.2075811744
 40
0.3197488906
 40
0.4305160097
 40
0.5347640314
 40
0.6271300997
 40
0.70619891
 40
0.7744452887
 40
0.8402405559
 40
0.9136958444
 40
1.0
 40
1.0
 40
1.0
 40
1.0
 10
138.90779185
 20
207.45408402
 30
0.0
 10
139.1635566407
 20
207.6017490093
 30
0.0
 10
139.7399004481
 20
207.8419503729
 30
0.0
 10
140.6767903937
 20
208.037202795
 30
0.0
 10
141.6678578578
 20
208.077292455
 30
0.0
 10
142.6400466085
 20
207.9598166941
 30
0.0
 10
143.521866191
 20
207.6927877822
 30
0.0
 10
144.248048021
 20
207.2930622746
 30
0.0
 10
144.7656462943
 20
206.7828899227
 30
0.0
 10
145.0196288696
 20
206.1753334661
 30
0.0
 10
144.9396237229
 20
205.5346467551
 30
0.0
 10
144.5485156867
 20
204.965298145
 30
0.0
 10
144.1594601342
 20
204.6792531739
 30
0.0
 10
143.9367562152
 20
204.5506757738
 30
0.0
  0
SPLINE
  5
3C0
100
AcDbEntity
  8
0
100
AcDbSpline
 62
7
  6
BYLAYER
 70
0
 71
3
 72
18
 73
14
 74
0
 42
0.0000001
 43
0.0000001
 44
0.0000000001
 40
0.0
 40
0.0
 40
0.0
 40
0.0
 40
0.0859665567
 40
0.1587958563
 40
0.2239965666
 40
0.2917169918
 40
0.3704730792
 40
0.4624656076
 40
0.5663493495
 40
0.6775262053
 40
0.7908251106
 40
0.9004392983
 40
1.0
 40
1.0
 40
1.0
 40
1.0
 10
121.4860224418
 20
215.8531868182
 30
0.0
 10
121.7078602252
 20
215.9812641577
 30
0.0
 10
122.0946678709
 20
216.2654535661
 30
0.0
 10
122.4844754956
 20
216.8292395161
 30
0.0
 10
122.5701087867
 20
217.4631081444
 30
0.0
 10
122.3256514733
 20
218.0698484414
 30
0.0
 10
121.8151584941
 20
218.5825127732
 30
0.0
 10
121.0943287002
 20
218.9855835612
 30
0.0
 10
120.2148330978
 20
219.2571017976
 30
0.0
 10
119.2395872163
 20
219.3792617691
 30
0.0
 10
118.240251341
 20
219.3419608631
 30
0.0
 10
117.2949293547
 20
219.1466687022
 30
0.0
 10
116.7139757226
 20
218.9049256511
 30
0.0
 10
116.4570580766
 20
218.7565950644
 30
0.0
  0
SPLINE
  5
3C1
100
AcDbEntity
  8
0
100
AcDbSpline
 62
7
  6
BYLAYER
 70
0
 71
3
 72
18
 73
14
 74
0
 42
0.0000001
 43
0.0000001
 44
0.0000000001
 40
0.0
 40
0.0
 40
0.0
 40
0.0
 40
0.0859665567
 40
0.1587958563
 40
0.2239965666
 40
0.2917169918
 40
0.3704730792
 40
0.4624656076
 40
0.5663493495
 40
0.6775262053
 40
0.7908251106
 40
0.9004392983
 40
1.0
 40
1.0
 40
1.0
 40
1.0
 10
116.4570580766
 20
218.7565950644
 30
0.0
 10
116.2352202931
 20
218.6285177249
 30
0.0
 10
115.8484126475
 20
218.3443283165
 30
0.0
 10
115.4586050227
 20
217.7805423665
 30
0.0
 10
115.3729717317
 20
217.1466737382
 30
0.0
 10
115.6174290451
 20
216.5399334411
 30
0.0
 10
116.1279220243
 20
216.0272691094
 30
0.0
 10
116.8487518182
 20
215.6241983214
 30
0.0
 10
117.7282474206
 20
215.352680085
 30
0.0
 10
118.7034933021
 20
215.2305201135
 30
0.0
 10
119.7028291774
 20
215.2678210195
 30
0.0
 10
120.6481511636
 20
215.4631131804
 30
0.0
 10
121.2291047957
 20
215.7048562315
 30
0.0
 10
121.4860224418
 20
215.8531868182
 30
0.0
  0
SPLINE
  5
3C2
100
AcDbEntity
  8
0
100
AcDbSpline
 62
7
  6
BYLAYER
 70
0
 71
3
 72
18
 73
14
 74
0
 42
0.0000001
 43
0.0000001
 44
0.0000000001
 40
0.0
 40
0.0
 40
0.0
 40
0.0
 40
0.0859665567
 40
0.1587958563
 40
0.2239965666
 40
0.2917169918
 40
0.3704730792
 40
0.4624656076
 40
0.5663493495
 40
0.6775262053
 40
0.7908251106
 40
0.9004392983
 40
1.0
 40
1.0
 40
1.0
 40
1.0
 10
166.3874899886
 20
189.9298989062
 30
0.0
 10
166.6093277721
 20
190.0579762457
 30
0.0
 10
166.9961354177
 20
190.342165654
 30
0.0
 10
167.3859430424
 20
190.9059516041
 30
0.0
 10
167.4715763335
 20
191.5398202324
 30
0.0
 10
167.2271190201
 20
192.1465605294
 30
0.0
 10
166.7166260409
 20
192.6592248611
 30
0.0
 10
165.995796247
 20
193.0622956492
 30
0.0
 10
165.1163006446
 20
193.3338138855
 30
0.0
 10
164.1410547631
 20
193.4559738571
 30
0.0
 10
163.1417188878
 20
193.418672951
 30
0.0
 10
162.1963969016
 20
193.2233807901
 30
0.0
 10
161.6154432695
 20
192.981637739
 30
0.0
 10
161.3585256234
 20
192.8333071523
 30
0.0
  0
SPLINE
  5
3C3
100
AcDbEntity
  8
0
100
AcDbSpline
 62
7
  6
BYLAYER
 70
0
 71
3
 72
18
 73
14
 74
0
 42
0.0000001
 43
0.0000001
 44
0.0000000001
 40
0.0
 40
0.0
 40
0.0
 40
0.0
 40
0.0859665567
 40
0.1587958563
 40
0.2239965666
 40
0.2917169918
 40
0.3704730792
 40
0.4624656076
 40
0.5663493495
 40
0.6775262053
 40
0.7908251106
 40
0.9004392983
 40
1.0
 40
1.0
 40
1.0
 40
1.0
 10
161.3585256234
 20
192.8333071523
 30
0.0
 10
161.1366878399
 20
192.7052298129
 30
0.0
 10
160.7498801943
 20
192.4210404045
 30
0.0
 10
160.3600725696
 20
191.8572544544
 30
0.0
 10
160.2744392785
 20
191.2233858261
 30
0.0
 10
160.5188965919
 20
190.6166455291
 30
0.0
 10
161.0293895711
 20
190.1039811974
 30
0.0
 10
161.750219365
 20
189.7009104093
 30
0.0
 10
162.6297149674
 20
189.429392173
 30
0.0
 10
163.6049608489
 20
189.3072322015
 30
0.0
 10
164.6042967242
 20
189.3445331075
 30
0.0
 10
165.5496187105
 20
189.5398252684
 30
0.0
 10
166.1305723425
 20
189.7815683195
 30
0.0
 10
166.3874899886
 20
189.9298989062
 30
0.0
  0
SPLINE
  5
3C4
100
AcDbEntity
  8
0
100
AcDbSpline
 62
7
  6
BYLAYER
 70
0
 71
3
 72
18
 73
14
 74
0
 42
0.0000001
 43
0.0000001
 44
0.0000000001
 40
0.0
 40
0.0
 40
0.0
 40
0.0
 40
0.0859665567
 40
0.1587958563
 40
0.2239965666
 40
0.2917169918
 40
0.3704730792
 40
0.4624656076
 40
0.5663493495
 40
0.6775262053
 40
0.7908251106
 40
0.9004392983
 40
1.0
 40
1.0
 40
1.0
 40
1.0
 10
143.9367562152
 20
202.8915428622
 30
0.0
 10
144.1585939987
 20
203.0196202017
 30
0.0
 10
144.5454016443
 20
203.30380961
 30
0.0
 10
144.935209269
 20
203.8675955601
 30
0.0
 10
145.0208425601
 20
204.5014641884
 30
0.0
 10
144.7763852467
 20
205.1082044854
 30
0.0
 10
144.2658922675
 20
205.6208688171
 30
0.0
 10
143.5450624736
 20
206.0239396052
 30
0.0
 10
142.6655668712
 20
206.2954578415
 30
0.0
 10
141.6903209897
 20
206.4176178131
 30
0.0
 10
140.6909851144
 20
206.380316907
 30
0.0
 10
139.7456631281
 20
206.1850247461
 30
0.0
 10
139.1647094961
 20
205.9432816951
 30
0.0
 10
138.90779185
 20
205.7949511084
 30
0.0
  0
SPLINE
  5
3C5
100
AcDbEntity
  8
0
100
AcDbSpline
 62
7
  6
BYLAYER
 70
0
 71
3
 72
18
 73
14
 74
0
 42
0.0000001
 43
0.0000001
 44
0.0000000001
 40
0.0
 40
0.0
 40
0.0
 40
0.0
 40
0.0859665567
 40
0.1587958563
 40
0.2239965666
 40
0.2917169918
 40
0.3704730792
 40
0.4624656076
 40
0.5663493495
 40
0.6775262053
 40
0.7908251106
 40
0.9004392983
 40
1.0
 40
1.0
 40
1.0
 40
1.0
 10
138.90779185
 20
205.7949511084
 30
0.0
 10
138.6859540665
 20
205.6668737689
 30
0.0
 10
138.2991464209
 20
205.3826843605
 30
0.0
 10
137.9093387962
 20
204.8188984104
 30
0.0
 10
137.8237055051
 20
204.1850297821
 30
0.0
 10
138.0681628185
 20
203.5782894851
 30
0.0
 10
138.5786557977
 20
203.0656251534
 30
0.0
 10
139.2994855916
 20
202.6625543654
 30
0.0
 10
140.178981194
 20
202.391036129
 30
0.0
 10
141.1542270755
 20
202.2688761575
 30
0.0
 10
142.1535629508
 20
202.3061770635
 30
0.0
 10
143.0988849371
 20
202.5014692244
 30
0.0
 10
143.6798385691
 20
202.7432122755
 30
0.0
 10
143.9367562152
 20
202.8915428622
 30
0.0
  0
SPLINE
  5
3C6
100
AcDbEntity
  8
0
100
AcDbSpline
 62
7
  6
BYLAYER
 70
0
 71
3
 72
15
 73
11
 74
0
 42
0.0000001
 43
0.0000001
 44
0.0000000001
 40
0.0
 40
0.0
 40
0.0
 40
0.0
 40
0.1224751935
 40
0.2579631682
 40
0.403017815
 40
0.5529603924
 40
0.6958385009
 40
0.8177866472
 40
0.9183354399
 40
1.0
 40
1.0
 40
1.0
 40
1.0
 10
152.6458896379
 20
108.7471048521
 30
0.0
 10
152.6119873862
 20
108.8733171628
 30
0.0
 10
152.5640251777
 20
109.145936773
 30
0.0
 10
152.5620050364
 20
109.5779025858
 30
0.0
 10
152.6344522571
 20
110.0334444302
 30
0.0
 10
152.7763603975
 20
110.4802906545
 30
0.0
 10
152.9660839994
 20
110.8814714243
 30
0.0
 10
153.1741489599
 20
111.2122339771
 30
0.0
 10
153.377690324
 20
111.4658697162
 30
0.0
 10
153.5184278224
 20
111.6012561291
 30
0.0
 10
153.5865127393
 20
111.6556413676
 30
0.0
  0
SPLINE
  5
3C7
100
AcDbEntity
  8
0
100
AcDbSpline
 62
7
  6
BYLAYER
 70
0
 71
3
 72
18
 73
14
 74
0
 42
0.0000001
 43
0.0000001
 44
0.0000000001
 40
0.0
 40
0.0
 40
0.0
 40
0.0
 40
0.0658083221
 40
0.1381093124
 40
0.2223764785
 40
0.3196719108
 40
0.4276053716
 40
0.5401891271
 40
0.6518465532
 40
0.7565273679
 40
0.8501437388
 40
0.930745607
 40
1.0
 40
1.0
 40
1.0
 40
1.0
 10
155.0917120584
 20
112.5246634123
 30
0.0
 10
155.2449209403
 20
112.6470444324
 30
0.0
 10
155.6395937214
 20
112.8220961368
 30
0.0
 10
156.3188770481
 20
112.7797500548
 30
0.0
 10
157.0252947454
 20
112.4834860215
 30
0.0
 10
157.7232039087
 20
111.9656528895
 30
0.0
 10
158.3661829131
 20
111.263749592
 30
0.0
 10
158.9068362419
 20
110.4295149099
 30
0.0
 10
159.3027326827
 20
109.5280956276
 30
0.0
 10
159.5245312773
 20
108.6260328699
 30
0.0
 10
159.5531493397
 20
107.7880425626
 30
0.0
 10
159.3806841192
 20
107.0709188744
 30
0.0
 10
159.1053539723
 20
106.6966679208
 30
0.0
 10
158.944122265
 20
106.5678783848
 30
0.0
  0
SPLINE
  5
3C8
100
AcDbEntity
  8
0
100
AcDbSpline
 62
7
  6
BYLAYER
 70
0
 71
3
 72
18
 73
14
 74
0
 42
0.0000001
 43
0.0000001
 44
0.0000000001
 40
0.0
 40
0.0
 40
0.0
 40
0.0
 40
0.0658083221
 40
0.1381093124
 40
0.2223764785
 40
0.3196719108
 40
0.4276053716
 40
0.5401891271
 40
0.6518465532
 40
0.7565273679
 40
0.8501437388
 40
0.930745607
 40
1.0
 40
1.0
 40
1.0
 40
1.0
 10
158.944122265
 20
106.5678783848
 30
0.0
 10
158.7909133832
 20
106.4454973647
 30
0.0
 10
158.396240602
 20
106.2704456603
 30
0.0
 10
157.7169572754
 20
106.3127917424
 30
0.0
 10
157.010539578
 20
106.6090557757
 30
0.0
 10
156.3126304147
 20
107.1268889077
 30
0.0
 10
155.6696514104
 20
107.8287922052
 30
0.0
 10
155.1289980816
 20
108.6630268873
 30
0.0
 10
154.7331016407
 20
109.5644461695
 30
0.0
 10
154.5113030461
 20
110.4665089273
 30
0.0
 10
154.4826849837
 20
111.3044992345
 30
0.0
 10
154.6551502043
 20
112.0216229227
 30
0.0
 10
154.9304803511
 20
112.3958738763
 30
0.0
 10
155.0917120584
 20
112.5246634123
 30
0.0
  0
SPLINE
  5
3C9
100
AcDbEntity
  8
0
100
AcDbSpline
 62
7
  6
BYLAYER
 70
0
 71
3
 72
12
 73
8
 74
0
 42
0.0000001
 43
0.0000001
 44
0.0000000001
 40
0.0
 40
0.0
 40
0.0
 40
0.0
 40
0.1592760983
 40
0.3340966938
 40
0.5458402144
 40
0.7774712183
 40
1.0
 40
1.0
 40
1.0
 40
1.0
 10
134.5710895677
 20
109.956966077
 30
0.0
 10
134.7359223014
 20
109.8953628525
 30
0.0
 10
135.0588425662
 20
109.6975785303
 30
0.0
 10
135.4469215993
 20
109.2282540808
 30
0.0
 10
135.7851963074
 20
108.6335696256
 30
0.0
 10
136.1035154304
 20
107.9702734285
 30
0.0
 10
136.3203350706
 20
107.5177168119
 30
0.0
 10
136.432012374
 20
107.2986957148
 30
0.0
  0
SPLINE
  5
3CA
100
AcDbEntity
  8
0
100
AcDbSpline
 62
7
  6
BYLAYER
 70
0
 71
3
 72
18
 73
14
 74
0
 42
0.0000001
 43
0.0000001
 44
0.0000000001
 40
0.0
 40
0.0
 40
0.0
 40
0.0
 40
0.0913167472
 40
0.1943509165
 40
0.3044628919
 40
0.4168462489
 40
0.5261591586
 40
0.6260719523
 40
0.713377426
 40
0.7875950794
 40
0.8538675062
 40
0.9219013215
 40
1.0
 40
1.0
 40
1.0
 40
1.0
 10
136.0762888868
 20
110.8259881217
 30
0.0
 10
136.3311631283
 20
110.7307335278
 30
0.0
 10
136.8420099519
 20
110.4420591853
 30
0.0
 10
137.5212443225
 20
109.8334695096
 30
0.0
 10
138.1218813597
 20
109.0658685323
 30
0.0
 10
138.6001518232
 20
108.1957678397
 30
0.0
 10
138.9201786674
 20
107.2874802193
 30
0.0
 10
139.0566861319
 20
106.4083028724
 30
0.0
 10
138.9968494046
 20
105.622865496
 30
0.0
 10
138.7322525436
 20
104.9797848527
 30
0.0
 10
138.2472409084
 20
104.5498579472
 30
0.0
 10
137.6018895404
 20
104.4213980699
 30
0.0
 10
137.1675406644
 20
104.5216057063
 30
0.0
 10
136.9495593844
 20
104.6030722296
 30
0.0
  0
SPLINE
  5
3CB
100
AcDbEntity
  8
0
100
AcDbSpline
 62
7
  6
BYLAYER
 70
0
 71
3
 72
18
 73
14
 74
0
 42
0.0000001
 43
0.0000001
 44
0.0000000001
 40
0.0
 40
0.0
 40
0.0
 40
0.0
 40
0.0913167472
 40
0.1943509165
 40
0.3044628919
 40
0.4168462489
 40
0.5261591586
 40
0.6260719523
 40
0.713377426
 40
0.7875950794
 40
0.8538675062
 40
0.9219013215
 40
1.0
 40
1.0
 40
1.0
 40
1.0
 10
136.9495593844
 20
104.6030722296
 30
0.0
 10
136.694685143
 20
104.6983268235
 30
0.0
 10
136.1838383194
 20
104.987001166
 30
0.0
 10
135.5046039487
 20
105.5955908416
 30
0.0
 10
134.9039669116
 20
106.363191819
 30
0.0
 10
134.425696448
 20
107.2332925116
 30
0.0
 10
134.1056696039
 20
108.141580132
 30
0.0
 10
133.9691621394
 20
109.0207574789
 30
0.0
 10
134.0289988667
 20
109.8061948553
 30
0.0
 10
134.2935957277
 20
110.4492754986
 30
0.0
 10
134.7786073629
 20
110.879202404
 30
0.0
 10
135.4239587309
 20
111.0076622814
 30
0.0
 10
135.8583076068
 20
110.907454645
 30
0.0
 10
136.0762888868
 20
110.8259881217
 30
0.0
  0
SPLINE
  5
3CC
100
AcDbEntity
  8
0
100
AcDbSpline
 62
7
  6
BYLAYER
 70
0
 71
3
 72
15
 73
11
 74
0
 42
0.0000001
 43
0.0000001
 44
0.0000000001
 40
0.0
 40
0.0
 40
0.0
 40
0.0
 40
0.0837032242
 40
0.1909802008
 40
0.3193318962
 40
0.4640639327
 40
0.6132067617
 40
0.7519972641
 40
0.8798555622
 40
1.0
 40
1.0
 40
1.0
 40
1.0
 10
109.9206928824
 20
128.0025164839
 30
0.0
 10
110.0139018401
 20
128.0112395521
 30
0.0
 10
110.2278143683
 20
128.0182768072
 30
0.0
 10
110.5847581229
 20
127.9962414288
 30
0.0
 10
111.005745978
 20
127.930674601
 30
0.0
 10
111.4637116193
 20
127.8119003876
 30
0.0
 10
111.9164599522
 20
127.6375368697
 30
0.0
 10
112.3258769622
 20
127.4136924788
 30
0.0
 10
112.6715403212
 20
127.1507629687
 30
0.0
 10
112.8633599598
 20
126.9484429746
 30
0.0
 10
112.9475481747
 20
126.8437123416
 30
0.0
  0
SPLINE
  5
3CD
100
AcDbEntity
  8
0
100
AcDbSpline
 62
7
  6
BYLAYER
 70
0
 71
3
 72
18
 73
14
 74
0
 42
0.0000001
 43
0.0000001
 44
0.0000000001
 40
0.0
 40
0.0
 40
0.0
 40
0.0
 40
0.1130941051
 40
0.2251839614
 40
0.3301576357
 40
0.4242231529
 40
0.5055019924
 40
0.5750362752
 40
0.640336397
 40
0.7111738442
 40
0.794519297
 40
0.8919801234
 40
1.0
 40
1.0
 40
1.0
 40
1.0
 10
114.4527474938
 20
127.7127343863
 30
0.0
 10
114.6638786254
 20
127.4500860203
 30
0.0
 10
115.0394664241
 20
126.8896514331
 30
0.0
 10
115.4502577603
 20
125.9911561894
 30
0.0
 10
115.6883271384
 20
125.089785563
 30
0.0
 10
115.7367101148
 20
124.2489180149
 30
0.0
 10
115.5871536449
 20
123.5232327502
 30
0.0
 10
115.2244310114
 20
122.9649830009
 30
0.0
 10
114.6588656904
 20
122.6650546028
 30
0.0
 10
113.9845447567
 20
122.6693764237
 30
0.0
 10
113.273278476
 20
122.9380847322
 30
0.0
 10
112.5642080183
 20
123.4377374746
 30
0.0
 10
112.1399235565
 20
123.8845950956
 30
0.0
 10
111.9382653112
 20
124.1354591354
 30
0.0
  0
SPLINE
  5
3CE
100
AcDbEntity
  8
0
100
AcDbSpline
 62
7
  6
BYLAYER
 70
0
 71
3
 72
18
 73
14
 74
0
 42
0.0000001
 43
0.0000001
 44
0.0000000001
 40
0.0
 40
0.0
 40
0.0
 40
0.0
 40
0.1130941051
 40
0.2251839614
 40
0.3301576357
 40
0.4242231529
 40
0.5055019924
 40
0.5750362752
 40
0.640336397
 40
0.7111738442
 40
0.794519297
 40
0.8919801234
 40
1.0
 40
1.0
 40
1.0
 40
1.0
 10
111.9382653112
 20
124.1354591354
 30
0.0
 10
111.7271341795
 20
124.3981075013
 30
0.0
 10
111.3515463809
 20
124.9585420885
 30
0.0
 10
110.9407550447
 20
125.8570373323
 30
0.0
 10
110.7026856665
 20
126.7584079587
 30
0.0
 10
110.6543026902
 20
127.5992755067
 30
0.0
 10
110.80385916
 20
128.3249607715
 30
0.0
 10
111.1665817935
 20
128.8832105208
 30
0.0
 10
111.7321471146
 20
129.1831389188
 30
0.0
 10
112.4064680483
 20
129.178817098
 30
0.0
 10
113.117734329
 20
128.9101087895
 30
0.0
 10
113.8268047867
 20
128.410456047
 30
0.0
 10
114.2510892484
 20
127.9635984261
 30
0.0
 10
114.4527474938
 20
127.7127343863
 30
0.0
  0
SPLINE
  5
3CF
100
AcDbEntity
  8
0
100
AcDbSpline
 62
7
  6
BYLAYER
 70
0
 71
3
 72
15
 73
11
 74
0
 42
0.0000001
 43
0.0000001
 44
0.0000000001
 40
0.0
 40
0.0
 40
0.0
 40
0.0
 40
0.1208835678
 40
0.2500521455
 40
0.3897436951
 40
0.5389164757
 40
0.6840696119
 40
0.8112334327
 40
0.9168186826
 40
1.0
 40
1.0
 40
1.0
 40
1.0
 10
98.8337838969
 20
154.4143839088
 30
0.0
 10
98.8669767055
 20
154.2899155124
 30
0.0
 10
98.913697759
 20
154.0260539962
 30
0.0
 10
98.9157107771
 20
153.6088997419
 30
0.0
 10
98.8468357849
 20
153.1670265195
 30
0.0
 10
98.7103085612
 20
152.7235909371
 30
0.0
 10
98.523184901
 20
152.3139707683
 30
0.0
 10
98.3121845838
 20
151.9697799787
 30
0.0
 10
98.1019553788
 20
151.7057762217
 30
0.0
 10
97.9558301653
 20
151.5661914398
 30
0.0
 10
97.8863121764
 20
151.5111957722
 30
0.0
  0
SPLINE
  5
3D0
100
AcDbEntity
  8
0
100
AcDbSpline
 62
7
  6
BYLAYER
 70
0
 71
3
 72
15
 73
11
 74
0
 42
0.0000001
 43
0.0000001
 44
0.0000000001
 40
0.0
 40
0.0
 40
0.0
 40
0.0
 40
0.1039233599
 40
0.2267106101
 40
0.3636911397
 40
0.5092481196
 40
0.6521770753
 40
0.7800152978
 40
0.8944327035
 40
1.0
 40
1.0
 40
1.0
 40
1.0
 10
96.394375161
 20
157.1057512038
 30
0.0
 10
96.4954625029
 20
157.0271396954
 30
0.0
 10
96.7171897765
 20
156.8572037611
 30
0.0
 10
97.071765008
 20
156.5831262722
 30
0.0
 10
97.4598756016
 20
156.2686319276
 30
0.0
 10
97.8516617857
 20
155.9197955765
 30
0.0
 10
98.2078656649
 20
155.5495481847
 30
0.0
 10
98.4973006545
 20
155.171708197
 30
0.0
 10
98.7076146707
 20
154.7964000404
 30
0.0
 10
98.8002654571
 20
154.5400733763
 30
0.0
 10
98.8337838969
 20
154.4143839088
 30
0.0
  0
SPLINE
  5
3D1
100
AcDbEntity
  8
0
100
AcDbSpline
 62
7
  6
BYLAYER
 70
0
 71
3
 72
18
 73
14
 74
0
 42
0.0000001
 43
0.0000001
 44
0.0000000001
 40
0.0
 40
0.0
 40
0.0
 40
0.0
 40
0.1016284223
 40
0.1902416285
 40
0.2651564195
 40
0.3312743914
 40
0.3979909721
 40
0.4737527004
 40
0.5628752838
 40
0.6643505554
 40
0.7748282809
 40
0.8890989974
 40
1.0
 40
1.0
 40
1.0
 40
1.0
 10
100.338983216
 20
155.2834059535
 30
0.0
 10
100.417012878
 20
154.9908056191
 30
0.0
 10
100.515660388
 20
154.4279775207
 30
0.0
 10
100.4739636501
 20
153.6307410188
 30
0.0
 10
100.2302041433
 20
152.9749325522
 30
0.0
 10
99.7708765889
 20
152.5228773169
 30
0.0
 10
99.1441527011
 20
152.3615757847
 30
0.0
 10
98.4506828907
 20
152.4896774444
 30
0.0
 10
97.7402017832
 20
152.861578661
 30
0.0
 10
97.0521755187
 20
153.4464319367
 30
0.0
 10
96.4339792127
 20
154.2027369681
 30
0.0
 10
95.9339141849
 20
155.0736637171
 30
0.0
 10
95.6984516025
 20
155.7063209929
 30
0.0
 10
95.6133025117
 20
156.0256181907
 30
0.0
  0
SPLINE
  5
3D2
100
AcDbEntity
  8
0
100
AcDbSpline
 62
7
  6
BYLAYER
 70
0
 71
3
 72
18
 73
14
 74
0
 42
0.0000001
 43
0.0000001
 44
0.0000000001
 40
0.0
 40
0.0
 40
0.0
 40
0.0
 40
0.1016284223
 40
0.1902416285
 40
0.2651564195
 40
0.3312743914
 40
0.3979909721
 40
0.4737527004
 40
0.5628752838
 40
0.6643505554
 40
0.7748282809
 40
0.8890989974
 40
1.0
 40
1.0
 40
1.0
 40
1.0
 10
95.6133025117
 20
156.0256181907
 30
0.0
 10
95.5352728497
 20
156.3182185251
 30
0.0
 10
95.4366253397
 20
156.8810466236
 30
0.0
 10
95.4783220776
 20
157.6782831254
 30
0.0
 10
95.7220815844
 20
158.334091592
 30
0.0
 10
96.1814091388
 20
158.7861468274
 30
0.0
 10
96.8081330266
 20
158.9474483596
 30
0.0
 10
97.501602837
 20
158.8193466998
 30
0.0
 10
98.2120839445
 20
158.4474454832
 30
0.0
 10
98.900110209
 20
157.8625922075
 30
0.0
 10
99.518306515
 20
157.1062871762
 30
0.0
 10
100.0183715429
 20
156.2353604271
 30
0.0
 10
100.2538341252
 20
155.6027031513
 30
0.0
 10
100.338983216
 20
155.2834059535
 30
0.0
  0
SPLINE
  5
3D3
100
AcDbEntity
  8
0
100
AcDbSpline
 62
7
  6
BYLAYER
 70
0
 71
3
 72
15
 73
11
 74
0
 42
0.0000001
 43
0.0000001
 44
0.0000000001
 40
0.0
 40
0.0
 40
0.0
 40
0.0
 40
0.0985221493
 40
0.2103500294
 40
0.3385712071
 40
0.4827221836
 40
0.6301489566
 40
0.7671730027
 40
0.8906386412
 40
1.0
 40
1.0
 40
1.0
 40
1.0
 10
98.8337838969
 20
179.7683571385
 30
0.0
 10
98.7997108231
 20
179.6799311773
 30
0.0
 10
98.7039043263
 20
179.4995056834
 30
0.0
 10
98.4927273064
 20
179.2489632161
 30
0.0
 10
98.2048082972
 20
179.0141644219
 30
0.0
 10
97.8507335899
 20
178.8158654462
 30
0.0
 10
97.4595907374
 20
178.678820688
 30
0.0
 10
97.0696214058
 20
178.6178623469
 30
0.0
 10
96.7118511742
 20
178.6319077095
 30
0.0
 10
96.4928015289
 20
178.6872105101
 30
0.0
 10
96.394375161
 20
178.7243187417
 30
0.0
  0
SPLINE
  5
3D4
100
AcDbEntity
  8
0
100
AcDbSpline
 62
7
  6
BYLAYER
 70
0
 71
3
 72
15
 73
11
 74
0
 42
0.0000001
 43
0.0000001
 44
0.0000000001
 40
0.0
 40
0.0
 40
0.0
 40
0.0
 40
0.1349641913
 40
0.2805215308
 40
0.4291118794
 40
0.5739201366
 40
0.7050323457
 40
0.815057649
 40
0.9106492575
 40
1.0
 40
1.0
 40
1.0
 40
1.0
 10
97.8863121764
 20
182.5961726711
 30
0.0
 10
97.9493892993
 20
182.4734388314
 30
0.0
 10
98.0841161748
 20
182.2202021389
 30
0.0
 10
98.2952739147
 20
181.8356201029
 30
0.0
 10
98.5084201542
 20
181.4406292874
 30
0.0
 10
98.6996373507
 20
181.0507231426
 30
0.0
 10
98.8418493066
 20
180.6816467103
 30
0.0
 10
98.9151214483
 20
180.3431638817
 30
0.0
 10
98.914096982
 20
180.0388785249
 30
0.0
 10
98.8666319511
 20
179.8536039462
 30
0.0
 10
98.8337838969
 20
179.7683571385
 30
0.0
  0
SPLINE
  5
3D5
100
AcDbEntity
  8
0
100
AcDbSpline
 62
7
  6
BYLAYER
 70
0
 71
3
 72
18
 73
14
 74
0
 42
0.0000001
 43
0.0000001
 44
0.0000000001
 40
0.0
 40
0.0
 40
0.0
 40
0.0
 40
0.0708644138
 40
0.1361915607
 40
0.2057559676
 40
0.2869852857
 40
0.3820925304
 40
0.4879293491
 40
0.6000833766
 40
0.7124270556
 40
0.819559916
 40
0.9166375021
 40
1.0
 40
1.0
 40
1.0
 40
1.0
 10
100.338983216
 20
180.6373791832
 30
0.0
 10
100.2630604456
 20
180.4403454789
 30
0.0
 10
100.0487031084
 20
180.0777109556
 30
0.0
 10
99.4987512676
 20
179.7509034299
 30
0.0
 10
98.8340103003
 20
179.7275444524
 30
0.0
 10
98.1307498465
 20
179.9689558621
 30
0.0
 10
97.4257919646
 20
180.4400625728
 30
0.0
 10
96.7650127686
 20
181.1059071843
 30
0.0
 10
96.1974837335
 20
181.9155329598
 30
0.0
 10
95.7653130562
 20
182.8089722854
 30
0.0
 10
95.502062381
 20
183.7203333607
 30
0.0
 10
95.429166493
 20
184.5800979574
 30
0.0
 10
95.5239895344
 20
185.1200057732
 30
0.0
 10
95.6133025117
 20
185.351789554
 30
0.0
  0
SPLINE
  5
3D6
100
AcDbEntity
  8
0
100
AcDbSpline
 62
7
  6
BYLAYER
 70
0
 71
3
 72
18
 73
14
 74
0
 42
0.0000001
 43
0.0000001
 44
0.0000000001
 40
0.0
 40
0.0
 40
0.0
 40
0.0
 40
0.0708644138
 40
0.1361915607
 40
0.2057559676
 40
0.2869852857
 40
0.3820925304
 40
0.4879293491
 40
0.6000833766
 40
0.7124270556
 40
0.819559916
 40
0.9166375021
 40
1.0
 40
1.0
 40
1.0
 40
1.0
 10
95.6133025117
 20
185.351789554
 30
0.0
 10
95.6892252821
 20
185.5488232583
 30
0.0
 10
95.9035826193
 20
185.9114577817
 30
0.0
 10
96.4535344601
 20
186.2382653073
 30
0.0
 10
97.1182754274
 20
186.2616242848
 30
0.0
 10
97.8215358812
 20
186.0202128751
 30
0.0
 10
98.5264937631
 20
185.5491061644
 30
0.0
 10
99.1872729591
 20
184.8832615529
 30
0.0
 10
99.7548019942
 20
184.0736357774
 30
0.0
 10
100.1869726716
 20
183.1801964518
 30
0.0
 10
100.4502233467
 20
182.2688353765
 30
0.0
 10
100.5231192347
 20
181.4090707798
 30
0.0
 10
100.4282961933
 20
180.869162964
 30
0.0
 10
100.338983216
 20
180.6373791832
 30
0.0
  0
SPLINE
  5
3D7
100
AcDbEntity
  8
0
100
AcDbSpline
 62
7
  6
BYLAYER
 70
0
 71
3
 72
15
 73
11
 74
0
 42
0.0000001
 43
0.0000001
 44
0.0000000001
 40
0.0
 40
0.0
 40
0.0
 40
0.0
 40
0.1657776964
 40
0.3243981605
 40
0.4658000538
 40
0.5856042452
 40
0.6858372486
 40
0.7789083788
 40
0.8812033154
 40
1.0
 40
1.0
 40
1.0
 40
1.0
 10
113.6984100181
 20
192.5465293868
 30
0.0
 10
113.6986661159
 20
192.4392028755
 30
0.0
 10
113.6993567574
 20
192.2291926825
 30
0.0
 10
113.6946515854
 20
191.9275847492
 30
0.0
 10
113.6740584093
 20
191.6563272711
 30
0.0
 10
113.624446829
 20
191.426003932
 30
0.0
 10
113.5214147107
 20
191.2452944588
 30
0.0
 10
113.3616622479
 20
191.1314036795
 30
0.0
 10
113.1663330079
 20
191.0689797807
 30
0.0
 10
113.0241537694
 20
191.0490694672
 30
0.0
 10
112.9475481747
 20
191.0422261785
 30
0.0
  0
SPLINE
  5
3D8
100
AcDbEntity
  8
0
100
AcDbSpline
 62
7
  6
BYLAYER
 70
0
 71
3
 72
18
 73
14
 74
0
 42
0.0000001
 43
0.0000001
 44
0.0000000001
 40
0.0
 40
0.0
 40
0.0
 40
0.0
 40
0.0751047399
 40
0.163051628
 40
0.2629428981
 40
0.3717942899
 40
0.4849161066
 40
0.5953415195
 40
0.6978597943
 40
0.7881314141
 40
0.8653695586
 40
0.9332130725
 40
1.0
 40
1.0
 40
1.0
 40
1.0
 10
114.4527474938
 20
191.9112482232
 30
0.0
 10
114.2298496951
 20
191.89133644
 30
0.0
 10
113.7352066992
 20
191.9630525968
 30
0.0
 10
113.0262908277
 20
192.3145961937
 30
0.0
 10
112.3370312394
 20
192.8778885348
 30
0.0
 10
111.7144597359
 20
193.6134292652
 30
0.0
 10
111.2038705354
 20
194.467166635
 30
0.0
 10
110.8448651388
 20
195.3748437058
 30
0.0
 10
110.6655459761
 20
196.266228889
 30
0.0
 10
110.6807953946
 20
197.0785310759
 30
0.0
 10
110.8990489116
 20
197.7603387192
 30
0.0
 10
111.3386062414
 20
198.2473267969
 30
0.0
 10
111.7400533321
 20
198.3742251571
 30
0.0
 10
111.9382653112
 20
198.3919317202
 30
0.0
  0
SPLINE
  5
3D9
100
AcDbEntity
  8
0
100
AcDbSpline
 62
7
  6
BYLAYER
 70
0
 71
3
 72
18
 73
14
 74
0
 42
0.0000001
 43
0.0000001
 44
0.0000000001
 40
0.0
 40
0.0
 40
0.0
 40
0.0
 40
0.0751047399
 40
0.163051628
 40
0.2629428981
 40
0.3717942899
 40
0.4849161066
 40
0.5953415195
 40
0.6978597943
 40
0.7881314141
 40
0.8653695586
 40
0.9332130725
 40
1.0
 40
1.0
 40
1.0
 40
1.0
 10
111.9382653112
 20
198.3919317202
 30
0.0
 10
112.1611631099
 20
198.4118435034
 30
0.0
 10
112.6558061058
 20
198.3401273466
 30
0.0
 10
113.3647219772
 20
197.9885837497
 30
0.0
 10
114.0539815655
 20
197.4252914086
 30
0.0
 10
114.6765530691
 20
196.6897506782
 30
0.0
 10
115.1871422695
 20
195.8360133084
 30
0.0
 10
115.5461476662
 20
194.9283362376
 30
0.0
 10
115.7254668288
 20
194.0369510544
 30
0.0
 10
115.7102174104
 20
193.2246488675
 30
0.0
 10
115.4919638934
 20
192.5428412242
 30
0.0
 10
115.0524065635
 20
192.0558531465
 30
0.0
 10
114.6509594729
 20
191.9289547863
 30
0.0
 10
114.4527474938
 20
191.9112482232
 30
0.0
  0
SPLINE
  5
3DA
100
AcDbEntity
  8
0
100
AcDbSpline
 62
7
  6
BYLAYER
 70
0
 71
3
 72
15
 73
11
 74
0
 42
0.0000001
 43
0.0000001
 44
0.0000000001
 40
0.0
 40
0.0
 40
0.0
 40
0.0
 40
0.1028421223
 40
0.2195284609
 40
0.3507519474
 40
0.4948902478
 40
0.6390338433
 40
0.7725177025
 40
0.8930508416
 40
1.0
 40
1.0
 40
1.0
 40
1.0
 10
134.5710895677
 20
182.9608224098
 30
0.0
 10
134.4711818405
 20
183.0388446176
 30
0.0
 10
134.2570394095
 20
183.2042659718
 30
0.0
 10
133.9142964004
 20
183.4677849567
 30
0.0
 10
133.5362226693
 20
183.7688480396
 30
0.0
 10
133.1467769993
 20
184.1095236671
 30
0.0
 10
132.7841896166
 20
184.483271263
 30
0.0
 10
132.4845785587
 20
184.8737739522
 30
0.0
 10
132.2661204562
 20
185.263314963
 30
0.0
 10
132.169888194
 20
185.5283245497
 30
0.0
 10
132.1361509504
 20
185.6557603704
 30
0.0
  0
SPLINE
  5
3DB
100
AcDbEntity
  8
0
100
AcDbSpline
 62
7
  6
BYLAYER
 70
0
 71
3
 72
15
 73
11
 74
0
 42
0.0000001
 43
0.0000001
 44
0.0000000001
 40
0.0
 40
0.0
 40
0.0
 40
0.0
 40
0.1024416549
 40
0.1994033548
 40
0.2975997429
 40
0.4102960423
 40
0.5427456748
 40
0.686780383
 40
0.83948968
 40
1.0
 40
1.0
 40
1.0
 40
1.0
 10
136.432012374
 20
182.3009388576
 30
0.0
 10
136.374227362
 20
182.2543339898
 30
0.0
 10
136.2542393277
 20
182.1718771487
 30
0.0
 10
136.0471672469
 20
182.0989665557
 30
0.0
 10
135.8189740486
 20
182.1070898092
 30
0.0
 10
135.5847984432
 20
182.2000769207
 30
0.0
 10
135.347194961
 20
182.3530982527
 30
0.0
 10
135.1000183063
 20
182.5420295828
 30
0.0
 10
134.8409659924
 20
182.7486315099
 30
0.0
 10
134.6627645342
 20
182.8892295163
 30
0.0
 10
134.5710895677
 20
182.9608224098
 30
0.0
  0
SPLINE
  5
3DC
100
AcDbEntity
  8
0
100
AcDbSpline
 62
7
  6
BYLAYER
 70
0
 71
3
 72
18
 73
14
 74
0
 42
0.0000001
 43
0.0000001
 44
0.0000000001
 40
0.0
 40
0.0
 40
0.0
 40
0.0
 40
0.1056517815
 40
0.2175593237
 40
0.329522639
 40
0.4365041147
 40
0.533995212
 40
0.6181161348
 40
0.6899182166
 40
0.755276706
 40
0.8244097323
 40
0.9054167968
 40
1.0
 40
1.0
 40
1.0
 40
1.0
 10
136.0762888868
 20
183.8298444545
 30
0.0
 10
135.8281746565
 20
184.0236074453
 30
0.0
 10
135.3602067427
 20
184.4790303676
 30
0.0
 10
134.7823311577
 20
185.2778299532
 30
0.0
 10
134.3376845188
 20
186.162623974
 30
0.0
 10
134.0581811032
 20
187.0681685771
 30
0.0
 10
133.9652800957
 20
187.929748841
 30
0.0
 10
134.070031013
 20
188.6873836184
 30
0.0
 10
134.3829402523
 20
189.2895814447
 30
0.0
 10
134.9098355528
 20
189.6561938987
 30
0.0
 10
135.5722421528
 20
189.7176089056
 30
0.0
 10
136.281287293
 20
189.5014983602
 30
0.0
 10
136.7274387698
 20
189.2178807118
 30
0.0
 10
136.9495593844
 20
189.0444172448
 30
0.0
  0
SPLINE
  5
3DD
100
AcDbEntity
  8
0
100
AcDbSpline
 62
7
  6
BYLAYER
 70
0
 71
3
 72
18
 73
14
 74
0
 42
0.0000001
 43
0.0000001
 44
0.0000000001
 40
0.0
 40
0.0
 40
0.0
 40
0.0
 40
0.1056517815
 40
0.2175593237
 40
0.329522639
 40
0.4365041147
 40
0.533995212
 40
0.6181161348
 40
0.6899182166
 40
0.755276706
 40
0.8244097323
 40
0.9054167968
 40
1.0
 40
1.0
 40
1.0
 40
1.0
 10
136.9495593844
 20
189.0444172448
 30
0.0
 10
137.1976736147
 20
188.850654254
 30
0.0
 10
137.6656415285
 20
188.3952313317
 30
0.0
 10
138.2435171136
 20
187.5964317461
 30
0.0
 10
138.6881637524
 20
186.7116377253
 30
0.0
 10
138.9676671681
 20
185.8060931222
 30
0.0
 10
139.0605681756
 20
184.9445128583
 30
0.0
 10
138.9558172582
 20
184.1868780809
 30
0.0
 10
138.6429080189
 20
183.5846802546
 30
0.0
 10
138.1160127185
 20
183.2180678006
 30
0.0
 10
137.4536061184
 20
183.1566527937
 30
0.0
 10
136.7445609782
 20
183.3727633391
 30
0.0
 10
136.2984095015
 20
183.6563809875
 30
0.0
 10
136.0762888868
 20
183.8298444545
 30
0.0
  0
SPLINE
  5
3DE
100
AcDbEntity
  8
0
100
AcDbSpline
 62
7
  6
BYLAYER
 70
0
 71
3
 72
15
 73
11
 74
0
 42
0.0000001
 43
0.0000001
 44
0.0000000001
 40
0.0
 40
0.0
 40
0.0
 40
0.0
 40
0.0935309776
 40
0.2000077762
 40
0.3214164798
 40
0.4584392741
 40
0.6035576255
 40
0.7432592027
 40
0.8752152398
 40
1.0
 40
1.0
 40
1.0
 40
1.0
 10
155.449814046
 20
156.6534267593
 30
0.0
 10
155.3528915962
 20
156.6893312096
 30
0.0
 10
155.1538009845
 20
156.7899672079
 30
0.0
 10
154.876820005
 20
157.0161095925
 30
0.0
 10
154.615608051
 20
157.3256712539
 30
0.0
 10
154.3767202001
 20
157.7032857154
 30
0.0
 10
154.1612805049
 20
158.1169565137
 30
0.0
 10
153.9632866872
 20
158.5327997173
 30
0.0
 10
153.7755420374
 20
158.9286356706
 30
0.0
 10
153.6493491048
 20
159.1827761547
 30
0.0
 10
153.5865127393
 20
159.3055244707
 30
0.0
  0
SPLINE
  5
3DF
100
AcDbEntity
  8
0
100
AcDbSpline
 62
7
  6
BYLAYER
 70
0
 71
3
 72
18
 73
14
 74
0
 42
0.0000001
 43
0.0000001
 44
0.0000000001
 40
0.0
 40
0.0
 40
0.0
 40
0.0
 40
0.1116285758
 40
0.2151633107
 40
0.3061862726
 40
0.3839991148
 40
0.451900114
 40
0.5175296659
 40
0.5907753671
 40
0.676784839
 40
0.7761791291
 40
0.886015206
 40
1.0
 40
1.0
 40
1.0
 40
1.0
 10
155.0917120584
 20
160.1745465154
 30
0.0
 10
154.9401439529
 20
160.4706287209
 30
0.0
 10
154.6934615988
 20
161.0662715777
 30
0.0
 10
154.4966937753
 20
161.9626736452
 30
0.0
 10
154.4935161552
 20
162.7818970807
 30
0.0
 10
154.6891026817
 20
163.4731138729
 30
0.0
 10
155.1005764864
 20
163.9812285497
 30
0.0
 10
155.7003963038
 20
164.2124819399
 30
0.0
 10
156.3848801993
 20
164.1448982712
 30
0.0
 10
157.0957953954
 20
163.8244595971
 30
0.0
 10
157.7960435178
 20
163.2812757225
 30
0.0
 10
158.4358082166
 20
162.5551015045
 30
0.0
 10
158.7893549113
 20
161.9853838453
 30
0.0
 10
158.944122265
 20
161.6830520368
 30
0.0
  0
SPLINE
  5
3E0
100
AcDbEntity
  8
0
100
AcDbSpline
 62
7
  6
BYLAYER
 70
0
 71
3
 72
18
 73
14
 74
0
 42
0.0000001
 43
0.0000001
 44
0.0000000001
 40
0.0
 40
0.0
 40
0.0
 40
0.0
 40
0.1116285758
 40
0.2151633107
 40
0.3061862726
 40
0.3839991148
 40
0.451900114
 40
0.5175296659
 40
0.5907753671
 40
0.676784839
 40
0.7761791291
 40
0.886015206
 40
1.0
 40
1.0
 40
1.0
 40
1.0
 10
158.944122265
 20
161.6830520368
 30
0.0
 10
159.0956903705
 20
161.3869698313
 30
0.0
 10
159.3423727246
 20
160.7913269745
 30
0.0
 10
159.5391405481
 20
159.8949249069
 30
0.0
 10
159.5423181683
 20
159.0757014715
 30
0.0
 10
159.3467316417
 20
158.3844846793
 30
0.0
 10
158.9352578371
 20
157.8763700025
 30
0.0
 10
158.3354380196
 20
157.6451166123
 30
0.0
 10
157.6509541241
 20
157.712700281
 30
0.0
 10
156.940038928
 20
158.0331389551
 30
0.0
 10
156.2397908056
 20
158.5763228297
 30
0.0
 10
155.6000261069
 20
159.3024970477
 30
0.0
 10
155.2464794121
 20
159.8722147069
 30
0.0
 10
155.0917120584
 20
160.1745465154
 30
0.0
  0
SPLINE
  5
3E1
100
AcDbEntity
  8
0
100
AcDbSpline
 62
7
  6
BYLAYER
 70
0
 71
3
 72
12
 73
8
 74
0
 42
0.0000001
 43
0.0000001
 44
0.0000000001
 40
0.0
 40
0.0
 40
0.0
 40
0.0
 40
0.267304317
 40
0.4827664117
 40
0.6498612634
 40
0.8062811375
 40
1.0
 40
1.0
 40
1.0
 40
1.0
 10
161.0962898545
 20
131.1449091662
 30
0.0
 10
161.0962898545
 20
131.3174587997
 30
0.0
 10
161.0968839608
 20
131.6299534256
 30
0.0
 10
161.1114399857
 20
132.0463639059
 30
0.0
 10
161.2096824443
 20
132.3971633901
 30
0.0
 10
161.5009058406
 20
132.601049544
 30
0.0
 10
161.7285755986
 20
132.6311181214
 30
0.0
 10
161.8531742724
 20
132.6417202565
 30
0.0
  0
SPLINE
  5
3E2
100
AcDbEntity
  8
0
100
AcDbSpline
 62
7
  6
BYLAYER
 70
0
 71
3
 72
18
 73
14
 74
0
 42
0.0000001
 43
0.0000001
 44
0.0000000001
 40
0.0
 40
0.0
 40
0.0
 40
0.0
 40
0.0859673236
 40
0.1587978638
 40
0.2239998282
 40
0.291720921
 40
0.3704768865
 40
0.4624687028
 40
0.5663514359
 40
0.6775272635
 40
0.790825354
 40
0.9004391394
 40
1.0
 40
1.0
 40
1.0
 40
1.0
 10
162.6014891736
 20
132.0139312109
 30
0.0
 10
162.6014891736
 20
132.2700913183
 30
0.0
 10
162.6542033446
 20
132.747180858
 30
0.0
 10
162.9475578719
 20
133.3666703859
 30
0.0
 10
163.4536913793
 20
133.7577820149
 30
0.0
 10
164.101379855
 20
133.8494664951
 30
0.0
 10
164.8006171815
 20
133.663715895
 30
0.0
 10
165.5101110042
 20
133.241007566
 30
0.0
 10
166.1850083233
 20
132.6151106659
 30
0.0
 10
166.7784308564
 20
131.8316082221
 30
0.0
 10
167.245799094
 20
130.9475080819
 30
0.0
 10
167.5493335216
 20
130.0311848159
 30
0.0
 10
167.6304535389
 20
129.4071882519
 30
0.0
 10
167.6304535389
 20
129.1105229647
 30
0.0
  0
SPLINE
  5
3E3
100
AcDbEntity
  8
0
100
AcDbSpline
 62
7
  6
BYLAYER
 70
0
 71
3
 72
18
 73
14
 74
0
 42
0.0000001
 43
0.0000001
 44
0.0000000001
 40
0.0
 40
0.0
 40
0.0
 40
0.0
 40
0.0859673236
 40
0.1587978638
 40
0.2239998282
 40
0.291720921
 40
0.3704768865
 40
0.4624687028
 40
0.5663514359
 40
0.6775272635
 40
0.790825354
 40
0.9004391394
 40
1.0
 40
1.0
 40
1.0
 40
1.0
 10
167.6304535389
 20
129.1105229647
 30
0.0
 10
167.6304535389
 20
128.8543628573
 30
0.0
 10
167.5777393679
 20
128.3772733177
 30
0.0
 10
167.2843848406
 20
127.7577837898
 30
0.0
 10
166.7782513332
 20
127.3666721608
 30
0.0
 10
166.1305628575
 20
127.2749876806
 30
0.0
 10
165.431325531
 20
127.4607382807
 30
0.0
 10
164.7218317083
 20
127.8834466096
 30
0.0
 10
164.0469343892
 20
128.5093435097
 30
0.0
 10
163.4535118561
 20
129.2928459536
 30
0.0
 10
162.9861436184
 20
130.1769460937
 30
0.0
 10
162.6826091909
 20
131.0932693597
 30
0.0
 10
162.6014891736
 20
131.7172659237
 30
0.0
 10
162.6014891736
 20
132.0139312109
 30
0.0
  0
SPLINE
  5
3E4
100
AcDbEntity
  8
0
100
AcDbSpline
 62
7
  6
BYLAYER
 70
0
 71
3
 72
21
 73
17
 74
0
 42
0.0000001
 43
0.0000001
 44
0.0000000001
 40
0.0
 40
0.0
 40
0.0
 40
0.0
 40
0.0699531668
 40
0.144165014
 40
0.2217636075
 40
0.3017120426
 40
0.3829029429
 40
0.4641377975
 40
0.5442240531
 40
0.6220346983
 40
0.6965563586
 40
0.7669283505
 40
0.8325316072
 40
0.8930591248
 40
0.9486551275
 40
1.0
 40
1.0
 40
1.0
 40
1.0
 10
163.7071067974
 20
134.5195480606
 30
0.0
 10
163.7071067974
 20
136.4273999347
 30
0.0
 10
163.4348836705
 20
140.3621327705
 30
0.0
 10
162.3204859625
 20
146.3180228195
 30
0.0
 10
160.5196594768
 20
152.3879195353
 30
0.0
 10
158.0783966247
 20
158.4340685891
 30
0.0
 10
155.0546073033
 20
164.3222318901
 30
0.0
 10
151.5170874927
 20
169.9212322775
 30
0.0
 10
147.5447316893
 20
175.1054457894
 30
0.0
 10
143.2243577544
 20
179.7577242193
 30
0.0
 10
138.6494279533
 20
183.770748577
 30
0.0
 10
133.9187568234
 20
187.0483328165
 30
0.0
 10
129.1367121274
 20
189.5068346025
 30
0.0
 10
124.4108645867
 20
191.0772631217
 30
0.0
 10
119.8592694892
 20
191.7108953373
 30
0.0
 10
116.920983014
 20
191.4846471522
 30
0.0
 10
115.5488447903
 20
191.2050106693
 30
0.0
  0
SPLINE
  5
3E5
100
AcDbEntity
  8
0
100
AcDbSpline
 62
7
  6
BYLAYER
 70
0
 71
3
 72
11
 73
7
 74
0
 42
0.0000001
 43
0.0000001
 44
0.0000000001
 40
0.0
 40
0.0
 40
0.0
 40
0.0
 40
0.2209370201
 40
0.4598046536
 40
0.7193511882
 40
1.0
 40
1.0
 40
1.0
 40
1.0
 10
158.2371753946
 20
117.26621182
 30
0.0
 10
159.1388801256
 20
118.2847152171
 30
0.0
 10
160.7626523685
 20
120.6377377798
 30
0.0
 10
162.4726234018
 20
124.751859491
 30
0.0
 10
163.4986555508
 20
129.4595851229
 30
0.0
 10
163.7071067974
 20
132.7916029519
 30
0.0
 10
163.7071067974
 20
134.5195480606
 30
0.0
  0
SPLINE
  5
3E6
100
AcDbEntity
  8
0
100
AcDbSpline
 62
7
  6
BYLAYER
 70
0
 71
3
 72
12
 73
8
 74
0
 42
0.0000001
 43
0.0000001
 44
0.0000000001
 40
0.0
 40
0.0
 40
0.0
 40
0.0
 40
0.2059553451
 40
0.4277274547
 40
0.66254681
 40
0.9068064694
 40
1.0
 40
1.0
 40
1.0
 40
1.0
 10
161.0911607891
 20
131.2434910941
 30
0.0
 10
161.0911607891
 20
133.1685738278
 30
0.0
 10
160.8164722351
 20
137.1692725453
 30
0.0
 10
159.6898606217
 20
143.2699623072
 30
0.0
 10
157.846698371
 20
149.5674204474
 30
0.0
 10
155.8641161103
 20
154.5435621167
 30
0.0
 10
154.5182429367
 20
157.3978481104
 30
0.0
 10
154.1334356786
 20
158.1796509079
 30
0.0
  0
SPLINE
  5
3E7
100
AcDbEntity
  8
0
100
AcDbSpline
 62
7
  6
BYLAYER
 70
0
 71
3
 72
13
 73
9
 74
0
 42
0.0000001
 43
0.0000001
 44
0.0000000001
 40
0.0
 40
0.0
 40
0.0
 40
0.0
 40
0.0658460533
 40
0.3081136353
 40
0.5466050993
 40
0.7770636766
 40
0.9956459943
 40
1.0
 40
1.0
 40
1.0
 40
1.0
 10
153.0058580108
 20
160.3818500465
 30
0.0
 10
152.7074379006
 20
160.942690139
 30
0.0
 10
151.2792595439
 20
163.550132172
 30
0.0
 10
148.4872675035
 20
168.0301974672
 30
0.0
 10
144.3486071383
 20
173.5125298846
 30
0.0
 10
139.8711874808
 20
178.4177853666
 30
0.0
 10
136.6088047719
 20
181.3418149905
 30
0.0
 10
134.9252880451
 20
182.6813346654
 30
0.0
 10
134.8923782035
 20
182.7074580938
 30
0.0
  0
SPLINE
  5
3E8
100
AcDbEntity
  8
0
100
AcDbSpline
 62
7
  6
BYLAYER
 70
0
 71
3
 72
12
 73
8
 74
0
 42
0.0000001
 43
0.0000001
 44
0.0000000001
 40
0.0
 40
0.0
 40
0.0
 40
0.0
 40
0.2104734242
 40
0.4373293077
 40
0.6427140849
 40
0.8286165974
 40
1.0
 40
1.0
 40
1.0
 40
1.0
 10
134.2957104052
 20
183.1743226174
 30
0.0
 10
132.9717976432
 20
184.1952371368
 30
0.0
 10
130.1206096078
 20
186.1869237102
 30
0.0
 10
125.6117026419
 20
188.6080240321
 30
0.0
 10
120.9700840878
 20
190.2674663205
 30
0.0
 10
116.5360570801
 20
190.9977908329
 30
0.0
 10
113.6701560695
 20
190.8221411468
 30
0.0
 10
112.3370669794
 20
190.5504627268
 30
0.0
  0
SPLINE
  5
3E9
100
AcDbEntity
  8
0
100
AcDbSpline
 62
7
  6
BYLAYER
 70
0
 71
3
 72
11
 73
7
 74
0
 42
0.0000001
 43
0.0000001
 44
0.0000000001
 40
0.0
 40
0.0
 40
0.0
 40
0.0
 40
0.2193275401
 40
0.4553063538
 40
0.7146072015
 40
1.0
 40
1.0
 40
1.0
 40
1.0
 10
156.064418656
 20
114.8120158475
 30
0.0
 10
156.9138953689
 20
115.7715260819
 30
0.0
 10
158.4170357559
 20
118.0022185377
 30
0.0
 10
159.9699740642
 20
121.9034269407
 30
0.0
 10
160.9019195239
 20
126.387995723
 30
0.0
 10
161.0911607891
 20
129.5759666914
 30
0.0
 10
161.0911607891
 20
131.2434910941
 30
0.0
  0
SPLINE
  5
3EA
100
AcDbEntity
  8
0
100
AcDbSpline
 62
7
  6
BYLAYER
 70
0
 71
3
 72
21
 73
17
 74
0
 42
0.0000001
 43
0.0000001
 44
0.0000000001
 40
0.0
 40
0.0
 40
0.0
 40
0.0
 40
0.0485363103
 40
0.1010554103
 40
0.1590338033
 40
0.2230950786
 40
0.2930436049
 40
0.368153973
 40
0.4474243561
 40
0.5295400617
 40
0.6130387127
 40
0.6964019532
 40
0.7781356827
 40
0.8567892661
 40
0.9310901785
 40
1.0
 40
1.0
 40
1.0
 40
1.0
 10
139.9747373949
 20
105.5226894901
 30
0.0
 10
138.6427526567
 20
105.2512361327
 30
0.0
 10
135.7829418853
 20
105.075624809
 30
0.0
 10
131.3611616584
 20
105.8015267674
 30
0.0
 10
126.7351570404
 20
107.4503194052
 30
0.0
 10
121.9801117381
 20
109.9960090807
 30
0.0
 10
117.1964071988
 20
113.3988376936
 30
0.0
 10
112.5033653813
 20
117.5934237746
 30
0.0
 10
108.0244172473
 20
122.4869930612
 30
0.0
 10
103.8793098855
 20
127.9630861435
 30
0.0
 10
100.1791789969
 20
133.884348781
 30
0.0
 10
97.0208866772
 20
140.0995928432
 30
0.0
 10
94.4844728846
 20
146.4479715158
 30
0.0
 10
92.6302700592
 20
152.7652480436
 30
0.0
 10
91.4969104
 20
158.8860608256
 30
0.0
 10
91.2206435852
 20
162.8996931338
 30
0.0
 10
91.2206435852
 20
164.8296611227
 30
0.0
  0
SPLINE
  5
3EB
100
AcDbEntity
  8
0
100
AcDbSpline
 62
7
  6
BYLAYER
 70
0
 71
3
 72
11
 73
7
 74
0
 42
0.0000001
 43
0.0000001
 44
0.0000000001
 40
0.0
 40
0.0
 40
0.0
 40
0.0
 40
0.2853523867
 40
0.5447040718
 40
0.7807228038
 40
1.0
 40
1.0
 40
1.0
 40
1.0
 10
91.2206435852
 20
164.8296611227
 30
0.0
 10
91.2206435852
 20
166.4969494892
 30
0.0
 10
91.409862465
 20
169.6849783431
 30
0.0
 10
92.3418183425
 20
174.1698532689
 30
0.0
 10
93.8949379274
 20
178.0712612029
 30
0.0
 10
95.3981039482
 20
180.3018463289
 30
0.0
 10
96.2473857183
 20
181.2611363693
 30
0.0
  0
SPLINE
  5
3EC
100
AcDbEntity
  8
0
100
AcDbSpline
 62
7
  6
BYLAYER
 70
0
 71
3
 72
21
 73
17
 74
0
 42
0.0000001
 43
0.0000001
 44
0.0000000001
 40
0.0
 40
0.0
 40
0.0
 40
0.0
 40
0.0513707026
 40
0.1070920271
 40
0.167779755
 40
0.2335292534
 40
0.304022207
 40
0.3786298059
 40
0.4564840176
 40
0.5365694358
 40
0.6177585773
 40
0.6988613439
 40
0.7786850302
 40
0.8561173328
 40
0.9301569468
 40
1.0
 40
1.0
 40
1.0
 40
1.0
 10
136.762959584
 20
104.8681415476
 30
0.0
 10
135.3901319077
 20
104.5883645569
 30
0.0
 10
132.4476574495
 20
104.3619795565
 30
0.0
 10
127.8876971901
 20
104.9983695581
 30
0.0
 10
123.1516038233
 20
106.5757100627
 30
0.0
 10
118.3612219811
 20
109.043621492
 30
0.0
 10
113.6255864
 20
112.3309923151
 30
0.0
 10
109.0491399955
 20
116.3526495273
 30
0.0
 10
104.7304127552
 20
121.0112323232
 30
0.0
 10
100.762336195
 20
126.1986000904
 30
0.0
 10
97.2310052501
 20
131.7971376388
 30
0.0
 10
94.2144635421
 20
137.6810601335
 30
0.0
 10
91.7806783545
 20
143.7190336845
 30
0.0
 10
89.9863225789
 20
149.7776103827
 30
0.0
 10
88.8759636662
 20
155.7217367845
 30
0.0
 10
88.6046975769
 20
159.6487565896
 30
0.0
 10
88.6046975769
 20
161.5536041563
 30
0.0
  0
SPLINE
  5
3ED
100
AcDbEntity
  8
0
100
AcDbSpline
 62
7
  6
BYLAYER
 70
0
 71
3
 72
11
 73
7
 74
0
 42
0.0000001
 43
0.0000001
 44
0.0000000001
 40
0.0
 40
0.0
 40
0.0
 40
0.0
 40
0.2806912067
 40
0.5402105092
 40
0.7790420751
 40
1.0
 40
1.0
 40
1.0
 40
1.0
 10
88.6046975769
 20
161.5536041563
 30
0.0
 10
88.6046975769
 20
163.2818103172
 30
0.0
 10
88.813185691
 20
166.6139251035
 30
0.0
 10
89.8392810651
 20
171.3215016853
 30
0.0
 10
91.5491441101
 20
175.4353722611
 30
0.0
 10
93.1728389158
 20
177.7883406136
 30
0.0
 10
94.0746289797
 20
178.8069403969
 30
0.0
  0
ENDSEC
  0
SECTION
  2
OBJECTS
  0
DICTIONARY
  5
C
100
AcDbDictionary
280
0
281
1
  3
ACAD_GROUP
350
D
  3
ACAD_MLINESTYLE
350
17
  3
ACAD_LAYOUT
350
1A
  3
ACAD_PLOTSETTINGS
350
19
  3
ACAD_PLOTSTYLENAME
350
E
  0
DICTIONARY
  5
D
102
{ACAD_REACTORS
330
C
102
}
100
AcDbDictionary
280
0
281
1
  0
ACDBDICTIONARYWDFLT
  5
E
102
{ACAD_REACTORS
330
C
102
}
100
AcDbDictionary
281
1
  3
Normal
350
F
100
AcDbDictionaryWithDefault
340
F
  0
DICTIONARY
  5
17
102
{ACAD_REACTORS
330
C
102
}
100
AcDbDictionary
280
0
281
1
  3
Standard
350
18
  0
DICTIONARY
  5
19
102
{ACAD_REACTORS
330
C
102
}
100
AcDbDictionary
281
1
  0
DICTIONARY
  5
1A
102
{ACAD_REACTORS
330
C
102
}
100
AcDbDictionary
281
1
  3
Model
350
3EE
  3
Layout1
350
3EF
  0
ACDBPLACEHOLDER
  5
F
102
{ACAD_REACTORS
330
E
102
}
  0
MLINESTYLE
  5
18
102
{ACAD_REACTORS
330
17
102
}
100
AcDbMlineStyle
  2
STANDARD
 70
0
  3

 62
256
 51
90.0
 52
90.0
 71
2
 49
0.5
 62
256
  6
BYLAYER
 49
-0.5
 62
256
  6
BYLAYER
  0
LAYOUT
  5
3EE
102
{ACAD_REACTORS
330
1A
102
}
100
AcDbPlotSettings
  1

  2
none_device
  4

  6

 40
0.0
 41
0.0
 42
0.0
 43
0.0
 44
210.0
 45
297.0
 46
0.0
 47
0.0
 48
0.0
 49
0.0
140
0.0
141
0.0
142
1.0
143
1.0
 70
1024
 72
1
 73
0
 74
0
  7

 75
0
147
1.0
148
0.0
149
0.0
100
AcDbLayout
  1
Model
 70
0
 71
0
 10
0.0
 20
0.0
 11
210.0
 21
297.0
 12
0.0
 22
0.0
 32
0.0
 14
0.0
 24
0.0
 34
0.0
 15
0.0
 25
0.0
 35
0.0
146
0.0
 13
0.0
 23
0.0
 33
0.0
 16
1.0
 26
0.0
 36
0.0
 17
0.0
 27
1.0
 37
0.0
 76
0
330
210
345
0
346
0
  0
LAYOUT
  5
3EF
102
{ACAD_REACTORS
330
1A
102
}
100
AcDbPlotSettings
  1

  2
none_device
  4

  6

 40
0.0
 41
0.0
 42
0.0
 43
0.0
 44
210.0
 45
297.0
 46
0.0
 47
0.0
 48
0.0
 49
0.0
140
0.0
141
0.0
142
1.0
143
1.0
 70
0
 72
1
 73
0
 74
0
  7

 75
0
147
1.0
148
0.0
149
0.0
100
AcDbLayout
  1
Layout1
 70
0
 71
1
 10
0.0
 20
0.0
 11
210.0
 21
297.0
 12
0.0
 22
0.0
 32
0.0
 14
0.0
 24
0.0
 34
0.0
 15
0.0
 25
0.0
 35
0.0
146
0.0
 13
0.0
 23
0.0
 33
0.0
 16
1.0
 26
0.0
 36
0.0
 17
0.0
 27
1.0
 37
0.0
 76
0
330
211
345
0
346
0
  0
ENDSEC
  0
EOF
