999
DXF file: C:\Users\sesa63760\Dev\_Creo\CAD\MCADID0005514_3D-CAD\drw0001_7.dxf
999
Pro/ENGINEER 2019471 by Parametric Technology Corporation
  0
SECTION
  2
HEADER
  9
$ACADVER
  1
AC1024
  9
$DWGCODEPAGE
  3
ANSI_1252
  9
$EXTMAX
 10
94.046283403
 20
133.0083150985
 30
0.0
  9
$EXTMIN
 10
0.0
 20
0.0
 30
0.0
  9
$LIMMIN
 10
0.0
 20
0.0
  9
$LIMMAX
 10
94.046283403
 20
133.0083150985
  9
$VIEWCTR
 10
47.0231417015
 20
66.5041575492
  9
$VIEWSIZE
 40
133.0083150985
  9
$CLAYER
  8
0
  9
$LTSCALE
 40
8.6701716509
  9
$CELTYPE
  6
BYLAYER
  9
$DIMSCALE
 40
1.0
  9
$DIMASZ
 40
1.1195986119
  9
$DIMEXO
 40
1.0
  9
$DIMDLI
 40
5.9903004133
  9
$DIMEXE
 40
1.0
  9
$DIMCEN
 40
1.4187553611
  9
$DIMLFAC
 40
1.0
  9
$DIMBLK
  1
_FILLED
  9
$DIMALT
 70
0
  9
$DIMALTF
 40
0.0393700787
  9
$DIMTXT
 40
1.5674380567
  9
$DIMTOL
 70
1
  9
$DIMLIM
 70
0
  9
$DIMTFAC
 40
1.0
  9
$DIMTP
 40
0.01
  9
$DIMTM
 40
0.01
  9
$DIMGAP
 40
0.625
  9
$DIMDSEP
 70
46
  9
$AUNITS
 70
0
  9
$PDMODE
 70
3
  9
$PDSIZE
 40
0.3125
  9
$HANDSEED
  5
2B6
  9
$TILEMODE
 70
1
  9
$MEASUREMENT
 70
1
  9
$INSUNITS
 70
4
  0
ENDSEC
  0
SECTION
  2
CLASSES
  0
CLASS
  1
ACDBDICTIONARYWDFLT
  2
AcDbDictionaryWithDefault
  3
AutoCAD 2000
 90
0
 91
1
280
0
281
0
  0
CLASS
  1
ACDBPLACEHOLDER
  2
AcDbPlaceHolder
  3
AutoCAD 2000
 90
0
 91
1
280
0
281
0
  0
CLASS
  1
LAYOUT
  2
AcDbLayout
  3
AutoCAD 2000
 90
0
 91
0
280
0
281
0
  0
ENDSEC
  0
SECTION
  2
TABLES
  0
TABLE
  2
VPORT
  5
8
100
AcDbSymbolTable
 70
2
  0
VPORT
  5
1F4
100
AcDbSymbolTableRecord
100
AcDbViewportTableRecord
  2
*ACTIVE
 70
0
 10
0.0
 20
0.0
 11
1.0
 21
1.0
 12
47.0231417015
 22
66.5041575492
 13
0.0
 23
0.0
 14
1.0
 24
1.0
 15
0.0
 25
0.0
 16
0.0
 26
0.0
 36
1.0
 17
0.0
 27
0.0
 37
0.0
 40
133.0083150985
 41
0.7070707071
 42
50.0
 43
0.0
 44
0.0
 50
0.0
 51
0.0
 71
0
 72
100
 73
1
 74
1
 75
0
 76
0
 77
0
 78
0
  0
ENDTAB
  0
TABLE
  2
LTYPE
  5
5
100
AcDbSymbolTable
 70
6
  0
LTYPE
  5
14
100
AcDbSymbolTableRecord
100
AcDbLinetypeTableRecord
  2
BYBLOCK
 70
0
  3

 72
65
 73
0
 40
0.0
  0
LTYPE
  5
15
100
AcDbSymbolTableRecord
100
AcDbLinetypeTableRecord
  2
BYLAYER
 70
0
  3

 72
65
 73
0
 40
0.0
  0
LTYPE
  5
16
100
AcDbSymbolTableRecord
100
AcDbLinetypeTableRecord
  2
CONTINUOUS
 70
64
  3
Solid line
 72
65
 73
0
 40
0.0
  0
LTYPE
  5
1F5
100
AcDbSymbolTableRecord
100
AcDbLinetypeTableRecord
  2
CENTER
 70
64
  3
____ _ ____ _ ____ _ ____ _ ____ _ ____ _ ____
 72
65
 73
4
 40
0.6
 49
0.375
 74
0
 49
-0.075
 74
0
 49
0.075
 74
0
 49
-0.075
 74
0
  0
LTYPE
  5
1F6
100
AcDbSymbolTableRecord
100
AcDbLinetypeTableRecord
  2
HIDDEN
 70
64
  3
- - - - - - - - - - - - - - - - - - - -
 72
65
 73
2
 40
0.2
 49
0.1
 74
0
 49
-0.1
 74
0
  0
LTYPE
  5
1F7
100
AcDbSymbolTableRecord
100
AcDbLinetypeTableRecord
  2
PHANTOM
 70
64
  3
_____ _ _ _____ _ _ _____ _ _ _____
 72
65
 73
6
 40
0.8
 49
0.45
 74
0
 49
-0.05
 74
0
 49
0.1
 74
0
 49
-0.05
 74
0
 49
0.1
 74
0
 49
-0.05
 74
0
  0
LTYPE
  5
1F8
100
AcDbSymbolTableRecord
100
AcDbLinetypeTableRecord
  2
DOT
 70
64
  3
. . . . . . . . . . . . . . . . . . . .
 72
65
 73
2
 40
0.2
 49
0.1
 74
0
 49
-0.1
 74
0
  0
LTYPE
  5
1F9
100
AcDbSymbolTableRecord
100
AcDbLinetypeTableRecord
  2
DASHED
 70
64
  3
- - - - - - - - - - - - - - - - - - - -
 72
65
 73
2
 40
0.2
 49
0.1
 74
0
 49
-0.1
 74
0
  0
ENDTAB
  0
TABLE
  2
LAYER
  5
2
100
AcDbSymbolTable
 70
36
  0
LAYER
  5
10
100
AcDbSymbolTableRecord
100
AcDbLayerTableRecord
  2
0
 70
0
 62
7
  6
CONTINUOUS
370
-3
390
F
  0
LAYER
  5
1FA
100
AcDbSymbolTableRecord
100
AcDbLayerTableRecord
  2
DEFAULT_1
 70
0
 62
7
  6
CENTER
370
-3
390
F
  0
LAYER
  5
1FB
100
AcDbSymbolTableRecord
100
AcDbLayerTableRecord
  2
DEFAULT_2
 70
0
 62
7
  6
HIDDEN
370
-3
390
F
  0
LAYER
  5
1FC
100
AcDbSymbolTableRecord
100
AcDbLayerTableRecord
  2
DEFAULT_3
 70
0
 62
7
  6
PHANTOM
370
-3
390
F
  0
LAYER
  5
1FD
100
AcDbSymbolTableRecord
100
AcDbLayerTableRecord
  2
00_COMPONENTS
 70
0
 62
7
  6
CONTINUOUS
370
-3
390
F
  0
LAYER
  5
1FE
100
AcDbSymbolTableRecord
100
AcDbLayerTableRecord
  2
01_1_DEFAULT_DATUMS
 70
0
 62
7
  6
CONTINUOUS
370
-3
390
F
  0
LAYER
  5
1FF
100
AcDbSymbolTableRecord
100
AcDbLayerTableRecord
  2
01_PLANES
 70
0
 62
7
  6
CONTINUOUS
370
-3
390
F
  0
LAYER
  5
200
100
AcDbSymbolTableRecord
100
AcDbLayerTableRecord
  2
02_COORD_SYS
 70
0
 62
7
  6
CONTINUOUS
370
-3
390
F
  0
LAYER
  5
201
100
AcDbSymbolTableRecord
100
AcDbLayerTableRecord
  2
03_AXES
 70
0
 62
7
  6
CONTINUOUS
370
-3
390
F
  0
LAYER
  5
202
100
AcDbSymbolTableRecord
100
AcDbLayerTableRecord
  2
04_POINTS
 70
0
 62
7
  6
CONTINUOUS
370
-3
390
F
  0
LAYER
  5
203
100
AcDbSymbolTableRecord
100
AcDbLayerTableRecord
  2
05_CURVES
 70
0
 62
7
  6
CONTINUOUS
370
-3
390
F
  0
LAYER
  5
204
100
AcDbSymbolTableRecord
100
AcDbLayerTableRecord
  2
06_SURFS
 70
0
 62
7
  6
CONTINUOUS
370
-3
390
F
  0
LAYER
  5
205
100
AcDbSymbolTableRecord
100
AcDbLayerTableRecord
  2
07_COSMETICS
 70
0
 62
7
  6
CONTINUOUS
370
-3
390
F
  0
LAYER
  5
206
100
AcDbSymbolTableRecord
100
AcDbLayerTableRecord
  2
10_NOTES
 70
0
 62
7
  6
CONTINUOUS
370
-3
390
F
  0
LAYER
  5
207
100
AcDbSymbolTableRecord
100
AcDbLayerTableRecord
  2
11_NOTES_PUB
 70
0
 62
7
  6
CONTINUOUS
370
-3
390
F
  0
LAYER
  5
208
100
AcDbSymbolTableRecord
100
AcDbLayerTableRecord
  2
13_REF_GTOL
 70
0
 62
7
  6
CONTINUOUS
370
-3
390
F
  0
LAYER
  5
209
100
AcDbSymbolTableRecord
100
AcDbLayerTableRecord
  2
16_MISC
 70
0
 62
7
  6
CONTINUOUS
370
-3
390
F
  0
LAYER
  5
20A
100
AcDbSymbolTableRecord
100
AcDbLayerTableRecord
  2
17_NO_PRINT
 70
0
 62
7
  6
CONTINUOUS
370
-3
390
F
  0
LAYER
  5
20B
100
AcDbSymbolTableRecord
100
AcDbLayerTableRecord
  2
18_DATUM_CAMS_JOINTS
 70
0
 62
7
  6
CONTINUOUS
370
-3
390
F
  0
LAYER
  5
20C
100
AcDbSymbolTableRecord
100
AcDbLayerTableRecord
  2
19_DATUM_FUNCTIONAL
 70
0
 62
7
  6
CONTINUOUS
370
-3
390
F
  0
LAYER
  5
20D
100
AcDbSymbolTableRecord
100
AcDbLayerTableRecord
  2
20_DATUM_KINEMATIC_SCHEME
 70
0
 62
7
  6
CONTINUOUS
370
-3
390
F
  0
LAYER
  5
20E
100
AcDbSymbolTableRecord
100
AcDbLayerTableRecord
  2
64
 70
0
 62
7
  6
CONTINUOUS
370
-3
390
F
  0
ENDTAB
  0
TABLE
  2
STYLE
  5
3
100
AcDbSymbolTable
 70
1
  0
STYLE
  5
11
100
AcDbSymbolTableRecord
100
AcDbTextStyleTableRecord
  2
STANDARD
 70
0
 40
0.0
 41
1.0
 50
0.0
 71
0
 42
0.2
  3
ARIAL.TTF
  4

  0
STYLE
  5
20F
100
AcDbSymbolTableRecord
100
AcDbTextStyleTableRecord
  2
TEXTSTYLE_1
 70
0
 40
0.0
 41
0.8
 50
0.0
 71
0
 42
0.2
  3
gdt
  4

  0
ENDTAB
  0
TABLE
  2
VIEW
  5
6
100
AcDbSymbolTable
 70
0
  0
ENDTAB
  0
TABLE
  2
UCS
  5
7
100
AcDbSymbolTable
 70
0
  0
ENDTAB
  0
TABLE
  2
APPID
  5
9
100
AcDbSymbolTable
 70
1
  0
APPID
  5
210
100
AcDbSymbolTableRecord
100
AcDbRegAppTableRecord
  2
ACAD
 70
0
  0
ENDTAB
  0
TABLE
  2
BLOCK_RECORD
  5
1
100
AcDbSymbolTable
 70
0
  0
BLOCK_RECORD
  5
211
100
AcDbSymbolTableRecord
100
AcDbBlockTableRecord
  2
*Model_Space
  0
BLOCK_RECORD
  5
212
100
AcDbSymbolTableRecord
100
AcDbBlockTableRecord
  2
*Paper_Space
  0
BLOCK_RECORD
  5
213
100
AcDbSymbolTableRecord
100
AcDbBlockTableRecord
  2
_FILLED
  0
ENDTAB
  0
TABLE
  2
DIMSTYLE
  5
A
100
AcDbSymbolTable
 70
1
100
AcDbDimStyleTable
 71
0
  0
DIMSTYLE
105
214
100
AcDbSymbolTableRecord
100
AcDbDimStyleTableRecord
  2
STANDARD
 70
0
  3

  4

 40
1.0
 41
1.1195986119
 42
1.0
 43
0.38
 44
1.0
 45
0.0
 46
0.0
 47
0.01
 48
0.01
140
1.5674380567
141
0.09
142
0.0
143
25.4
144
1.0
145
0.0
146
1.0
147
0.625
 71
1
 72
0
 73
0
 74
0
 75
0
 76
0
 77
1
 78
8
 79
2
170
0
171
1
172
0
173
0
174
0
175
0
176
0
177
0
178
0
270
2
179
2
271
2
272
2
273
2
274
2
275
0
280
0
281
0
282
0
283
1
284
8
285
0
286
0
287
3
288
0
340
11
278
46
341
213
342
213
343
213
344
213
  0
ENDTAB
  0
ENDSEC
  0
SECTION
  2
BLOCKS
  0
BLOCK
  5
20
100
AcDbEntity
  8
0
100
AcDbBlockBegin
  2
*Model_Space
 70
0
 10
0.0
 20
0.0
 30
0.0
  3
*Model_Space
  1

  0
ENDBLK
  5
21
100
AcDbEntity
  8
0
100
AcDbBlockEnd
  0
BLOCK
  5
1C
100
AcDbEntity
  8
0
100
AcDbBlockBegin
  2
*Paper_Space
 70
0
 10
0.0
 20
0.0
 30
0.0
  3
*Paper_Space
  1

  0
ENDBLK
  5
1D
100
AcDbEntity
  8
0
100
AcDbBlockEnd
  0
BLOCK
  5
215
100
AcDbEntity
  8
0
100
AcDbBlockBegin
  2
_FILLED
 70
64
 10
0.0
 20
0.0
  3
_FILLED
  1

  0
SOLID
  5
216
100
AcDbEntity
  8
0
  6
BYBLOCK
 62
0
100
AcDbTrace
 10
0.0
 20
0.0
 11
-1.0
 21
0.25
 12
-1.0
 22
-0.25
 13
-1.0
 23
-0.25
  0
ENDBLK
  5
217
100
AcDbEntity
  8
0
  6
BYBLOCK
 62
0
100
AcDbBlockEnd
  0
ENDSEC
  0
SECTION
  2
ENTITIES
  0
LINE
  5
218
100
AcDbEntity
  8
64
100
AcDbLine
 62
7
  6
BYLAYER
 10
74.1359425768
 20
24.0797018253
 11
80.7359425768
 21
24.0797018253
  0
LINE
  5
219
100
AcDbEntity
  8
64
100
AcDbLine
 62
7
  6
BYLAYER
 10
73.9859425768
 20
25.4797018253
 11
80.8859425768
 21
25.4797018253
  0
LINE
  5
21A
100
AcDbEntity
  8
64
100
AcDbLine
 62
7
  6
BYLAYER
 10
73.9859425768
 20
25.8797018253
 11
80.8859425768
 21
25.8797018253
  0
LINE
  5
21B
100
AcDbEntity
  8
0
100
AcDbLine
 62
7
  6
BYLAYER
 10
73.4359425768
 20
26.6257018253
 11
81.4359425768
 21
26.6257018253
  0
LINE
  5
21C
100
AcDbEntity
  8
64
100
AcDbLine
 62
7
  6
BYLAYER
 10
77.1487482426
 20
26.6797018253
 11
76.8984891783
 21
26.6797018253
  0
LINE
  5
21D
100
AcDbEntity
  8
64
100
AcDbLine
 62
7
  6
BYLAYER
 10
77.7231369109
 20
26.6797018253
 11
77.1487482426
 21
26.6797018253
  0
LINE
  5
21E
100
AcDbEntity
  8
64
100
AcDbLine
 62
7
  6
BYLAYER
 10
76.8984891783
 20
26.6797018253
 11
73.6660778983
 21
26.6797018253
  0
LINE
  5
21F
100
AcDbEntity
  8
64
100
AcDbLine
 62
7
  6
BYLAYER
 10
77.7231369109
 20
26.6797018253
 11
77.9733959752
 21
26.6797018253
  0
LINE
  5
220
100
AcDbEntity
  8
64
100
AcDbLine
 62
7
  6
BYLAYER
 10
77.9733959752
 20
26.6797018253
 11
81.2058072532
 21
26.6797018253
  0
LINE
  5
221
100
AcDbEntity
  8
64
100
AcDbLine
 62
7
  6
BYLAYER
 10
74.6359425768
 20
28.9797018253
 11
80.2359425768
 21
28.9797018253
  0
LINE
  5
222
100
AcDbEntity
  8
64
100
AcDbLine
 62
7
  6
BYLAYER
 10
73.8211586446
 20
29.3797018253
 11
73.7122384503
 21
29.3797018253
  0
LINE
  5
223
100
AcDbEntity
  8
64
100
AcDbLine
 62
7
  6
BYLAYER
 10
73.7122384503
 20
29.3797018253
 11
73.4922787435
 21
29.3797018253
  0
LINE
  5
224
100
AcDbEntity
  8
64
100
AcDbLine
 62
7
  6
BYLAYER
 10
73.8211586446
 20
29.3797018253
 11
81.0507265089
 21
29.3797018253
  0
LINE
  5
225
100
AcDbEntity
  8
64
100
AcDbLine
 62
7
  6
BYLAYER
 10
81.1596467032
 20
29.3797018253
 11
81.3796064099
 21
29.3797018253
  0
LINE
  5
226
100
AcDbEntity
  8
64
100
AcDbLine
 62
7
  6
BYLAYER
 10
81.0507265089
 20
29.3797018253
 11
81.1596467032
 21
29.3797018253
  0
LINE
  5
227
100
AcDbEntity
  8
0
100
AcDbLine
 62
7
  6
BYLAYER
 10
73.4359425768
 20
29.4337018253
 11
81.4359425768
 21
29.4337018253
  0
LINE
  5
228
100
AcDbEntity
  8
64
100
AcDbLine
 62
7
  6
BYLAYER
 10
9.9859425768
 20
48.5999059282
 11
9.9859425768
 21
32.5999059282
  0
LINE
  5
229
100
AcDbEntity
  8
64
100
AcDbLine
 62
7
  6
BYLAYER
 10
10.1859425768
 20
49.5797018253
 11
10.1859425768
 21
32.0797018253
  0
LINE
  5
22A
100
AcDbEntity
  8
64
100
AcDbLine
 62
7
  6
BYLAYER
 10
11.1657384739
 20
39.0999059282
 11
11.1657384739
 21
48.0999059282
  0
LINE
  5
22B
100
AcDbEntity
  8
64
100
AcDbLine
 62
7
  6
BYLAYER
 10
11.6859425768
 20
49.5797018253
 11
11.6859425768
 21
103.5797018253
  0
LINE
  5
22C
100
AcDbEntity
  8
64
100
AcDbLine
 62
7
  6
BYLAYER
 10
11.7859425768
 20
103.5797018253
 11
11.7859425768
 21
109.0797018253
  0
LINE
  5
22D
100
AcDbEntity
  8
64
100
AcDbLine
 62
7
  6
BYLAYER
 10
74.6359425768
 20
29.9797018253
 11
80.2359425768
 21
29.9797018253
  0
LINE
  5
22E
100
AcDbEntity
  8
64
100
AcDbLine
 62
7
  6
BYLAYER
 10
72.0359425768
 20
30.5797018253
 11
82.8359425768
 21
30.5797018253
  0
LINE
  5
22F
100
AcDbEntity
  8
64
100
AcDbLine
 62
7
  6
BYLAYER
 10
74.5109425768
 20
30.9797018253
 11
80.3609425768
 21
30.9797018253
  0
LINE
  5
230
100
AcDbEntity
  8
64
100
AcDbLine
 62
7
  6
BYLAYER
 10
71.5359425768
 20
31.0797018253
 11
83.3359425768
 21
31.0797018253
  0
LINE
  5
231
100
AcDbEntity
  8
64
100
AcDbLine
 62
7
  6
BYLAYER
 10
73.313561656
 20
31.3797018253
 11
81.5583234975
 21
31.3797018253
  0
LINE
  5
232
100
AcDbEntity
  8
64
100
AcDbLine
 62
7
  6
BYLAYER
 10
74.6359425768
 20
31.9797018253
 11
80.2359425768
 21
31.9797018253
  0
LINE
  5
233
100
AcDbEntity
  8
64
100
AcDbLine
 62
7
  6
BYLAYER
 10
10.1859425768
 20
32.0797018253
 11
84.1859425768
 21
32.0797018253
  0
LINE
  5
234
100
AcDbEntity
  8
64
100
AcDbLine
 62
7
  6
BYLAYER
 10
84.3859425768
 20
32.5999059282
 11
84.1859425768
 21
32.5999059282
  0
LINE
  5
235
100
AcDbEntity
  8
64
100
AcDbLine
 62
7
  6
BYLAYER
 10
10.1859425768
 20
32.5999059282
 11
9.9859425768
 21
32.5999059282
  0
LINE
  5
236
100
AcDbEntity
  8
64
100
AcDbLine
 62
7
  6
BYLAYER
 10
84.3859425768
 20
33.0999059282
 11
84.1859425768
 21
33.0999059282
  0
LINE
  5
237
100
AcDbEntity
  8
64
100
AcDbLine
 62
7
  6
BYLAYER
 10
10.1859425768
 20
33.0999059282
 11
9.9859425768
 21
33.0999059282
  0
LINE
  5
238
100
AcDbEntity
  8
64
100
AcDbLine
 62
7
  6
BYLAYER
 10
20.7859425768
 20
109.5798167742
 11
20.7859425768
 21
105.5797018253
  0
LINE
  5
239
100
AcDbEntity
  8
64
100
AcDbLine
 62
7
  6
BYLAYER
 10
45.6657384739
 20
38.5999059282
 11
11.6657384739
 21
38.5999059282
  0
LINE
  5
23A
100
AcDbEntity
  8
64
100
AcDbLine
 62
7
  6
BYLAYER
 10
22.0859425768
 20
103.5797018253
 11
22.0859425768
 21
104.5797018253
  0
LINE
  5
23B
100
AcDbEntity
  8
64
100
AcDbLine
 62
7
  6
BYLAYER
 10
22.1859425768
 20
49.5797018253
 11
22.1859425768
 21
103.5797018253
  0
LINE
  5
23C
100
AcDbEntity
  8
64
100
AcDbLine
 62
7
  6
BYLAYER
 10
84.3859425768
 20
48.0999059282
 11
84.1859425768
 21
48.0999059282
  0
LINE
  5
23D
100
AcDbEntity
  8
64
100
AcDbLine
 62
7
  6
BYLAYER
 10
10.1859425768
 20
48.0999059282
 11
9.9859425768
 21
48.0999059282
  0
LINE
  5
23E
100
AcDbEntity
  8
64
100
AcDbLine
 62
7
  6
BYLAYER
 10
84.3859425768
 20
48.5999059282
 11
84.1859425768
 21
48.5999059282
  0
LINE
  5
23F
100
AcDbEntity
  8
64
100
AcDbLine
 62
7
  6
BYLAYER
 10
10.1859425768
 20
48.5999059282
 11
9.9859425768
 21
48.5999059282
  0
LINE
  5
240
100
AcDbEntity
  8
64
100
AcDbLine
 62
7
  6
BYLAYER
 10
11.6657384739
 20
48.5999059282
 11
45.6657384739
 21
48.5999059282
  0
LINE
  5
241
100
AcDbEntity
  8
64
100
AcDbLine
 62
7
  6
BYLAYER
 10
10.1859425768
 20
49.5797018253
 11
84.1859425768
 21
49.5797018253
  0
LINE
  5
242
100
AcDbEntity
  8
64
100
AcDbLine
 62
7
  6
BYLAYER
 10
73.4342138738
 20
26.9373988658
 11
73.6811859113
 21
26.6926457941
  0
LINE
  5
243
100
AcDbEntity
  8
64
100
AcDbLine
 62
7
  6
BYLAYER
 10
73.4293252311
 20
27.4422435792
 11
73.6811751911
 21
27.1926563973
  0
LINE
  5
244
100
AcDbEntity
  8
64
100
AcDbLine
 62
7
  6
BYLAYER
 10
73.4293283838
 20
27.9422404611
 11
73.6811859113
 21
27.6926457941
  0
LINE
  5
245
100
AcDbEntity
  8
64
100
AcDbLine
 62
7
  6
BYLAYER
 10
73.4293252311
 20
28.4422435792
 11
73.6811751911
 21
28.1926563973
  0
LINE
  5
246
100
AcDbEntity
  8
64
100
AcDbLine
 62
7
  6
BYLAYER
 10
73.4293283838
 20
28.9422404611
 11
73.6811859113
 21
28.6926457941
  0
LINE
  5
247
100
AcDbEntity
  8
64
100
AcDbLine
 62
7
  6
BYLAYER
 10
73.4854569546
 20
29.3866161784
 11
73.6811751911
 21
29.1926563973
  0
LINE
  5
248
100
AcDbEntity
  8
64
100
AcDbLine
 62
7
  6
BYLAYER
 10
72.0359425768
 20
30.5797018253
 11
71.5359425768
 21
31.0797018253
  0
LINE
  5
249
100
AcDbEntity
  8
64
100
AcDbLine
 62
7
  6
BYLAYER
 10
81.2128561827
 20
26.6731536975
 11
81.190328823
 21
26.6954789081
  0
LINE
  5
24A
100
AcDbEntity
  8
64
100
AcDbLine
 62
7
  6
BYLAYER
 10
81.4379876392
 20
26.950042466
 11
81.1903421828
 21
27.1954656943
  0
LINE
  5
24B
100
AcDbEntity
  8
64
100
AcDbLine
 62
7
  6
BYLAYER
 10
81.4428806948
 20
27.4451933094
 11
81.190328823
 21
27.6954789081
  0
LINE
  5
24C
100
AcDbEntity
  8
64
100
AcDbLine
 62
7
  6
BYLAYER
 10
81.4428848674
 20
27.9451891826
 11
81.1903421828
 21
28.1954656943
  0
LINE
  5
24D
100
AcDbEntity
  8
64
100
AcDbLine
 62
7
  6
BYLAYER
 10
46.1657384739
 20
48.0999059282
 11
46.1657384739
 21
39.0999059282
  0
LINE
  5
24E
100
AcDbEntity
  8
64
100
AcDbLine
 62
7
  6
BYLAYER
 10
81.4428806948
 20
28.4451933094
 11
81.190328823
 21
28.6954789081
  0
LINE
  5
24F
100
AcDbEntity
  8
64
100
AcDbLine
 62
7
  6
BYLAYER
 10
81.4428848674
 20
28.9451891826
 11
81.1903421828
 21
29.1954656943
  0
LINE
  5
250
100
AcDbEntity
  8
64
100
AcDbLine
 62
7
  6
BYLAYER
 10
74.1359425768
 20
24.0797018253
 11
73.9859425768
 21
25.4797018253
  0
LINE
  5
251
100
AcDbEntity
  8
64
100
AcDbLine
 62
7
  6
BYLAYER
 10
74.6359425768
 20
29.9797018253
 11
74.5109425768
 21
30.9797018253
  0
LINE
  5
252
100
AcDbEntity
  8
64
100
AcDbLine
 62
7
  6
BYLAYER
 10
71.5359425768
 20
31.0797018253
 11
71.5359425768
 21
32.0797018253
  0
LINE
  5
253
100
AcDbEntity
  8
64
100
AcDbLine
 62
7
  6
BYLAYER
 10
72.1859425768
 20
49.5797018253
 11
72.1859425768
 21
103.5797018253
  0
LINE
  5
254
100
AcDbEntity
  8
64
100
AcDbLine
 62
7
  6
BYLAYER
 10
72.2859425768
 20
103.5797018253
 11
72.2859425768
 21
104.5797018253
  0
LINE
  5
255
100
AcDbEntity
  8
64
100
AcDbLine
 62
7
  6
BYLAYER
 10
73.313561656
 20
30.5797018253
 11
73.313561656
 21
31.3797018253
  0
LINE
  5
256
100
AcDbEntity
  8
0
100
AcDbLine
 62
7
  6
BYLAYER
 10
73.4359425768
 20
26.6257018253
 11
73.4359425768
 21
29.4337018253
  0
LINE
  5
257
100
AcDbEntity
  8
64
100
AcDbLine
 62
7
  6
BYLAYER
 10
73.4625633761
 20
31.3797018253
 11
73.4625633761
 21
30.5797018253
  0
LINE
  5
258
100
AcDbEntity
  8
64
100
AcDbLine
 62
7
  6
BYLAYER
 10
73.5859425768
 20
109.5798167742
 11
73.5859425768
 21
105.5797018253
  0
LINE
  5
259
100
AcDbEntity
  8
64
100
AcDbLine
 62
7
  6
BYLAYER
 10
73.9859425768
 20
25.4797018253
 11
73.9859425768
 21
25.8797018253
  0
LINE
  5
25A
100
AcDbEntity
  8
64
100
AcDbLine
 62
7
  6
BYLAYER
 10
73.9859425768
 20
29.3797018253
 11
73.9859425768
 21
30.5797018253
  0
LINE
  5
25B
100
AcDbEntity
  8
64
100
AcDbLine
 62
7
  6
BYLAYER
 10
74.1359425768
 20
25.8797018253
 11
74.1359425768
 21
26.6797018253
  0
LINE
  5
25C
100
AcDbEntity
  8
64
100
AcDbLine
 62
7
  6
BYLAYER
 10
74.4359425768
 20
24.0797018253
 11
74.4359425768
 21
32.0797018253
  0
LINE
  5
25D
100
AcDbEntity
  8
64
100
AcDbLine
 62
7
  6
BYLAYER
 10
74.6359425768
 20
32.0797018253
 11
74.6359425768
 21
31.9797018253
  0
LINE
  5
25E
100
AcDbEntity
  8
64
100
AcDbLine
 62
7
  6
BYLAYER
 10
74.6359425768
 20
29.9797018253
 11
74.6359425768
 21
28.9797018253
  0
LINE
  5
25F
100
AcDbEntity
  8
64
100
AcDbLine
 62
7
  6
BYLAYER
 10
74.9607996331
 20
30.5797018253
 11
74.9607996331
 21
31.3797018253
  0
LINE
  5
260
100
AcDbEntity
  8
64
100
AcDbLine
 62
7
  6
BYLAYER
 10
75.0502626311
 20
31.3797018253
 11
75.0502626311
 21
30.5797018253
  0
LINE
  5
261
100
AcDbEntity
  8
64
100
AcDbLine
 62
7
  6
BYLAYER
 10
75.1859425768
 20
28.9797018253
 11
75.1859425768
 21
25.4797018253
  0
LINE
  5
262
100
AcDbEntity
  8
64
100
AcDbLine
 62
7
  6
BYLAYER
 10
75.7887045997
 20
30.5797018253
 11
75.7887045997
 21
31.3797018253
  0
LINE
  5
263
100
AcDbEntity
  8
64
100
AcDbLine
 62
7
  6
BYLAYER
 10
75.8482433218
 20
31.3797018253
 11
75.8482433218
 21
30.5797018253
  0
LINE
  5
264
100
AcDbEntity
  8
64
100
AcDbLine
 62
7
  6
BYLAYER
 10
76.1859425768
 20
28.9797018253
 11
76.1859425768
 21
25.4797018253
  0
LINE
  5
265
100
AcDbEntity
  8
64
100
AcDbLine
 62
7
  6
BYLAYER
 10
76.9359425768
 20
28.9797018253
 11
76.9359425768
 21
25.4797018253
  0
LINE
  5
266
100
AcDbEntity
  8
64
100
AcDbLine
 62
7
  6
BYLAYER
 10
80.2359425768
 20
31.9797018253
 11
80.3609425768
 21
30.9797018253
  0
LINE
  5
267
100
AcDbEntity
  8
64
100
AcDbLine
 62
7
  6
BYLAYER
 10
77.9359425768
 20
28.9797018253
 11
77.9359425768
 21
25.4797018253
  0
LINE
  5
268
100
AcDbEntity
  8
64
100
AcDbLine
 62
7
  6
BYLAYER
 10
79.0236418317
 20
31.3797018253
 11
79.0236418317
 21
30.5797018253
  0
LINE
  5
269
100
AcDbEntity
  8
64
100
AcDbLine
 62
7
  6
BYLAYER
 10
79.0831805538
 20
30.5797018253
 11
79.0831805538
 21
31.3797018253
  0
LINE
  5
26A
100
AcDbEntity
  8
64
100
AcDbLine
 62
7
  6
BYLAYER
 10
79.8216225224
 20
31.3797018253
 11
79.8216225224
 21
30.5797018253
  0
LINE
  5
26B
100
AcDbEntity
  8
64
100
AcDbLine
 62
7
  6
BYLAYER
 10
79.9110855204
 20
30.5797018253
 11
79.9110855204
 21
31.3797018253
  0
LINE
  5
26C
100
AcDbEntity
  8
64
100
AcDbLine
 62
7
  6
BYLAYER
 10
80.2359425768
 20
32.0797018253
 11
80.2359425768
 21
31.9797018253
  0
LINE
  5
26D
100
AcDbEntity
  8
64
100
AcDbLine
 62
7
  6
BYLAYER
 10
80.2359425768
 20
29.9797018253
 11
80.2359425768
 21
28.9797018253
  0
LINE
  5
26E
100
AcDbEntity
  8
64
100
AcDbLine
 62
7
  6
BYLAYER
 10
80.4359425768
 20
24.0797018253
 11
80.4359425768
 21
32.0797018253
  0
LINE
  5
26F
100
AcDbEntity
  8
64
100
AcDbLine
 62
7
  6
BYLAYER
 10
80.7359425768
 20
25.8797018253
 11
80.7359425768
 21
26.6797018253
  0
LINE
  5
270
100
AcDbEntity
  8
64
100
AcDbLine
 62
7
  6
BYLAYER
 10
80.8859425768
 20
25.4797018253
 11
80.8859425768
 21
25.8797018253
  0
LINE
  5
271
100
AcDbEntity
  8
64
100
AcDbLine
 62
7
  6
BYLAYER
 10
80.8859425768
 20
29.3797018253
 11
80.8859425768
 21
30.5797018253
  0
LINE
  5
272
100
AcDbEntity
  8
64
100
AcDbLine
 62
7
  6
BYLAYER
 10
81.4093217774
 20
31.3797018253
 11
81.4093217774
 21
30.5797018253
  0
LINE
  5
273
100
AcDbEntity
  8
0
100
AcDbLine
 62
7
  6
BYLAYER
 10
81.4359425768
 20
26.6257018253
 11
81.4359425768
 21
29.4337018253
  0
LINE
  5
274
100
AcDbEntity
  8
64
100
AcDbLine
 62
7
  6
BYLAYER
 10
81.5583234975
 20
30.5797018253
 11
81.5583234975
 21
31.3797018253
  0
LINE
  5
275
100
AcDbEntity
  8
64
100
AcDbLine
 62
7
  6
BYLAYER
 10
74.6359425768
 20
31.9797018253
 11
74.5109425768
 21
30.9797018253
  0
LINE
  5
276
100
AcDbEntity
  8
64
100
AcDbLine
 62
7
  6
BYLAYER
 10
82.5859425768
 20
103.5797018253
 11
82.5859425768
 21
109.0797018253
  0
LINE
  5
277
100
AcDbEntity
  8
64
100
AcDbLine
 62
7
  6
BYLAYER
 10
82.6859425768
 20
49.5797018253
 11
82.6859425768
 21
103.5797018253
  0
LINE
  5
278
100
AcDbEntity
  8
64
100
AcDbLine
 62
7
  6
BYLAYER
 10
83.3359425768
 20
31.0797018253
 11
83.3359425768
 21
32.0797018253
  0
LINE
  5
279
100
AcDbEntity
  8
64
100
AcDbLine
 62
7
  6
BYLAYER
 10
84.1859425768
 20
49.5797018253
 11
84.1859425768
 21
32.0797018253
  0
LINE
  5
27A
100
AcDbEntity
  8
64
100
AcDbLine
 62
7
  6
BYLAYER
 10
84.3859425768
 20
48.5999059282
 11
84.3859425768
 21
32.5999059282
  0
LINE
  5
27B
100
AcDbEntity
  8
64
100
AcDbLine
 62
7
  6
BYLAYER
 10
80.7359425768
 20
24.0797018253
 11
80.8859425768
 21
25.4797018253
  0
LINE
  5
27C
100
AcDbEntity
  8
64
100
AcDbLine
 62
7
  6
BYLAYER
 10
80.2359425768
 20
29.9797018253
 11
80.3609425768
 21
30.9797018253
  0
LINE
  5
27D
100
AcDbEntity
  8
64
100
AcDbLine
 62
7
  6
BYLAYER
 10
82.6859425768
 20
103.5797018253
 11
72.1859425768
 21
103.5797018253
  0
LINE
  5
27E
100
AcDbEntity
  8
64
100
AcDbLine
 62
7
  6
BYLAYER
 10
22.1859425768
 20
103.5797018253
 11
11.6859425768
 21
103.5797018253
  0
LINE
  5
27F
100
AcDbEntity
  8
64
100
AcDbLine
 62
7
  6
BYLAYER
 10
72.5859425768
 20
104.5797018253
 11
72.2859425768
 21
104.5797018253
  0
LINE
  5
280
100
AcDbEntity
  8
64
100
AcDbLine
 62
7
  6
BYLAYER
 10
22.0859425768
 20
104.5797018253
 11
21.7859425768
 21
104.5797018253
  0
LINE
  5
281
100
AcDbEntity
  8
64
100
AcDbLine
 62
7
  6
BYLAYER
 10
73.6815563305
 20
29.1954789081
 11
73.4290044587
 21
28.9451933094
  0
LINE
  5
282
100
AcDbEntity
  8
64
100
AcDbLine
 62
7
  6
BYLAYER
 10
73.6815429707
 20
28.6954656943
 11
73.4290002861
 21
28.4451891826
  0
LINE
  5
283
100
AcDbEntity
  8
64
100
AcDbLine
 62
7
  6
BYLAYER
 10
82.5859425768
 20
109.0797018253
 11
73.5854583346
 21
109.0797018253
  0
LINE
  5
284
100
AcDbEntity
  8
64
100
AcDbLine
 62
7
  6
BYLAYER
 10
20.7860697457
 20
109.0797018253
 11
11.7859425768
 21
109.0797018253
  0
LINE
  5
285
100
AcDbEntity
  8
64
100
AcDbLine
 62
7
  6
BYLAYER
 10
82.0859425768
 20
109.5797018253
 11
73.5859425768
 21
109.5797018253
  0
LINE
  5
286
100
AcDbEntity
  8
64
100
AcDbLine
 62
7
  6
BYLAYER
 10
20.7859425768
 20
109.5797018253
 11
12.2859425768
 21
109.5797018253
  0
LINE
  5
287
100
AcDbEntity
  8
64
100
AcDbLine
 62
7
  6
BYLAYER
 10
73.6815563305
 20
28.1954789081
 11
73.4290044587
 21
27.9451933094
  0
LINE
  5
288
100
AcDbEntity
  8
64
100
AcDbLine
 62
7
  6
BYLAYER
 10
73.6815429707
 20
27.6954656943
 11
73.4290002861
 21
27.4451891826
  0
LINE
  5
289
100
AcDbEntity
  8
64
100
AcDbLine
 62
7
  6
BYLAYER
 10
73.6815563305
 20
27.1954789081
 11
73.4339018591
 21
26.950046763
  0
LINE
  5
28A
100
AcDbEntity
  8
64
100
AcDbLine
 62
7
  6
BYLAYER
 10
73.6815429707
 20
26.6954656943
 11
73.6590164578
 21
26.6731413214
  0
LINE
  5
28B
100
AcDbEntity
  8
64
100
AcDbLine
 62
7
  6
BYLAYER
 10
82.8359425768
 20
30.5797018253
 11
83.3359425768
 21
31.0797018253
  0
LINE
  5
28C
100
AcDbEntity
  8
64
100
AcDbLine
 62
7
  6
BYLAYER
 10
81.1906992422
 20
29.1926457941
 11
81.386423405
 21
29.386611437
  0
LINE
  5
28D
100
AcDbEntity
  8
64
100
AcDbLine
 62
7
  6
BYLAYER
 10
81.1907099625
 20
28.6926563973
 11
81.4425599224
 21
28.9422435792
  0
LINE
  5
28E
100
AcDbEntity
  8
64
100
AcDbLine
 62
7
  6
BYLAYER
 10
81.1906992422
 20
28.1926457941
 11
81.4425567697
 21
28.4422404611
  0
LINE
  5
28F
100
AcDbEntity
  8
64
100
AcDbLine
 62
7
  6
BYLAYER
 10
81.1907099625
 20
27.6926563973
 11
81.4425599224
 21
27.9422435792
  0
LINE
  5
290
100
AcDbEntity
  8
64
100
AcDbLine
 62
7
  6
BYLAYER
 10
81.1906992422
 20
27.1926457941
 11
81.4425567697
 21
27.4422404611
  0
LINE
  5
291
100
AcDbEntity
  8
64
100
AcDbLine
 62
7
  6
BYLAYER
 10
81.1907099625
 20
26.6926563973
 11
81.4376745743
 21
26.9374021241
  0
CIRCLE
  5
292
100
AcDbEntity
  8
64
100
AcDbCircle
 62
7
  6
BYLAYER
 10
64.6859425768
 20
36.0797018253
 40
2.15
  0
CIRCLE
  5
293
100
AcDbEntity
  8
64
100
AcDbCircle
 62
7
  6
BYLAYER
 10
16.6859425768
 20
36.0797018253
 40
2.15
  0
CIRCLE
  5
294
100
AcDbEntity
  8
64
100
AcDbCircle
 62
7
  6
BYLAYER
 10
24.6859425768
 20
36.0797018253
 40
2.15
  0
CIRCLE
  5
295
100
AcDbEntity
  8
64
100
AcDbCircle
 62
7
  6
BYLAYER
 10
56.6859425768
 20
36.0797018253
 40
2.15
  0
ARC
  5
296
100
AcDbEntity
  8
64
100
AcDbCircle
 62
7
  6
BYLAYER
 10
72.5859425768
 20
105.5797018253
 40
1.0
100
AcDbArc
 50
270.0
 51
360.0
  0
ARC
  5
297
100
AcDbEntity
  8
64
100
AcDbCircle
 62
7
  6
BYLAYER
 10
21.7859425768
 20
105.5797018253
 40
1.0
100
AcDbArc
 50
180.0
 51
270.0
  0
ARC
  5
298
100
AcDbEntity
  8
64
100
AcDbCircle
 62
7
  6
BYLAYER
 10
11.6657384739
 20
39.0999059282
 40
0.5
100
AcDbArc
 50
180.0
 51
270.0
  0
ARC
  5
299
100
AcDbEntity
  8
64
100
AcDbCircle
 62
7
  6
BYLAYER
 10
45.6657384739
 20
39.0999059282
 40
0.5
100
AcDbArc
 50
270.0
 51
360.0
  0
ARC
  5
29A
100
AcDbEntity
  8
64
100
AcDbCircle
 62
7
  6
BYLAYER
 10
45.6657384739
 20
48.0999059282
 40
0.5
100
AcDbArc
 50
0.0
 51
90.0
  0
ARC
  5
29B
100
AcDbEntity
  8
64
100
AcDbCircle
 62
7
  6
BYLAYER
 10
11.6657384739
 20
48.0999059282
 40
0.5
100
AcDbArc
 50
90.0
 51
180.0
  0
ARC
  5
29C
100
AcDbEntity
  8
64
100
AcDbCircle
 62
7
  6
BYLAYER
 10
82.0859425768
 20
109.0797018253
 40
0.5
100
AcDbArc
 50
0.0
 51
90.0
  0
ARC
  5
29D
100
AcDbEntity
  8
64
100
AcDbCircle
 62
7
  6
BYLAYER
 10
12.2859425768
 20
109.0797018253
 40
0.5
100
AcDbArc
 50
90.0
 51
180.0
  0
SPLINE
  5
29E
100
AcDbEntity
  8
64
100
AcDbSpline
 62
7
  6
BYLAYER
 70
0
 71
3
 72
75
 73
71
 74
0
 42
0.0000001
 43
0.0000001
 44
0.0000000001
 40
0.0
 40
0.0
 40
0.0
 40
0.0
 40
0.0014073248
 40
0.0085438328
 40
0.0209399267
 40
0.0375774331
 40
0.0578686918
 40
0.0804378111
 40
0.1037064148
 40
0.1260832255
 40
0.1464819717
 40
0.1642131524
 40
0.1777631843
 40
0.1859245618
 40
0.1888256418
 40
0.1919924899
 40
0.2006362639
 40
0.2142765351
 40
0.2321124466
 40
0.2535791544
 40
0.2767565605
 40
0.2998933141
 40
0.3222051992
 40
0.3418816307
 40
0.3583306139
 40
0.370035768
 40
0.3764254805
 40
0.3776569057
 40
0.382955448
 40
0.3935223534
 40
0.4087793127
 40
0.4285562999
 40
0.4511849985
 40
0.474636947
 40
0.4974196977
 40
0.5194191354
 40
0.5384389332
 40
0.5527823945
 40
0.561815537
 40
0.5658166061
 40
0.5680410491
 40
0.5758560024
 40
0.5884423283
 40
0.6055854466
 40
0.626502902
 40
0.6494140257
 40
0.6725098457
 40
0.6950791118
 40
0.7162036803
 40
0.7336238836
 40
0.7458518349
 40
0.7528605061
 40
0.754692864
 40
0.7588887327
 40
0.7687369634
 40
0.7834362948
 40
0.8026444077
 40
0.8249351495
 40
0.8481644168
 40
0.8710669462
 40
0.8927654795
 40
0.912125959
 40
0.9278794275
 40
0.9381613205
 40
0.9429956462
 40
0.9445195019
 40
0.9515433441
 40
0.9637521944
 40
0.9803511217
 40
1.0
 40
1.0
 40
1.0
 40
1.0
 10
81.1744010003
 20
26.6797461484
 30
0.0
 10
81.1910890642
 20
26.6882066501
 30
0.0
 10
81.018352181
 20
26.8001703169
 30
0.0
 10
80.817720674
 20
26.7306700326
 30
0.0
 10
80.2917693145
 20
26.8259116639
 30
0.0
 10
79.6566266103
 20
26.8362979124
 30
0.0
 10
78.8595446389
 20
26.8858425987
 30
0.0
 10
77.9836354853
 20
26.9229985329
 30
0.0
 10
77.0763765956
 20
26.9604238101
 30
0.0
 10
76.2007793649
 20
26.9948100554
 30
0.0
 10
75.3921168033
 20
27.0361201891
 30
0.0
 10
74.7213822301
 20
27.0695562181
 30
0.0
 10
74.1607046519
 20
27.1212248044
 30
0.0
 10
73.9027392143
 20
27.1241068355
 30
0.0
 10
73.6227320081
 20
27.1967807755
 30
0.0
 10
73.9239509275
 20
27.2649857595
 30
0.0
 10
74.1823084025
 20
27.2751007135
 30
0.0
 10
74.75629261
 20
27.320404997
 30
0.0
 10
75.4422294249
 20
27.3542732048
 30
0.0
 10
76.2778003163
 20
27.3966228959
 30
0.0
 10
77.1763680377
 20
27.4353943697
 30
0.0
 10
78.0881736132
 20
27.4719423129
 30
0.0
 10
78.9543603193
 20
27.5061304785
 30
0.0
 10
79.7263212811
 20
27.5553143672
 30
0.0
 10
80.3720946392
 20
27.5681834073
 30
0.0
 10
80.8050948928
 20
27.6617948617
 30
0.0
 10
81.0995133883
 20
27.5985690336
 30
0.0
 10
81.214578025
 20
27.7661329093
 30
0.0
 10
80.8167221518
 20
27.7338006236
 30
0.0
 10
80.5208724571
 20
27.8106753589
 30
0.0
 10
79.8607148062
 20
27.8248966116
 30
0.0
 10
79.1165099199
 20
27.8735437801
 30
0.0
 10
78.2349741133
 20
27.9120549805
 30
0.0
 10
77.3216869961
 20
27.9508590045
 30
0.0
 10
76.4167687995
 20
27.9857829237
 30
0.0
 10
75.56239214
 20
28.0257525108
 30
0.0
 10
74.8488342514
 20
28.066059483
 30
0.0
 10
74.2338227794
 20
28.1050235946
 30
0.0
 10
73.9720606589
 20
28.1339178239
 30
0.0
 10
73.6260106091
 20
28.169132969
 30
0.0
 10
73.8618875457
 20
28.2748628238
 30
0.0
 10
74.1223562487
 20
28.2590012436
 30
0.0
 10
74.6421637162
 20
28.3190802172
 30
0.0
 10
75.3052709099
 20
28.3450747916
 30
0.0
 10
76.1181979213
 20
28.389666845
 30
0.0
 10
77.0059745149
 20
28.4282845785
 30
0.0
 10
77.9174452991
 20
28.4651645331
 30
0.0
 10
78.8039090826
 20
28.5000896196
 30
0.0
 10
79.617636599
 20
28.5458654767
 30
0.0
 10
80.2853233482
 20
28.5717548303
 30
0.0
 10
80.7851330109
 20
28.6400079948
 30
0.0
 10
81.0412036223
 20
28.6155691742
 30
0.0
 10
81.2413497485
 20
28.7260021556
 30
0.0
 10
80.872627708
 20
28.7542953583
 30
0.0
 10
80.6068532691
 20
28.7919594886
 30
0.0
 10
79.9689654211
 20
28.8241654833
 30
0.0
 10
79.2455359009
 20
28.8653138174
 30
0.0
 10
78.378479269
 20
28.9061221644
 30
0.0
 10
77.4712572108
 20
28.9446871419
 30
0.0
 10
76.5716974751
 20
28.9798317685
 30
0.0
 10
75.7150000173
 20
29.0169595111
 30
0.0
 10
74.9835772241
 20
29.0617878831
 30
0.0
 10
74.3202476884
 20
29.0885205812
 30
0.0
 10
74.0354493896
 20
29.1463307572
 30
0.0
 10
73.6394607792
 20
29.1420822621
 30
0.0
 10
73.8085239085
 20
29.2845218257
 30
0.0
 10
74.0861237798
 20
29.2422400974
 30
0.0
 10
74.5593726492
 20
29.3206026545
 30
0.0
 10
75.2034654264
 20
29.3369829911
 30
0.0
 10
75.6845068797
 20
29.3670449709
 30
0.0
 10
75.9454317962
 20
29.3796512969
 30
0.0
  0
SPLINE
  5
29F
100
AcDbEntity
  8
64
100
AcDbSpline
 62
7
  6
BYLAYER
 70
0
 71
3
 72
19
 73
15
 74
0
 42
0.0000001
 43
0.0000001
 44
0.0000000001
 40
0.0
 40
0.0
 40
0.0
 40
0.0
 40
0.0950280987
 40
0.192429575
 40
0.2895118959
 40
0.3855063102
 40
0.5728863453
 40
0.6629969205
 40
0.7478215944
 40
0.8245304106
 40
0.8911593965
 40
0.9463260205
 40
0.990110406
 40
1.0
 40
1.0
 40
1.0
 40
1.0
 10
79.0236418317
 20
29.1247018253
 30
0.0
 10
78.8553638785
 20
29.1323670794
 30
0.0
 10
78.5145853571
 20
29.1474589084
 30
0.0
 10
78.0018223338
 20
29.1687932559
 30
0.0
 10
77.4872895299
 20
29.1887446825
 30
0.0
 10
76.813345992
 20
29.2140791852
 30
0.0
 10
76.1517654503
 20
29.239423952
 30
0.0
 10
75.510147694
 20
29.2682287629
 30
0.0
 10
75.0646103179
 20
29.2902454913
 30
0.0
 10
74.6607573153
 20
29.3123229267
 30
0.0
 10
74.3095142984
 20
29.3335560106
 30
0.0
 10
74.0166653206
 20
29.3533440625
 30
0.0
 10
73.8243274529
 20
29.3687558765
 30
0.0
 10
73.7296394642
 20
29.3780789432
 30
0.0
 10
73.7121993306
 20
29.3798635143
 30
0.0
  0
SPLINE
  5
2A0
100
AcDbEntity
  8
64
100
AcDbSpline
 62
7
  6
BYLAYER
 70
0
 71
3
 72
50
 73
46
 74
0
 42
0.0000001
 43
0.0000001
 44
0.0000000001
 40
0.0
 40
0.0
 40
0.0
 40
0.0
 40
0.0593375421
 40
0.1134737601
 40
0.1611666723
 40
0.1825496751
 40
0.2023227891
 40
0.2204967364
 40
0.2370272242
 40
0.2518567672
 40
0.264928974
 40
0.2761792314
 40
0.2810898267
 40
0.2855057288
 40
0.2894138054
 40
0.2928017526
 40
0.2956587633
 40
0.2979770179
 40
0.2997589801
 40
0.3010377826
 40
0.3019007093
 40
0.3022497576
 40
0.3026052637
 40
0.3030150706
 40
0.3035107795
 40
0.3048199679
 40
0.3065998014
 40
0.3088683642
 40
0.3148829019
 40
0.3228529225
 40
0.3327368067
 40
0.3444836714
 40
0.3580545839
 40
0.3734720553
 40
0.4099958598
 40
0.4541084749
 40
0.5048945771
 40
0.5610538918
 40
0.6207128086
 40
0.6821429823
 40
0.744770369
 40
0.8083247604
 40
0.872599415
 40
0.9370853708
 40
1.0
 40
1.0
 40
1.0
 40
1.0
 10
75.8482433218
 20
28.6247018253
 30
0.0
 10
75.6895335463
 20
28.6174571022
 30
0.0
 10
75.3860435808
 20
28.603222546
 30
0.0
 10
74.9550514864
 20
28.5818786608
 30
0.0
 10
74.6255988694
 20
28.5647295142
 30
0.0
 10
74.3880846048
 20
28.5513349269
 30
0.0
 10
74.2295175111
 20
28.5417690085
 30
0.0
 10
74.0839664212
 20
28.5322310636
 30
0.0
 10
73.9516882872
 20
28.5226104223
 30
0.0
 10
73.8331235536
 20
28.5128099241
 30
0.0
 10
73.7287760588
 20
28.5027378211
 30
0.0
 10
73.6510195572
 20
28.4937062023
 30
0.0
 10
73.5964411246
 20
28.4861726628
 30
0.0
 10
73.5614248959
 20
28.4807260809
 30
0.0
 10
73.5305466478
 20
28.4752397724
 30
0.0
 10
73.5039216436
 20
28.4697354162
 30
0.0
 10
73.48165425
 20
28.4642243584
 30
0.0
 10
73.4638415714
 20
28.4587630965
 30
0.0
 10
73.4504589741
 20
28.4532809818
 30
0.0
 10
73.4414231531
 20
28.447949038
 30
0.0
 10
73.4367531816
 20
28.4426895171
 30
0.0
 10
73.4360888577
 20
28.438420527
 30
0.0
 10
73.4369115914
 20
28.4354740794
 30
0.0
 10
73.438860354
 20
28.4326656724
 30
0.0
 10
73.4432701369
 20
28.4286542011
 30
0.0
 10
73.4517495905
 20
28.4239665643
 30
0.0
 10
73.4651293934
 20
28.418780474
 30
0.0
 10
73.4910184266
 20
28.411208974
 30
0.0
 10
73.5337158994
 20
28.4025612061
 30
0.0
 10
73.5969034571
 20
28.3929572404
 30
0.0
 10
73.675601255
 20
28.3834805293
 30
0.0
 10
73.7693794077
 20
28.3740206477
 30
0.0
 10
73.8780334939
 20
28.3645011894
 30
0.0
 10
74.0529113024
 20
28.350859582
 30
0.0
 10
74.3095169863
 20
28.3335710989
 30
0.0
 10
74.6607564147
 20
28.3123178985
 30
0.0
 10
75.0646105848
 20
28.2902468578
 30
0.0
 10
75.5101476918
 20
28.2682293138
 30
0.0
 10
75.9842501111
 20
28.2469403636
 30
0.0
 10
76.4757445587
 20
28.2270286082
 30
0.0
 10
76.9777067842
 20
28.2078962083
 30
0.0
 10
77.4872896809
 20
28.1887458777
 30
0.0
 10
78.0018222956
 20
28.1687929539
 30
0.0
 10
78.5145853571
 20
28.1474589084
 30
0.0
 10
78.8553639027
 20
28.1323672705
 30
0.0
 10
79.0236418317
 20
28.1247018253
 30
0.0
  0
SPLINE
  5
2A1
100
AcDbEntity
  8
64
100
AcDbSpline
 62
7
  6
BYLAYER
 70
0
 71
3
 72
48
 73
44
 74
0
 42
0.0000001
 43
0.0000001
 44
0.0000000001
 40
0.0
 40
0.0
 40
0.0
 40
0.0
 40
0.0558459711
 40
0.111199827
 40
0.1859386115
 40
0.2592486562
 40
0.3304449037
 40
0.3974647675
 40
0.4580723027
 40
0.5107157772
 40
0.5543028547
 40
0.5727018832
 40
0.5888972501
 40
0.6029158199
 40
0.6147111307
 40
0.6242224592
 40
0.6314001376
 40
0.6341074136
 40
0.6362314459
 40
0.637793816
 40
0.6383853892
 40
0.6388744479
 40
0.6392987046
 40
0.6397152548
 40
0.6407450613
 40
0.6422711692
 40
0.6443977418
 40
0.6471643195
 40
0.6505738423
 40
0.6546169785
 40
0.659280831
 40
0.6645507165
 40
0.6704109631
 40
0.6838368875
 40
0.699437105
 40
0.7171345066
 40
0.7368617958
 40
0.7585503701
 40
0.7821473711
 40
0.8076655944
 40
0.8645817532
 40
0.9291872773
 40
1.0
 40
1.0
 40
1.0
 40
1.0
 10
77.1487375664
 20
26.6795604414
 30
0.0
 10
77.2739384771
 20
26.6844317564
 30
0.0
 10
77.5232439098
 20
26.6939500933
 30
0.0
 10
77.9401189343
 20
26.7096474219
 30
0.0
 10
78.3961405936
 20
26.7270285553
 30
0.0
 10
78.8876350427
 20
26.7469403773
 30
0.0
 10
79.3617374617
 20
26.7682293104
 30
0.0
 10
79.8072745687
 20
26.7902468586
 30
0.0
 10
80.2111287388
 20
26.8123178983
 30
0.0
 10
80.5623681672
 20
26.8335710989
 30
0.0
 10
80.8189738511
 20
26.850859582
 30
0.0
 10
80.9938516596
 20
26.8645011894
 30
0.0
 10
81.1025057458
 20
26.8740206477
 30
0.0
 10
81.1962838985
 20
26.8834805293
 30
0.0
 10
81.2749816964
 20
26.8929572404
 30
0.0
 10
81.3381692541
 20
26.9025612061
 30
0.0
 10
81.3808667269
 20
26.911208974
 30
0.0
 10
81.4067557601
 20
26.918780474
 30
0.0
 10
81.420135563
 20
26.9239665643
 30
0.0
 10
81.4286150166
 20
26.9286542011
 30
0.0
 10
81.4330247995
 20
26.9326656724
 30
0.0
 10
81.4349735621
 20
26.9354740794
 30
0.0
 10
81.4357962958
 20
26.938420527
 30
0.0
 10
81.4351319719
 20
26.9426895171
 30
0.0
 10
81.4304620004
 20
26.947949038
 30
0.0
 10
81.4214261794
 20
26.9532809818
 30
0.0
 10
81.4080435822
 20
26.9587630965
 30
0.0
 10
81.3902309035
 20
26.9642243584
 30
0.0
 10
81.3679635099
 20
26.9697354162
 30
0.0
 10
81.3413385057
 20
26.9752397724
 30
0.0
 10
81.3104602576
 20
26.9807260809
 30
0.0
 10
81.2754440289
 20
26.9861726628
 30
0.0
 10
81.2208655963
 20
26.9937062023
 30
0.0
 10
81.1431090947
 20
27.0027378211
 30
0.0
 10
81.0387615999
 20
27.0128099241
 30
0.0
 10
80.9201968663
 20
27.0226104223
 30
0.0
 10
80.7879187323
 20
27.0322310636
 30
0.0
 10
80.6423676424
 20
27.0417690085
 30
0.0
 10
80.4838005487
 20
27.0513349269
 30
0.0
 10
80.2462862841
 20
27.0647295142
 30
0.0
 10
79.9168336671
 20
27.0818786608
 30
0.0
 10
79.4858415727
 20
27.103222546
 30
0.0
 10
79.1823516072
 20
27.1174571022
 30
0.0
 10
79.0236418317
 20
27.1247018253
 30
0.0
  0
SPLINE
  5
2A2
100
AcDbEntity
  8
64
100
AcDbSpline
 62
7
  6
BYLAYER
 70
0
 71
3
 72
48
 73
44
 74
0
 42
0.0000001
 43
0.0000001
 44
0.0000000001
 40
0.0
 40
0.0
 40
0.0
 40
0.0
 40
0.0682723516
 40
0.1305601846
 40
0.1854345046
 40
0.2100372744
 40
0.2327877447
 40
0.2536982522
 40
0.2727178347
 40
0.2897803509
 40
0.3048209183
 40
0.3177651943
 40
0.3234152075
 40
0.3284960385
 40
0.3329925776
 40
0.3368906683
 40
0.3401778762
 40
0.3428452043
 40
0.3448954872
 40
0.3463668467
 40
0.3473597094
 40
0.3477613161
 40
0.3481703528
 40
0.3486418667
 40
0.3492122176
 40
0.3507185383
 40
0.352766372
 40
0.3553765259
 40
0.3622967087
 40
0.371466823
 40
0.3828389829
 40
0.3963546435
 40
0.4119690096
 40
0.4297079822
 40
0.471731395
 40
0.522486311
 40
0.5809195811
 40
0.6455351407
 40
0.7141772582
 40
0.7848573416
 40
0.8569149094
 40
0.9280622743
 40
1.0
 40
1.0
 40
1.0
 40
1.0
 10
75.8482433218
 20
27.1347018253
 30
0.0
 10
75.6895335463
 20
27.1274571022
 30
0.0
 10
75.3860435808
 20
27.113222546
 30
0.0
 10
74.9550514864
 20
27.0918786608
 30
0.0
 10
74.6255988694
 20
27.0747295142
 30
0.0
 10
74.3880846048
 20
27.0613349269
 30
0.0
 10
74.2295175111
 20
27.0517690085
 30
0.0
 10
74.0839664212
 20
27.0422310636
 30
0.0
 10
73.9516882872
 20
27.0326104223
 30
0.0
 10
73.8331235536
 20
27.0228099241
 30
0.0
 10
73.7287760588
 20
27.0127378211
 30
0.0
 10
73.6510195572
 20
27.0037062023
 30
0.0
 10
73.5964411246
 20
26.9961726628
 30
0.0
 10
73.5614248959
 20
26.9907260809
 30
0.0
 10
73.5305466478
 20
26.9852397724
 30
0.0
 10
73.5039216436
 20
26.9797354162
 30
0.0
 10
73.48165425
 20
26.9742243584
 30
0.0
 10
73.4638415714
 20
26.9687630965
 30
0.0
 10
73.4504589741
 20
26.9632809818
 30
0.0
 10
73.4414231531
 20
26.957949038
 30
0.0
 10
73.4367531816
 20
26.9526895171
 30
0.0
 10
73.4360888577
 20
26.948420527
 30
0.0
 10
73.4369115914
 20
26.9454740794
 30
0.0
 10
73.438860354
 20
26.9426656724
 30
0.0
 10
73.4432701369
 20
26.9386542011
 30
0.0
 10
73.4517495905
 20
26.9339665643
 30
0.0
 10
73.4651293934
 20
26.928780474
 30
0.0
 10
73.4910184266
 20
26.921208974
 30
0.0
 10
73.5337158994
 20
26.9125612061
 30
0.0
 10
73.5969034571
 20
26.9029572404
 30
0.0
 10
73.675601255
 20
26.8934805293
 30
0.0
 10
73.7693794077
 20
26.8840206477
 30
0.0
 10
73.8780334939
 20
26.8745011894
 30
0.0
 10
74.0529113024
 20
26.860859582
 30
0.0
 10
74.3095169863
 20
26.843571099
 30
0.0
 10
74.6607564147
 20
26.8223178981
 30
0.0
 10
75.0646105848
 20
26.8002468599
 30
0.0
 10
75.5101476919
 20
26.7782293051
 30
0.0
 10
75.9842501108
 20
26.7569403987
 30
0.0
 10
76.4757445601
 20
26.7370284723
 30
0.0
 10
76.9731099718
 20
26.7180719312
 30
0.0
 10
77.4734097636
 20
26.6992644055
 30
0.0
 10
77.8061305191
 20
26.6863914715
 30
0.0
 10
77.973401027
 20
26.6796898702
 30
0.0
  0
SPLINE
  5
2A3
100
AcDbEntity
  8
64
100
AcDbSpline
 62
7
  6
BYLAYER
 70
0
 71
3
 72
50
 73
46
 74
0
 42
0.0000001
 43
0.0000001
 44
0.0000000001
 40
0.0
 40
0.0
 40
0.0
 40
0.0
 40
0.0629146292
 40
0.127400585
 40
0.1916752396
 40
0.255229631
 40
0.3178570177
 40
0.3792871914
 40
0.4389461082
 40
0.4951054229
 40
0.5458915251
 40
0.5900041402
 40
0.6265279447
 40
0.6419454161
 40
0.6555163286
 40
0.6672631933
 40
0.6771470775
 40
0.6851170981
 40
0.6911316358
 40
0.6934001986
 40
0.6951800321
 40
0.6964892205
 40
0.6969849294
 40
0.6973947363
 40
0.6977502424
 40
0.6980992907
 40
0.6989622174
 40
0.7002410199
 40
0.7020229821
 40
0.7043412367
 40
0.7071982474
 40
0.7105861946
 40
0.7144942712
 40
0.7189101733
 40
0.7238207686
 40
0.735071026
 40
0.7481432328
 40
0.7629727758
 40
0.7795032636
 40
0.7976772109
 40
0.8174503249
 40
0.8388333277
 40
0.8865262399
 40
0.9406624579
 40
1.0
 40
1.0
 40
1.0
 40
1.0
 10
79.0236418317
 20
27.6347018253
 30
0.0
 10
78.8553639027
 20
27.6423672705
 30
0.0
 10
78.5145853571
 20
27.6574589084
 30
0.0
 10
78.0018222956
 20
27.6787929539
 30
0.0
 10
77.4872896809
 20
27.6987458777
 30
0.0
 10
76.9777067842
 20
27.7178962083
 30
0.0
 10
76.4757445587
 20
27.7370286082
 30
0.0
 10
75.9842501111
 20
27.7569403636
 30
0.0
 10
75.5101476918
 20
27.7782293138
 30
0.0
 10
75.0646105848
 20
27.8002468578
 30
0.0
 10
74.6607564147
 20
27.8223178985
 30
0.0
 10
74.3095169863
 20
27.8435710989
 30
0.0
 10
74.0529113024
 20
27.860859582
 30
0.0
 10
73.8780334939
 20
27.8745011894
 30
0.0
 10
73.7693794077
 20
27.8840206477
 30
0.0
 10
73.675601255
 20
27.8934805293
 30
0.0
 10
73.5969034571
 20
27.9029572404
 30
0.0
 10
73.5337158994
 20
27.9125612061
 30
0.0
 10
73.4910184266
 20
27.921208974
 30
0.0
 10
73.4651293934
 20
27.928780474
 30
0.0
 10
73.4517495905
 20
27.9339665643
 30
0.0
 10
73.4432701369
 20
27.9386542011
 30
0.0
 10
73.438860354
 20
27.9426656724
 30
0.0
 10
73.4369115914
 20
27.9454740794
 30
0.0
 10
73.4360888577
 20
27.948420527
 30
0.0
 10
73.4367531816
 20
27.9526895171
 30
0.0
 10
73.4414231531
 20
27.957949038
 30
0.0
 10
73.4504589741
 20
27.9632809818
 30
0.0
 10
73.4638415714
 20
27.9687630965
 30
0.0
 10
73.48165425
 20
27.9742243584
 30
0.0
 10
73.5039216436
 20
27.9797354162
 30
0.0
 10
73.5305466478
 20
27.9852397724
 30
0.0
 10
73.5614248959
 20
27.9907260809
 30
0.0
 10
73.5964411246
 20
27.9961726628
 30
0.0
 10
73.6510195572
 20
28.0037062023
 30
0.0
 10
73.7287760588
 20
28.0127378211
 30
0.0
 10
73.8331235536
 20
28.0228099241
 30
0.0
 10
73.9516882872
 20
28.0326104223
 30
0.0
 10
74.0839664212
 20
28.0422310636
 30
0.0
 10
74.2295175111
 20
28.0517690085
 30
0.0
 10
74.3880846048
 20
28.0613349269
 30
0.0
 10
74.6255988694
 20
28.0747295142
 30
0.0
 10
74.9550514864
 20
28.0918786608
 30
0.0
 10
75.3860435808
 20
28.113222546
 30
0.0
 10
75.6895335463
 20
28.1274571022
 30
0.0
 10
75.8482433218
 20
28.1347018253
 30
0.0
  0
SPLINE
  5
2A4
100
AcDbEntity
  8
64
100
AcDbSpline
 62
7
  6
BYLAYER
 70
0
 71
3
 72
50
 73
46
 74
0
 42
0.0000001
 43
0.0000001
 44
0.0000000001
 40
0.0
 40
0.0
 40
0.0
 40
0.0
 40
0.0629146292
 40
0.127400585
 40
0.1916752396
 40
0.255229631
 40
0.3178570177
 40
0.3792871914
 40
0.4389461082
 40
0.4951054229
 40
0.5458915251
 40
0.5900041402
 40
0.6265279447
 40
0.6419454161
 40
0.6555163286
 40
0.6672631933
 40
0.6771470775
 40
0.6851170981
 40
0.6911316358
 40
0.6934001986
 40
0.6951800321
 40
0.6964892205
 40
0.6969849294
 40
0.6973947363
 40
0.6977502424
 40
0.6980992907
 40
0.6989622174
 40
0.7002410199
 40
0.7020229821
 40
0.7043412367
 40
0.7071982474
 40
0.7105861946
 40
0.7144942712
 40
0.7189101733
 40
0.7238207686
 40
0.735071026
 40
0.7481432328
 40
0.7629727758
 40
0.7795032636
 40
0.7976772109
 40
0.8174503249
 40
0.8388333277
 40
0.8865262399
 40
0.9406624579
 40
1.0
 40
1.0
 40
1.0
 40
1.0
 10
75.8482433218
 20
28.1347018253
 30
0.0
 10
76.0165212508
 20
28.1423672705
 30
0.0
 10
76.3572997964
 20
28.1574589084
 30
0.0
 10
76.8700628579
 20
28.1787929539
 30
0.0
 10
77.3845954726
 20
28.1987458777
 30
0.0
 10
77.8941783693
 20
28.2178962083
 30
0.0
 10
78.3961405948
 20
28.2370286082
 30
0.0
 10
78.8876350424
 20
28.2569403636
 30
0.0
 10
79.3617374617
 20
28.2782293138
 30
0.0
 10
79.8072745687
 20
28.3002468578
 30
0.0
 10
80.2111287388
 20
28.3223178985
 30
0.0
 10
80.5623681672
 20
28.3435710989
 30
0.0
 10
80.8189738511
 20
28.360859582
 30
0.0
 10
80.9938516596
 20
28.3745011894
 30
0.0
 10
81.1025057458
 20
28.3840206477
 30
0.0
 10
81.1962838985
 20
28.3934805293
 30
0.0
 10
81.2749816964
 20
28.4029572404
 30
0.0
 10
81.3381692541
 20
28.4125612061
 30
0.0
 10
81.3808667269
 20
28.421208974
 30
0.0
 10
81.4067557601
 20
28.428780474
 30
0.0
 10
81.420135563
 20
28.4339665643
 30
0.0
 10
81.4286150166
 20
28.4386542011
 30
0.0
 10
81.4330247995
 20
28.4426656724
 30
0.0
 10
81.4349735621
 20
28.4454740794
 30
0.0
 10
81.4357962958
 20
28.448420527
 30
0.0
 10
81.4351319719
 20
28.4526895171
 30
0.0
 10
81.4304620004
 20
28.457949038
 30
0.0
 10
81.4214261794
 20
28.4632809818
 30
0.0
 10
81.4080435822
 20
28.4687630965
 30
0.0
 10
81.3902309035
 20
28.4742243584
 30
0.0
 10
81.3679635099
 20
28.4797354162
 30
0.0
 10
81.3413385057
 20
28.4852397724
 30
0.0
 10
81.3104602576
 20
28.4907260809
 30
0.0
 10
81.2754440289
 20
28.4961726628
 30
0.0
 10
81.2208655963
 20
28.5037062023
 30
0.0
 10
81.1431090947
 20
28.5127378211
 30
0.0
 10
81.0387615999
 20
28.5228099241
 30
0.0
 10
80.9201968663
 20
28.5326104223
 30
0.0
 10
80.7879187323
 20
28.5422310636
 30
0.0
 10
80.6423676424
 20
28.5517690085
 30
0.0
 10
80.4838005487
 20
28.5613349269
 30
0.0
 10
80.2462862841
 20
28.5747295142
 30
0.0
 10
79.9168336671
 20
28.5918786608
 30
0.0
 10
79.4858415727
 20
28.613222546
 30
0.0
 10
79.1823516072
 20
28.6274571022
 30
0.0
 10
79.0236418317
 20
28.6347018253
 30
0.0
  0
SPLINE
  5
2A5
100
AcDbEntity
  8
64
100
AcDbSpline
 62
7
  6
BYLAYER
 70
0
 71
3
 72
16
 73
12
 74
0
 42
0.0000001
 43
0.0000001
 44
0.0000000001
 40
0.0
 40
0.0
 40
0.0
 40
0.0
 40
0.0406849448
 40
0.0901218091
 40
0.1581503745
 40
0.2364705029
 40
0.4150798866
 40
0.6063959455
 40
0.8035283327
 40
0.9029757822
 40
1.0
 40
1.0
 40
1.0
 40
1.0
 10
81.0507662326
 20
29.3795401365
 30
0.0
 10
80.9803895434
 20
29.373445808
 30
0.0
 10
80.8244022569
 20
29.361175782
 30
0.0
 10
80.5504292412
 20
29.3428602723
 30
0.0
 10
80.2111291076
 20
29.322311501
 30
0.0
 10
79.6477763744
 20
29.2915500515
 30
0.0
 10
78.8703716908
 20
29.2552155815
 30
0.0
 10
77.8865719415
 20
29.2174839465
 30
0.0
 10
77.0400814401
 20
29.1858698991
 30
0.0
 10
76.3572997964
 20
29.1574589084
 30
0.0
 10
76.0165212025
 20
29.1423657749
 30
0.0
 10
75.8482433218
 20
29.1347018253
 30
0.0
  0
SPLINE
  5
2A6
100
AcDbEntity
  8
64
100
AcDbSpline
 62
7
  6
BYLAYER
 70
0
 71
3
 72
75
 73
71
 74
0
 42
0.0000001
 43
0.0000001
 44
0.0000000001
 40
0.0
 40
0.0
 40
0.0
 40
0.0
 40
0.01985085
 40
0.0362387206
 40
0.0483019088
 40
0.0554105126
 40
0.0570497564
 40
0.061924275
 40
0.0720725674
 40
0.0874118974
 40
0.1063916014
 40
0.1283182756
 40
0.1512475144
 40
0.1745106434
 40
0.1966377452
 40
0.2157743966
 40
0.2305297482
 40
0.2406533014
 40
0.2452543253
 40
0.2470499331
 40
0.2543571934
 40
0.2668989543
 40
0.2840857203
 40
0.3042263211
 40
0.3269756901
 40
0.3500428532
 40
0.3730128867
 40
0.3940363288
 40
0.4113257021
 40
0.4240497902
 40
0.4319104574
 40
0.4341176358
 40
0.438101669
 40
0.4470977352
 40
0.4613532686
 40
0.4803517013
 40
0.5024435708
 40
0.5254726905
 40
0.5492645643
 40
0.5720378109
 40
0.5915598292
 40
0.6064566235
 40
0.6169065911
 40
0.6222370845
 40
0.6233852049
 40
0.6296796464
 40
0.6411302709
 40
0.6572790199
 40
0.6773092993
 40
0.6996824105
 40
0.722715814
 40
0.74516426
 40
0.7663106402
 40
0.7846520945
 40
0.7986514631
 40
0.8077435412
 40
0.8111242188
 40
0.8141824428
 40
0.8225156106
 40
0.8359354291
 40
0.8541305333
 40
0.8753855478
 40
0.8981367794
 40
0.921109868
 40
0.9432595094
 40
0.9635174472
 40
0.9801247777
 40
0.9919108987
 40
0.9986493978
 40
1.0
 40
1.0
 40
1.0
 40
1.0
 10
78.9245052275
 20
29.3797459827
 30
0.0
 10
79.1880645635
 20
29.3670122808
 30
0.0
 10
79.6692299305
 20
29.3370147794
 30
0.0
 10
80.3099492368
 20
29.3198913933
 30
0.0
 10
80.7823029774
 20
29.2442588469
 30
0.0
 10
81.0559782134
 20
29.2845114589
 30
0.0
 10
81.2345111199
 20
29.1428786269
 30
0.0
 10
80.8380605462
 20
29.145382516
 30
0.0
 10
80.5570357938
 20
29.0902840157
 30
0.0
 10
79.9084088796
 20
29.0623549221
 30
0.0
 10
79.1840606961
 20
29.0180940331
 30
0.0
 10
78.329163049
 20
28.9813404339
 30
0.0
 10
77.4259388789
 20
28.9460761936
 30
0.0
 10
76.520254958
 20
28.906907564
 30
0.0
 10
75.6561324659
 20
28.8669442296
 30
0.0
 10
74.9349050301
 20
28.8251087269
 30
0.0
 10
74.2935962036
 20
28.7970706912
 30
0.0
 10
74.0218583123
 20
28.7503590656
 30
0.0
 10
73.6327569271
 20
28.7356317841
 30
0.0
 10
73.8305125021
 20
28.607859062
 30
0.0
 10
74.1025299797
 20
28.6436718053
 30
0.0
 10
74.602051369
 20
28.5688772375
 30
0.0
 10
75.2601503743
 20
28.5461067189
 30
0.0
 10
76.0590149482
 20
28.5002978198
 30
0.0
 10
76.9345278821
 20
28.4659700856
 30
0.0
 10
77.8485611403
 20
28.4291933206
 30
0.0
 10
78.7380125231
 20
28.3903904438
 30
0.0
 10
79.5548837718
 20
28.3453600485
 30
0.0
 10
80.2231046054
 20
28.3197572006
 30
0.0
 10
80.7471711689
 20
28.2590090033
 30
0.0
 10
81.0100406977
 20
28.2756866009
 30
0.0
 10
81.2450530336
 20
28.1684101504
 30
0.0
 10
80.9005574137
 20
28.1348722024
 30
0.0
 10
80.6403075078
 20
28.1052267365
 30
0.0
 10
80.0276250761
 20
28.0660613515
 30
0.0
 10
79.3144267142
 20
28.0257834074
 30
0.0
 10
78.4558985074
 20
27.9862025921
 30
0.0
 10
77.5421975868
 20
27.9507350867
 30
0.0
 10
76.6192917629
 20
27.9109087594
 30
0.0
 10
75.7352552942
 20
27.8726369183
 30
0.0
 10
74.9958071163
 20
27.8237503403
 30
0.0
 10
74.3502003691
 20
27.8120946597
 30
0.0
 10
74.051456086
 20
27.7298258255
 30
0.0
 10
73.6672576591
 20
27.771931823
 30
0.0
 10
73.7589039566
 20
27.5958571401
 30
0.0
 10
74.0635029314
 20
27.6652674589
 30
0.0
 10
74.4775673514
 20
27.5684068666
 30
0.0
 10
75.1252463738
 20
27.5572044365
 30
0.0
 10
75.8967114046
 20
27.5065823761
 30
0.0
 10
76.7674801626
 20
27.4727220107
 30
0.0
 10
77.6687216187
 20
27.4368681841
 30
0.0
 10
78.5519198545
 20
27.3983370869
 30
0.0
 10
79.3799873553
 20
27.3565313961
 30
0.0
 10
80.0727163253
 20
27.323117078
 30
0.0
 10
80.665588507
 20
27.2773638013
 30
0.0
 10
80.9329479482
 20
27.2670382055
 30
0.0
 10
81.2531928235
 20
27.1964866855
 30
0.0
 10
80.9612587756
 20
27.1241985714
 30
0.0
 10
80.701508809
 20
27.1198455069
 30
0.0
 10
80.1343978126
 20
27.0683940629
 30
0.0
 10
79.4483341565
 20
27.0343223247
 30
0.0
 10
78.617069958
 20
26.9926261895
 30
0.0
 10
77.7292217076
 20
26.9579250919
 30
0.0
 10
76.8267320996
 20
26.9201875635
 30
0.0
 10
75.9607159247
 20
26.8835238367
 30
0.0
 10
75.1707586491
 20
26.8332649272
 30
0.0
 10
74.5430102663
 20
26.8248622242
 30
0.0
 10
74.036646395
 20
26.7288342701
 30
0.0
 10
73.8395655139
 20
26.7984942481
 30
0.0
 10
73.6814188167
 20
26.6876458806
 30
0.0
 10
73.6974312663
 20
26.6795276457
 30
0.0
  0
SPLINE
  5
2A7
100
AcDbEntity
  8
64
100
AcDbSpline
 62
7
  6
BYLAYER
 70
0
 71
3
 72
48
 73
44
 74
0
 42
0.0000001
 43
0.0000001
 44
0.0000000001
 40
0.0
 40
0.0
 40
0.0
 40
0.0
 40
0.0682723516
 40
0.1305601846
 40
0.1854345046
 40
0.2100372744
 40
0.2327877447
 40
0.2536982522
 40
0.2727178347
 40
0.2897803509
 40
0.3048209183
 40
0.3177651943
 40
0.3234152075
 40
0.3284960385
 40
0.3329925776
 40
0.3368906683
 40
0.3401778762
 40
0.3428452043
 40
0.3448954872
 40
0.3463668467
 40
0.3473597094
 40
0.3477613161
 40
0.3481703528
 40
0.3486418667
 40
0.3492122176
 40
0.3507185383
 40
0.352766372
 40
0.3553765259
 40
0.3622967087
 40
0.371466823
 40
0.3828389829
 40
0.3963546435
 40
0.4119690096
 40
0.4297079822
 40
0.471731395
 40
0.522486311
 40
0.5809195811
 40
0.6455351407
 40
0.7141772582
 40
0.7848573416
 40
0.8569149094
 40
0.9280622743
 40
1.0
 40
1.0
 40
1.0
 40
1.0
 10
79.0236418317
 20
27.1347018253
 30
0.0
 10
79.1823516072
 20
27.1274571022
 30
0.0
 10
79.4858415727
 20
27.113222546
 30
0.0
 10
79.9168336671
 20
27.0918786608
 30
0.0
 10
80.2462862841
 20
27.0747295142
 30
0.0
 10
80.4838005487
 20
27.0613349269
 30
0.0
 10
80.6423676424
 20
27.0517690085
 30
0.0
 10
80.7879187323
 20
27.0422310636
 30
0.0
 10
80.9201968663
 20
27.0326104223
 30
0.0
 10
81.0387615999
 20
27.0228099241
 30
0.0
 10
81.1431090947
 20
27.0127378211
 30
0.0
 10
81.2208655963
 20
27.0037062023
 30
0.0
 10
81.2754440289
 20
26.9961726628
 30
0.0
 10
81.3104602576
 20
26.9907260809
 30
0.0
 10
81.3413385057
 20
26.9852397724
 30
0.0
 10
81.3679635099
 20
26.9797354162
 30
0.0
 10
81.3902309035
 20
26.9742243584
 30
0.0
 10
81.4080435822
 20
26.9687630965
 30
0.0
 10
81.4214261794
 20
26.9632809818
 30
0.0
 10
81.4304620004
 20
26.957949038
 30
0.0
 10
81.4351319719
 20
26.9526895171
 30
0.0
 10
81.4357962958
 20
26.948420527
 30
0.0
 10
81.4349735621
 20
26.9454740794
 30
0.0
 10
81.4330247995
 20
26.9426656724
 30
0.0
 10
81.4286150166
 20
26.9386542011
 30
0.0
 10
81.420135563
 20
26.9339665643
 30
0.0
 10
81.4067557601
 20
26.928780474
 30
0.0
 10
81.3808667269
 20
26.921208974
 30
0.0
 10
81.3381692541
 20
26.9125612061
 30
0.0
 10
81.2749816964
 20
26.9029572404
 30
0.0
 10
81.1962838985
 20
26.8934805293
 30
0.0
 10
81.1025057458
 20
26.8840206477
 30
0.0
 10
80.9938516596
 20
26.8745011894
 30
0.0
 10
80.8189738511
 20
26.860859582
 30
0.0
 10
80.5623681672
 20
26.843571099
 30
0.0
 10
80.2111287388
 20
26.8223178981
 30
0.0
 10
79.8072745687
 20
26.8002468599
 30
0.0
 10
79.3617374616
 20
26.7782293051
 30
0.0
 10
78.8876350427
 20
26.7569403987
 30
0.0
 10
78.3961405934
 20
26.7370284723
 30
0.0
 10
77.8987751817
 20
26.7180719312
 30
0.0
 10
77.3984753899
 20
26.6992644055
 30
0.0
 10
77.0657546344
 20
26.6863914715
 30
0.0
 10
76.8984841265
 20
26.6796898702
 30
0.0
  0
SPLINE
  5
2A8
100
AcDbEntity
  8
64
100
AcDbSpline
 62
7
  6
BYLAYER
 70
0
 71
3
 72
50
 73
46
 74
0
 42
0.0000001
 43
0.0000001
 44
0.0000000001
 40
0.0
 40
0.0
 40
0.0
 40
0.0
 40
0.0629146292
 40
0.127400585
 40
0.1916752396
 40
0.255229631
 40
0.3178570177
 40
0.3792871914
 40
0.4389461082
 40
0.4951054229
 40
0.5458915251
 40
0.5900041402
 40
0.6265279447
 40
0.6419454161
 40
0.6555163286
 40
0.6672631933
 40
0.6771470775
 40
0.6851170981
 40
0.6911316358
 40
0.6934001986
 40
0.6951800321
 40
0.6964892205
 40
0.6969849294
 40
0.6973947363
 40
0.6977502424
 40
0.6980992907
 40
0.6989622174
 40
0.7002410199
 40
0.7020229821
 40
0.7043412367
 40
0.7071982474
 40
0.7105861946
 40
0.7144942712
 40
0.7189101733
 40
0.7238207686
 40
0.735071026
 40
0.7481432328
 40
0.7629727758
 40
0.7795032636
 40
0.7976772109
 40
0.8174503249
 40
0.8388333277
 40
0.8865262399
 40
0.9406624579
 40
1.0
 40
1.0
 40
1.0
 40
1.0
 10
79.0236418317
 20
27.1347018253
 30
0.0
 10
78.8553639027
 20
27.1423672705
 30
0.0
 10
78.5145853571
 20
27.1574589084
 30
0.0
 10
78.0018222956
 20
27.1787929539
 30
0.0
 10
77.4872896809
 20
27.1987458777
 30
0.0
 10
76.9777067842
 20
27.2178962083
 30
0.0
 10
76.4757445587
 20
27.2370286082
 30
0.0
 10
75.9842501111
 20
27.2569403636
 30
0.0
 10
75.5101476918
 20
27.2782293138
 30
0.0
 10
75.0646105848
 20
27.3002468578
 30
0.0
 10
74.6607564147
 20
27.3223178985
 30
0.0
 10
74.3095169863
 20
27.3435710989
 30
0.0
 10
74.0529113024
 20
27.360859582
 30
0.0
 10
73.8780334939
 20
27.3745011894
 30
0.0
 10
73.7693794077
 20
27.3840206477
 30
0.0
 10
73.675601255
 20
27.3934805293
 30
0.0
 10
73.5969034571
 20
27.4029572404
 30
0.0
 10
73.5337158994
 20
27.4125612061
 30
0.0
 10
73.4910184266
 20
27.421208974
 30
0.0
 10
73.4651293934
 20
27.428780474
 30
0.0
 10
73.4517495905
 20
27.4339665643
 30
0.0
 10
73.4432701369
 20
27.4386542011
 30
0.0
 10
73.438860354
 20
27.4426656724
 30
0.0
 10
73.4369115914
 20
27.4454740794
 30
0.0
 10
73.4360888577
 20
27.448420527
 30
0.0
 10
73.4367531816
 20
27.4526895171
 30
0.0
 10
73.4414231531
 20
27.457949038
 30
0.0
 10
73.4504589741
 20
27.4632809818
 30
0.0
 10
73.4638415714
 20
27.4687630965
 30
0.0
 10
73.48165425
 20
27.4742243584
 30
0.0
 10
73.5039216436
 20
27.4797354162
 30
0.0
 10
73.5305466478
 20
27.4852397724
 30
0.0
 10
73.5614248959
 20
27.4907260809
 30
0.0
 10
73.5964411246
 20
27.4961726628
 30
0.0
 10
73.6510195572
 20
27.5037062023
 30
0.0
 10
73.7287760588
 20
27.5127378211
 30
0.0
 10
73.8331235536
 20
27.5228099241
 30
0.0
 10
73.9516882872
 20
27.5326104223
 30
0.0
 10
74.0839664212
 20
27.5422310636
 30
0.0
 10
74.2295175111
 20
27.5517690085
 30
0.0
 10
74.3880846048
 20
27.5613349269
 30
0.0
 10
74.6255988694
 20
27.5747295142
 30
0.0
 10
74.9550514864
 20
27.5918786608
 30
0.0
 10
75.3860435808
 20
27.613222546
 30
0.0
 10
75.6895335463
 20
27.6274571022
 30
0.0
 10
75.8482433218
 20
27.6347018253
 30
0.0
  0
SPLINE
  5
2A9
100
AcDbEntity
  8
64
100
AcDbSpline
 62
7
  6
BYLAYER
 70
0
 71
3
 72
50
 73
46
 74
0
 42
0.0000001
 43
0.0000001
 44
0.0000000001
 40
0.0
 40
0.0
 40
0.0
 40
0.0
 40
0.0629146292
 40
0.127400585
 40
0.1916752396
 40
0.255229631
 40
0.3178570177
 40
0.3792871914
 40
0.4389461082
 40
0.4951054229
 40
0.5458915251
 40
0.5900041402
 40
0.6265279447
 40
0.6419454161
 40
0.6555163286
 40
0.6672631933
 40
0.6771470775
 40
0.6851170981
 40
0.6911316358
 40
0.6934001986
 40
0.6951800321
 40
0.6964892205
 40
0.6969849294
 40
0.6973947363
 40
0.6977502424
 40
0.6980992907
 40
0.6989622174
 40
0.7002410199
 40
0.7020229821
 40
0.7043412367
 40
0.7071982474
 40
0.7105861946
 40
0.7144942712
 40
0.7189101733
 40
0.7238207686
 40
0.735071026
 40
0.7481432328
 40
0.7629727758
 40
0.7795032636
 40
0.7976772109
 40
0.8174503249
 40
0.8388333277
 40
0.8865262399
 40
0.9406624579
 40
1.0
 40
1.0
 40
1.0
 40
1.0
 10
75.8482433218
 20
27.6347018253
 30
0.0
 10
76.0165212508
 20
27.6423672705
 30
0.0
 10
76.3572997964
 20
27.6574589084
 30
0.0
 10
76.8700628579
 20
27.6787929539
 30
0.0
 10
77.3845954726
 20
27.6987458777
 30
0.0
 10
77.8941783693
 20
27.7178962083
 30
0.0
 10
78.3961405948
 20
27.7370286082
 30
0.0
 10
78.8876350424
 20
27.7569403636
 30
0.0
 10
79.3617374617
 20
27.7782293138
 30
0.0
 10
79.8072745687
 20
27.8002468578
 30
0.0
 10
80.2111287388
 20
27.8223178985
 30
0.0
 10
80.5623681672
 20
27.8435710989
 30
0.0
 10
80.8189738511
 20
27.860859582
 30
0.0
 10
80.9938516596
 20
27.8745011894
 30
0.0
 10
81.1025057458
 20
27.8840206477
 30
0.0
 10
81.1962838985
 20
27.8934805293
 30
0.0
 10
81.2749816964
 20
27.9029572404
 30
0.0
 10
81.3381692541
 20
27.9125612061
 30
0.0
 10
81.3808667269
 20
27.921208974
 30
0.0
 10
81.4067557601
 20
27.928780474
 30
0.0
 10
81.420135563
 20
27.9339665643
 30
0.0
 10
81.4286150166
 20
27.9386542011
 30
0.0
 10
81.4330247995
 20
27.9426656724
 30
0.0
 10
81.4349735621
 20
27.9454740794
 30
0.0
 10
81.4357962958
 20
27.948420527
 30
0.0
 10
81.4351319719
 20
27.9526895171
 30
0.0
 10
81.4304620004
 20
27.957949038
 30
0.0
 10
81.4214261794
 20
27.9632809818
 30
0.0
 10
81.4080435822
 20
27.9687630965
 30
0.0
 10
81.3902309035
 20
27.9742243584
 30
0.0
 10
81.3679635099
 20
27.9797354162
 30
0.0
 10
81.3413385057
 20
27.9852397724
 30
0.0
 10
81.3104602576
 20
27.9907260809
 30
0.0
 10
81.2754440289
 20
27.9961726628
 30
0.0
 10
81.2208655963
 20
28.0037062023
 30
0.0
 10
81.1431090947
 20
28.0127378211
 30
0.0
 10
81.0387615999
 20
28.0228099241
 30
0.0
 10
80.9201968663
 20
28.0326104223
 30
0.0
 10
80.7879187323
 20
28.0422310636
 30
0.0
 10
80.6423676424
 20
28.0517690085
 30
0.0
 10
80.4838005487
 20
28.0613349269
 30
0.0
 10
80.2462862841
 20
28.0747295142
 30
0.0
 10
79.9168336671
 20
28.0918786608
 30
0.0
 10
79.4858415727
 20
28.113222546
 30
0.0
 10
79.1823516072
 20
28.1274571022
 30
0.0
 10
79.0236418317
 20
28.1347018253
 30
0.0
  0
SPLINE
  5
2AA
100
AcDbEntity
  8
64
100
AcDbSpline
 62
7
  6
BYLAYER
 70
0
 71
3
 72
50
 73
46
 74
0
 42
0.0000001
 43
0.0000001
 44
0.0000000001
 40
0.0
 40
0.0
 40
0.0
 40
0.0
 40
0.0629146292
 40
0.127400585
 40
0.1916752396
 40
0.255229631
 40
0.3178570177
 40
0.3792871914
 40
0.4389461082
 40
0.4951054229
 40
0.5458915251
 40
0.5900041402
 40
0.6265279447
 40
0.6419454161
 40
0.6555163286
 40
0.6672631933
 40
0.6771470775
 40
0.6851170981
 40
0.6911316358
 40
0.6934001986
 40
0.6951800321
 40
0.6964892205
 40
0.6969849294
 40
0.6973947363
 40
0.6977502424
 40
0.6980992907
 40
0.6989622174
 40
0.7002410199
 40
0.7020229821
 40
0.7043412367
 40
0.7071982474
 40
0.7105861946
 40
0.7144942712
 40
0.7189101733
 40
0.7238207686
 40
0.735071026
 40
0.7481432328
 40
0.7629727758
 40
0.7795032636
 40
0.7976772109
 40
0.8174503249
 40
0.8388333277
 40
0.8865262399
 40
0.9406624579
 40
1.0
 40
1.0
 40
1.0
 40
1.0
 10
75.8482433218
 20
28.6347018253
 30
0.0
 10
76.0165212508
 20
28.6423672705
 30
0.0
 10
76.3572997964
 20
28.6574589084
 30
0.0
 10
76.8700628579
 20
28.6787929539
 30
0.0
 10
77.3845954726
 20
28.6987458777
 30
0.0
 10
77.8941783693
 20
28.7178962083
 30
0.0
 10
78.3961405948
 20
28.7370286082
 30
0.0
 10
78.8876350424
 20
28.7569403636
 30
0.0
 10
79.3617374617
 20
28.7782293138
 30
0.0
 10
79.8072745687
 20
28.8002468578
 30
0.0
 10
80.2111287388
 20
28.8223178985
 30
0.0
 10
80.5623681672
 20
28.8435710989
 30
0.0
 10
80.8189738511
 20
28.860859582
 30
0.0
 10
80.9938516596
 20
28.8745011894
 30
0.0
 10
81.1025057458
 20
28.8840206477
 30
0.0
 10
81.1962838985
 20
28.8934805293
 30
0.0
 10
81.2749816964
 20
28.9029572404
 30
0.0
 10
81.3381692541
 20
28.9125612061
 30
0.0
 10
81.3808667269
 20
28.921208974
 30
0.0
 10
81.4067557601
 20
28.928780474
 30
0.0
 10
81.420135563
 20
28.9339665643
 30
0.0
 10
81.4286150166
 20
28.9386542011
 30
0.0
 10
81.4330247995
 20
28.9426656724
 30
0.0
 10
81.4349735621
 20
28.9454740794
 30
0.0
 10
81.4357962958
 20
28.948420527
 30
0.0
 10
81.4351319719
 20
28.9526895171
 30
0.0
 10
81.4304620004
 20
28.957949038
 30
0.0
 10
81.4214261794
 20
28.9632809818
 30
0.0
 10
81.4080435822
 20
28.9687630965
 30
0.0
 10
81.3902309035
 20
28.9742243584
 30
0.0
 10
81.3679635099
 20
28.9797354162
 30
0.0
 10
81.3413385057
 20
28.9852397724
 30
0.0
 10
81.3104602576
 20
28.9907260809
 30
0.0
 10
81.2754440289
 20
28.9961726628
 30
0.0
 10
81.2208655963
 20
29.0037062023
 30
0.0
 10
81.1431090947
 20
29.0127378211
 30
0.0
 10
81.0387615999
 20
29.0228099241
 30
0.0
 10
80.9201968663
 20
29.0326104223
 30
0.0
 10
80.7879187323
 20
29.0422310636
 30
0.0
 10
80.6423676424
 20
29.0517690085
 30
0.0
 10
80.4838005487
 20
29.0613349269
 30
0.0
 10
80.2462862841
 20
29.0747295142
 30
0.0
 10
79.9168336671
 20
29.0918786608
 30
0.0
 10
79.4858415727
 20
29.113222546
 30
0.0
 10
79.1823516072
 20
29.1274571022
 30
0.0
 10
79.0236418317
 20
29.1347018253
 30
0.0
  0
SPLINE
  5
2AB
100
AcDbEntity
  8
64
100
AcDbSpline
 62
7
  6
BYLAYER
 70
0
 71
3
 72
16
 73
12
 74
0
 42
0.0000001
 43
0.0000001
 44
0.0000000001
 40
0.0
 40
0.0
 40
0.0
 40
0.0
 40
0.0406849448
 40
0.0901218091
 40
0.1581503745
 40
0.2364705029
 40
0.4150798866
 40
0.6063959455
 40
0.8035283327
 40
0.9029757822
 40
1.0
 40
1.0
 40
1.0
 40
1.0
 10
73.8211189209
 20
29.3795401365
 30
0.0
 10
73.8914956101
 20
29.373445808
 30
0.0
 10
74.0474828966
 20
29.361175782
 30
0.0
 10
74.3214559123
 20
29.3428602723
 30
0.0
 10
74.6607560459
 20
29.322311501
 30
0.0
 10
75.2241087791
 20
29.2915500515
 30
0.0
 10
76.0015134627
 20
29.2552155815
 30
0.0
 10
76.985313212
 20
29.2174839465
 30
0.0
 10
77.8318037134
 20
29.1858698991
 30
0.0
 10
78.5145853571
 20
29.1574589084
 30
0.0
 10
78.8553639511
 20
29.1423657749
 30
0.0
 10
79.0236418317
 20
29.1347018253
 30
0.0
  0
SPLINE
  5
2AC
100
AcDbEntity
  8
64
100
AcDbSpline
 62
7
  6
BYLAYER
 70
0
 71
3
 72
19
 73
15
 74
0
 42
0.0000001
 43
0.0000001
 44
0.0000000001
 40
0.0
 40
0.0
 40
0.0
 40
0.0
 40
0.0950280987
 40
0.192429575
 40
0.2895118959
 40
0.3855063102
 40
0.5728863453
 40
0.6629969205
 40
0.7478215944
 40
0.8245304106
 40
0.8911593965
 40
0.9463260205
 40
0.990110406
 40
1.0
 40
1.0
 40
1.0
 40
1.0
 10
75.8482433218
 20
29.1247018253
 30
0.0
 10
76.016521275
 20
29.1323670794
 30
0.0
 10
76.3572997964
 20
29.1474589084
 30
0.0
 10
76.8700628197
 20
29.1687932559
 30
0.0
 10
77.3845956236
 20
29.1887446825
 30
0.0
 10
78.0585391615
 20
29.2140791852
 30
0.0
 10
78.7201197032
 20
29.239423952
 30
0.0
 10
79.3617374595
 20
29.2682287629
 30
0.0
 10
79.8072748356
 20
29.2902454913
 30
0.0
 10
80.2111278382
 20
29.3123229267
 30
0.0
 10
80.5623708551
 20
29.3335560106
 30
0.0
 10
80.8552198329
 20
29.3533440625
 30
0.0
 10
81.0475577006
 20
29.3687558765
 30
0.0
 10
81.1422456893
 20
29.3780789432
 30
0.0
 10
81.1596858229
 20
29.3798635143
 30
0.0
  0
SPLINE
  5
2AD
100
AcDbEntity
  8
64
100
AcDbSpline
 62
7
  6
BYLAYER
 70
0
 71
3
 72
50
 73
46
 74
0
 42
0.0000001
 43
0.0000001
 44
0.0000000001
 40
0.0
 40
0.0
 40
0.0
 40
0.0
 40
0.0593375421
 40
0.1134737601
 40
0.1611666723
 40
0.1825496751
 40
0.2023227891
 40
0.2204967364
 40
0.2370272242
 40
0.2518567672
 40
0.264928974
 40
0.2761792314
 40
0.2810898267
 40
0.2855057288
 40
0.2894138054
 40
0.2928017526
 40
0.2956587633
 40
0.2979770179
 40
0.2997589801
 40
0.3010377826
 40
0.3019007093
 40
0.3022497576
 40
0.3026052637
 40
0.3030150706
 40
0.3035107795
 40
0.3048199679
 40
0.3065998014
 40
0.3088683642
 40
0.3148829019
 40
0.3228529225
 40
0.3327368067
 40
0.3444836714
 40
0.3580545839
 40
0.3734720553
 40
0.4099958598
 40
0.4541084749
 40
0.5048945771
 40
0.5610538918
 40
0.6207128086
 40
0.6821429823
 40
0.744770369
 40
0.8083247604
 40
0.872599415
 40
0.9370853708
 40
1.0
 40
1.0
 40
1.0
 40
1.0
 10
75.8482433218
 20
29.1247018253
 30
0.0
 10
75.6895335463
 20
29.1174571022
 30
0.0
 10
75.3860435808
 20
29.103222546
 30
0.0
 10
74.9550514864
 20
29.0818786608
 30
0.0
 10
74.6255988694
 20
29.0647295142
 30
0.0
 10
74.3880846048
 20
29.0513349269
 30
0.0
 10
74.2295175111
 20
29.0417690085
 30
0.0
 10
74.0839664212
 20
29.0322310636
 30
0.0
 10
73.9516882872
 20
29.0226104223
 30
0.0
 10
73.8331235536
 20
29.0128099241
 30
0.0
 10
73.7287760588
 20
29.0027378211
 30
0.0
 10
73.6510195572
 20
28.9937062023
 30
0.0
 10
73.5964411246
 20
28.9861726628
 30
0.0
 10
73.5614248959
 20
28.9807260809
 30
0.0
 10
73.5305466478
 20
28.9752397724
 30
0.0
 10
73.5039216436
 20
28.9697354162
 30
0.0
 10
73.48165425
 20
28.9642243584
 30
0.0
 10
73.4638415714
 20
28.9587630965
 30
0.0
 10
73.4504589741
 20
28.9532809818
 30
0.0
 10
73.4414231531
 20
28.947949038
 30
0.0
 10
73.4367531816
 20
28.9426895171
 30
0.0
 10
73.4360888577
 20
28.938420527
 30
0.0
 10
73.4369115914
 20
28.9354740794
 30
0.0
 10
73.438860354
 20
28.9326656724
 30
0.0
 10
73.4432701369
 20
28.9286542011
 30
0.0
 10
73.4517495905
 20
28.9239665643
 30
0.0
 10
73.4651293934
 20
28.918780474
 30
0.0
 10
73.4910184266
 20
28.911208974
 30
0.0
 10
73.5337158994
 20
28.9025612061
 30
0.0
 10
73.5969034571
 20
28.8929572404
 30
0.0
 10
73.675601255
 20
28.8834805293
 30
0.0
 10
73.7693794077
 20
28.8740206477
 30
0.0
 10
73.8780334939
 20
28.8645011894
 30
0.0
 10
74.0529113024
 20
28.850859582
 30
0.0
 10
74.3095169863
 20
28.8335710989
 30
0.0
 10
74.6607564147
 20
28.8123178985
 30
0.0
 10
75.0646105848
 20
28.7902468578
 30
0.0
 10
75.5101476918
 20
28.7682293138
 30
0.0
 10
75.9842501111
 20
28.7469403636
 30
0.0
 10
76.4757445587
 20
28.7270286082
 30
0.0
 10
76.9777067842
 20
28.7078962083
 30
0.0
 10
77.4872896809
 20
28.6887458777
 30
0.0
 10
78.0018222956
 20
28.6687929539
 30
0.0
 10
78.5145853571
 20
28.6474589084
 30
0.0
 10
78.8553639027
 20
28.6323672705
 30
0.0
 10
79.0236418317
 20
28.6247018253
 30
0.0
  0
SPLINE
  5
2AE
100
AcDbEntity
  8
64
100
AcDbSpline
 62
7
  6
BYLAYER
 70
0
 71
3
 72
50
 73
46
 74
0
 42
0.0000001
 43
0.0000001
 44
0.0000000001
 40
0.0
 40
0.0
 40
0.0
 40
0.0
 40
0.0593375421
 40
0.1134737601
 40
0.1611666723
 40
0.1825496751
 40
0.2023227891
 40
0.2204967364
 40
0.2370272242
 40
0.2518567672
 40
0.264928974
 40
0.2761792314
 40
0.2810898267
 40
0.2855057288
 40
0.2894138054
 40
0.2928017526
 40
0.2956587633
 40
0.2979770179
 40
0.2997589801
 40
0.3010377826
 40
0.3019007093
 40
0.3022497576
 40
0.3026052637
 40
0.3030150706
 40
0.3035107795
 40
0.3048199679
 40
0.3065998014
 40
0.3088683642
 40
0.3148829019
 40
0.3228529225
 40
0.3327368067
 40
0.3444836714
 40
0.3580545839
 40
0.3734720553
 40
0.4099958598
 40
0.4541084749
 40
0.5048945771
 40
0.5610538918
 40
0.6207128086
 40
0.6821429823
 40
0.744770369
 40
0.8083247604
 40
0.872599415
 40
0.9370853708
 40
1.0
 40
1.0
 40
1.0
 40
1.0
 10
79.0236418317
 20
27.6247018253
 30
0.0
 10
79.1823516072
 20
27.6174571022
 30
0.0
 10
79.4858415727
 20
27.603222546
 30
0.0
 10
79.9168336671
 20
27.5818786608
 30
0.0
 10
80.2462862841
 20
27.5647295142
 30
0.0
 10
80.4838005487
 20
27.5513349269
 30
0.0
 10
80.6423676424
 20
27.5417690085
 30
0.0
 10
80.7879187323
 20
27.5322310636
 30
0.0
 10
80.9201968663
 20
27.5226104223
 30
0.0
 10
81.0387615999
 20
27.5128099241
 30
0.0
 10
81.1431090947
 20
27.5027378211
 30
0.0
 10
81.2208655963
 20
27.4937062023
 30
0.0
 10
81.2754440289
 20
27.4861726628
 30
0.0
 10
81.3104602576
 20
27.4807260809
 30
0.0
 10
81.3413385057
 20
27.4752397724
 30
0.0
 10
81.3679635099
 20
27.4697354162
 30
0.0
 10
81.3902309035
 20
27.4642243584
 30
0.0
 10
81.4080435822
 20
27.4587630965
 30
0.0
 10
81.4214261794
 20
27.4532809818
 30
0.0
 10
81.4304620004
 20
27.447949038
 30
0.0
 10
81.4351319719
 20
27.4426895171
 30
0.0
 10
81.4357962958
 20
27.438420527
 30
0.0
 10
81.4349735621
 20
27.4354740794
 30
0.0
 10
81.4330247995
 20
27.4326656724
 30
0.0
 10
81.4286150166
 20
27.4286542011
 30
0.0
 10
81.420135563
 20
27.4239665643
 30
0.0
 10
81.4067557601
 20
27.418780474
 30
0.0
 10
81.3808667269
 20
27.411208974
 30
0.0
 10
81.3381692541
 20
27.4025612061
 30
0.0
 10
81.2749816964
 20
27.3929572404
 30
0.0
 10
81.1962838985
 20
27.3834805293
 30
0.0
 10
81.1025057458
 20
27.3740206477
 30
0.0
 10
80.9938516596
 20
27.3645011894
 30
0.0
 10
80.8189738511
 20
27.350859582
 30
0.0
 10
80.5623681672
 20
27.3335710989
 30
0.0
 10
80.2111287388
 20
27.3123178985
 30
0.0
 10
79.8072745687
 20
27.2902468578
 30
0.0
 10
79.3617374617
 20
27.2682293138
 30
0.0
 10
78.8876350424
 20
27.2469403636
 30
0.0
 10
78.3961405948
 20
27.2270286082
 30
0.0
 10
77.8941783693
 20
27.2078962083
 30
0.0
 10
77.3845954726
 20
27.1887458777
 30
0.0
 10
76.8700628579
 20
27.1687929539
 30
0.0
 10
76.3572997964
 20
27.1474589084
 30
0.0
 10
76.0165212508
 20
27.1323672705
 30
0.0
 10
75.8482433218
 20
27.1247018253
 30
0.0
  0
SPLINE
  5
2AF
100
AcDbEntity
  8
64
100
AcDbSpline
 62
7
  6
BYLAYER
 70
0
 71
3
 72
48
 73
44
 74
0
 42
0.0000001
 43
0.0000001
 44
0.0000000001
 40
0.0
 40
0.0
 40
0.0
 40
0.0
 40
0.0558459711
 40
0.111199827
 40
0.1859386115
 40
0.2592486562
 40
0.3304449037
 40
0.3974647675
 40
0.4580723027
 40
0.5107157772
 40
0.5543028547
 40
0.5727018832
 40
0.5888972501
 40
0.6029158199
 40
0.6147111307
 40
0.6242224592
 40
0.6314001376
 40
0.6341074136
 40
0.6362314459
 40
0.637793816
 40
0.6383853892
 40
0.6388744479
 40
0.6392987046
 40
0.6397152548
 40
0.6407450613
 40
0.6422711692
 40
0.6443977418
 40
0.6471643195
 40
0.6505738423
 40
0.6546169785
 40
0.659280831
 40
0.6645507165
 40
0.6704109631
 40
0.6838368875
 40
0.699437105
 40
0.7171345066
 40
0.7368617958
 40
0.7585503701
 40
0.7821473711
 40
0.8076655944
 40
0.8645817532
 40
0.9291872773
 40
1.0
 40
1.0
 40
1.0
 40
1.0
 10
77.7231475871
 20
26.6795604414
 30
0.0
 10
77.5979466764
 20
26.6844317564
 30
0.0
 10
77.3486412438
 20
26.6939500933
 30
0.0
 10
76.9317662192
 20
26.7096474219
 30
0.0
 10
76.4757445599
 20
26.7270285553
 30
0.0
 10
75.9842501108
 20
26.7469403773
 30
0.0
 10
75.5101476919
 20
26.7682293104
 30
0.0
 10
75.0646105848
 20
26.7902468586
 30
0.0
 10
74.6607564147
 20
26.8123178983
 30
0.0
 10
74.3095169863
 20
26.8335710989
 30
0.0
 10
74.0529113024
 20
26.850859582
 30
0.0
 10
73.8780334939
 20
26.8645011894
 30
0.0
 10
73.7693794077
 20
26.8740206477
 30
0.0
 10
73.675601255
 20
26.8834805293
 30
0.0
 10
73.5969034571
 20
26.8929572404
 30
0.0
 10
73.5337158994
 20
26.9025612061
 30
0.0
 10
73.4910184266
 20
26.911208974
 30
0.0
 10
73.4651293934
 20
26.918780474
 30
0.0
 10
73.4517495905
 20
26.9239665643
 30
0.0
 10
73.4432701369
 20
26.9286542011
 30
0.0
 10
73.438860354
 20
26.9326656724
 30
0.0
 10
73.4369115914
 20
26.9354740794
 30
0.0
 10
73.4360888577
 20
26.938420527
 30
0.0
 10
73.4367531816
 20
26.9426895171
 30
0.0
 10
73.4414231531
 20
26.947949038
 30
0.0
 10
73.4504589741
 20
26.9532809818
 30
0.0
 10
73.4638415714
 20
26.9587630965
 30
0.0
 10
73.48165425
 20
26.9642243584
 30
0.0
 10
73.5039216436
 20
26.9697354162
 30
0.0
 10
73.5305466478
 20
26.9752397724
 30
0.0
 10
73.5614248959
 20
26.9807260809
 30
0.0
 10
73.5964411246
 20
26.9861726628
 30
0.0
 10
73.6510195572
 20
26.9937062023
 30
0.0
 10
73.7287760588
 20
27.0027378211
 30
0.0
 10
73.8331235536
 20
27.0128099241
 30
0.0
 10
73.9516882872
 20
27.0226104223
 30
0.0
 10
74.0839664212
 20
27.0322310636
 30
0.0
 10
74.2295175111
 20
27.0417690085
 30
0.0
 10
74.3880846048
 20
27.0513349269
 30
0.0
 10
74.6255988694
 20
27.0647295142
 30
0.0
 10
74.9550514864
 20
27.0818786608
 30
0.0
 10
75.3860435808
 20
27.103222546
 30
0.0
 10
75.6895335463
 20
27.1174571022
 30
0.0
 10
75.8482433218
 20
27.1247018253
 30
0.0
  0
SPLINE
  5
2B0
100
AcDbEntity
  8
64
100
AcDbSpline
 62
7
  6
BYLAYER
 70
0
 71
3
 72
8
 73
4
 74
0
 42
0.0000001
 43
0.0000001
 44
0.0000000001
 40
0.0
 40
0.0
 40
0.0
 40
0.0
 40
1.0
 40
1.0
 40
1.0
 40
1.0
 10
76.1859425768
 20
25.4797018253
 30
0.0
 10
76.1806775592
 20
25.091984531
 30
0.0
 10
76.050431153
 20
24.4802151953
 30
0.0
 10
75.6859425768
 20
24.4797018253
 30
0.0
  0
SPLINE
  5
2B1
100
AcDbEntity
  8
64
100
AcDbSpline
 62
7
  6
BYLAYER
 70
0
 71
3
 72
8
 73
4
 74
0
 42
0.0000001
 43
0.0000001
 44
0.0000000001
 40
0.0
 40
0.0
 40
0.0
 40
0.0
 40
1.0
 40
1.0
 40
1.0
 40
1.0
 10
75.1859425768
 20
25.4797018253
 30
0.0
 10
75.1912075943
 20
25.091984531
 30
0.0
 10
75.3214540005
 20
24.4802151953
 30
0.0
 10
75.6859425768
 20
24.4797018253
 30
0.0
  0
SPLINE
  5
2B2
100
AcDbEntity
  8
64
100
AcDbSpline
 62
7
  6
BYLAYER
 70
0
 71
3
 72
8
 73
4
 74
0
 42
0.0000001
 43
0.0000001
 44
0.0000000001
 40
0.0
 40
0.0
 40
0.0
 40
0.0
 40
1.0
 40
1.0
 40
1.0
 40
1.0
 10
77.9359425768
 20
25.4797018253
 30
0.0
 10
77.9306775592
 20
25.091984531
 30
0.0
 10
77.800431153
 20
24.4802151953
 30
0.0
 10
77.4359425768
 20
24.4797018253
 30
0.0
  0
SPLINE
  5
2B3
100
AcDbEntity
  8
64
100
AcDbSpline
 62
7
  6
BYLAYER
 70
0
 71
3
 72
8
 73
4
 74
0
 42
0.0000001
 43
0.0000001
 44
0.0000000001
 40
0.0
 40
0.0
 40
0.0
 40
0.0
 40
1.0
 40
1.0
 40
1.0
 40
1.0
 10
76.9359425768
 20
25.4797018253
 30
0.0
 10
76.9412075943
 20
25.091984531
 30
0.0
 10
77.0714540005
 20
24.4802151953
 30
0.0
 10
77.4359425768
 20
24.4797018253
 30
0.0
  0
ENDSEC
  0
SECTION
  2
OBJECTS
  0
DICTIONARY
  5
C
100
AcDbDictionary
280
0
281
1
  3
ACAD_GROUP
350
D
  3
ACAD_MLINESTYLE
350
17
  3
ACAD_LAYOUT
350
1A
  3
ACAD_PLOTSETTINGS
350
19
  3
ACAD_PLOTSTYLENAME
350
E
  0
DICTIONARY
  5
D
102
{ACAD_REACTORS
330
C
102
}
100
AcDbDictionary
280
0
281
1
  0
ACDBDICTIONARYWDFLT
  5
E
102
{ACAD_REACTORS
330
C
102
}
100
AcDbDictionary
281
1
  3
Normal
350
F
100
AcDbDictionaryWithDefault
340
F
  0
DICTIONARY
  5
17
102
{ACAD_REACTORS
330
C
102
}
100
AcDbDictionary
280
0
281
1
  3
Standard
350
18
  0
DICTIONARY
  5
19
102
{ACAD_REACTORS
330
C
102
}
100
AcDbDictionary
281
1
  0
DICTIONARY
  5
1A
102
{ACAD_REACTORS
330
C
102
}
100
AcDbDictionary
281
1
  3
Model
350
2B4
  3
Layout1
350
2B5
  0
ACDBPLACEHOLDER
  5
F
102
{ACAD_REACTORS
330
E
102
}
  0
MLINESTYLE
  5
18
102
{ACAD_REACTORS
330
17
102
}
100
AcDbMlineStyle
  2
STANDARD
 70
0
  3

 62
256
 51
90.0
 52
90.0
 71
2
 49
0.5
 62
256
  6
BYLAYER
 49
-0.5
 62
256
  6
BYLAYER
  0
LAYOUT
  5
2B4
102
{ACAD_REACTORS
330
1A
102
}
100
AcDbPlotSettings
  1

  2
none_device
  4

  6

 40
0.0
 41
0.0
 42
0.0
 43
0.0
 44
210.0
 45
297.0
 46
0.0
 47
0.0
 48
0.0
 49
0.0
140
0.0
141
0.0
142
1.0
143
1.0
 70
1024
 72
1
 73
0
 74
0
  7

 75
0
147
1.0
148
0.0
149
0.0
100
AcDbLayout
  1
Model
 70
0
 71
0
 10
0.0
 20
0.0
 11
210.0
 21
297.0
 12
0.0
 22
0.0
 32
0.0
 14
0.0
 24
0.0
 34
0.0
 15
0.0
 25
0.0
 35
0.0
146
0.0
 13
0.0
 23
0.0
 33
0.0
 16
1.0
 26
0.0
 36
0.0
 17
0.0
 27
1.0
 37
0.0
 76
0
330
211
345
0
346
0
  0
LAYOUT
  5
2B5
102
{ACAD_REACTORS
330
1A
102
}
100
AcDbPlotSettings
  1

  2
none_device
  4

  6

 40
0.0
 41
0.0
 42
0.0
 43
0.0
 44
210.0
 45
297.0
 46
0.0
 47
0.0
 48
0.0
 49
0.0
140
0.0
141
0.0
142
1.0
143
1.0
 70
0
 72
1
 73
0
 74
0
  7

 75
0
147
1.0
148
0.0
149
0.0
100
AcDbLayout
  1
Layout1
 70
0
 71
1
 10
0.0
 20
0.0
 11
210.0
 21
297.0
 12
0.0
 22
0.0
 32
0.0
 14
0.0
 24
0.0
 34
0.0
 15
0.0
 25
0.0
 35
0.0
146
0.0
 13
0.0
 23
0.0
 33
0.0
 16
1.0
 26
0.0
 36
0.0
 17
0.0
 27
1.0
 37
0.0
 76
0
330
212
345
0
346
0
  0
ENDSEC
  0
EOF
