  0
SECTION
  2
HEADER
  9
$ACADVER
  1
AC1009
  9
$DWGCODEPAGE
  3
ansi_1250
  9
$INSBASE
 10
0.0
 20
0.0
 30
0.0
  9
$EXTMIN
 10
-4.409449
 20
-2.259843
 30
0.0
  9
$EXTMAX
 10
4.409449
 20
1.972441
 30
0.0
  9
$LIMMIN
 10
0.0
 20
0.0
  9
$LIMMAX
 10
0.0
 20
0.0
  9
$ORTHOMODE
 70
     0
  9
$REGENMODE
 70
     1
  9
$FILLMODE
 70
     1
  9
$QTEXTMODE
 70
     0
  9
$MIRRTEXT
 70
     1
  9
$DRAGMODE
 70
     2
  9
$LTSCALE
 40
1.0
  9
$OSMODE
 70
     0
  9
$ATTMODE
 70
     1
  9
$TEXTSIZE
 40
0.2
  9
$TRACEWID
 40
0.05
  9
$TEXTSTYLE
  7
STANDARD
  9
$CLAYER
  8
0
  9
$CELTYPE
  6
CONTINUOUS
  9
$CECOLOR
 62
   256
  9
$DIMSCALE
 40
1.0
  9
$DIMASZ
 40
0.18
  9
$DIMEXO
 40
0.0625
  9
$DIMDLI
 40
0.38
  9
$DIMRND
 40
0.0
  9
$DIMDLE
 40
0.0
  9
$DIMEXE
 40
0.18
  9
$DIMTP
 40
0.0
  9
$DIMTM
 40
0.0
  9
$DIMTXT
 40
0.18
  9
$DIMCEN
 40
0.09
  9
$DIMTSZ
 40
0.0
  9
$DIMTOL
 70
     0
  9
$DIMLIM
 70
     0
  9
$DIMTIH
 70
     1
  9
$DIMTOH
 70
     1
  9
$DIMSE1
 70
     0
  9
$DIMSE2
 70
     0
  9
$DIMTAD
 70
     0
  9
$DIMZIN
 70
     0
  9
$DIMBLK
  1

  9
$DIMASO
 70
     1
  9
$DIMSHO
 70
     1
  9
$DIMPOST
  1

  9
$DIMAPOST
  1

  9
$DIMALT
 70
     0
  9
$DIMALTD
 70
     2
  9
$DIMALTF
 40
25.4
  9
$DIMLFAC
 40
1.0
  9
$DIMTOFL
 70
     0
  9
$DIMTVP
 40
0.0
  9
$DIMTIX
 70
     0
  9
$DIMSOXD
 70
     0
  9
$DIMSAH
 70
     0
  9
$DIMBLK1
  1

  9
$DIMBLK2
  1

  9
$DIMSTYLE
  2
STANDARD
  9
$DIMCLRD
 70
     0
  9
$DIMCLRE
 70
     0
  9
$DIMCLRT
 70
     0
  9
$DIMTFAC
 40
1.0
  9
$DIMGAP
 40
0.09
  9
$LUNITS
 70
     2
  9
$LUPREC
 70
     4
  9
$AXISMODE
 70
     0
  9
$AXISUNIT
 10
0.0
 20
0.0
  9
$SKETCHINC
 40
0.1
  9
$FILLETRAD
 40
0.0
  9
$AUNITS
 70
     0
  9
$AUPREC
 70
     0
  9
$MENU
  1
acad
  9
$ELEVATION
 40
0.0
  9
$PELEVATION
 40
0.0
  9
$THICKNESS
 40
0.0
  9
$LIMCHECK
 70
     0
  9
$BLIPMODE
 70
     1
  9
$CHAMFERA
 40
0.0
  9
$CHAMFERB
 40
0.0
  9
$SKPOLY
 70
     0
  9
$TDCREATE
 40
0.000000000
  9
$TDUPDATE
 40
0.000000000
  9
$TDINDWG
 40
0.0000000000
  9
$TDUSRTIMER
 40
0.0000000000
  9
$USRTIMER
 70
     1
  9
$ANGBASE
 50
0.0
  9
$ANGDIR
 70
     0
  9
$PDMODE
 70
     0
  9
$PDSIZE
 40
0.0
  9
$PLINEWID
 40
0.0
  9
$COORDS
 70
     0
  9
$SPLFRAME
 70
     0
  9
$SPLINETYPE
 70
     6
  9
$SPLINESEGS
 70
     8
  9
$ATTDIA
 70
     0
  9
$ATTREQ
 70
     1
  9
$HANDLING
 70
     1
  9
$HANDSEED
  5
245
  9
$SURFTAB1
 70
     6
  9
$SURFTAB2
 70
     6
  9
$SURFTYPE
 70
     6
  9
$SURFU
 70
     6
  9
$SURFV
 70
     6
  9
$UCSNAME
  2

  9
$UCSORG
 10
0.0
 20
0.0
 30
0.0
  9
$UCSXDIR
 10
1.0
 20
0.0
 30
0.0
  9
$UCSYDIR
 10
0.0
 20
1.0
 30
0.0
  9
$PUCSNAME
  2

  9
$PUCSORG
 10
0.0
 20
0.0
 30
0.0
  9
$PUCSXDIR
 10
1.0
 20
0.0
 30
0.0
  9
$PUCSYDIR
 10
0.0
 20
1.0
 30
0.0
  9
$USERI1
 70
     0
  9
$USERI2
 70
     0
  9
$USERI3
 70
     0
  9
$USERI4
 70
     0
  9
$USERI5
 70
     0
  9
$USERR1
 40
0.0
  9
$USERR2
 40
0.0
  9
$USERR3
 40
0.0
  9
$USERR4
 40
0.0
  9
$USERR5
 40
0.0
  9
$WORLDVIEW
 70
     1
  9
$SHADEDGE
 70
     3
  9
$SHADEDIF
 70
    70
  9
$TILEMODE
 70
     1
  9
$MAXACTVP
 70
    16
  9
$PINSBASE
 10
0.0
 20
0.0
 30
0.0
  9
$PLIMCHECK
 70
     0
  9
$PEXTMIN
 10
1.000000E+20
 20
1.000000E+20
 30
1.000000E+20
  9
$PEXTMAX
 10
-1.000000E+20
 20
-1.000000E+20
 30
-1.000000E+20
  9
$PLIMMIN
 10
0.0
 20
0.0
  9
$PLIMMAX
 10
12.0
 20
9.0
  9
$UNITMODE
 70
     0
  9
$VISRETAIN
 70
     0
  9
$PLINEGEN
 70
     1
  9
$PSLTSCALE
 70
     0
  9
$TREEDEPTH
 70
  3020
  0
ENDSEC
  0
SECTION
  2
TABLES
  0
TABLE
  2
VPORT
 70
     1
  0
VPORT
  2
*ACTIVE
 70
     0
 10
0.0
 20
0.0
 11
1.0
 21
1.0
 12
6.591288
 22
4.579184
 13
0.0
 23
0.0
 14
1.0
 24
1.0
 15
0.0
 25
0.0
 16
0.0
 26
0.0
 36
1.0
 17
0.0
 27
0.0
 37
0.0
 40
9.158369
 41
0.688564
 42
50.0
 43
0.0
 44
0.0
 50
0.0
 51
0.0
 71
     0
 72
   100
 73
     1
 74
     1
 75
     0
 76
     0
 77
     0
 78
     0
  0
ENDTAB
  0
TABLE
  2
LTYPE
 70
     5
  0
LTYPE
  2
CONTINUOUS
 70
    64
  3
Solid line
 72
    65
 73
     0
 40
0.0
  0
LTYPE
  2
CENTER
 70
    64
  3
Center ____ _ ____ _ ____ _ ____ _ ____ _ ____
 72
    65
 73
     4
 40
50.8
 49
31.75
 49
-6.35
 49
6.35
 49
-6.35
  0
LTYPE
  2
HIDDEN
 70
    64
  3
Hidden __ __ __ __ __ __ __ __ __ __ __ __ __ __
 72
    65
 73
     2
 40
9.525
 49
6.35
 49
-3.175
  0
LTYPE
  2
CENTER2
 70
    64
  3
Center (.5x) ___ _ ___ _ ___ _ ___ _ ___ _ ___
 72
    65
 73
     4
 40
28.575
 49
19.05
 49
-3.175
 49
3.175
 49
-3.175
  0
LTYPE
  2
HIDDEN2
 70
    64
  3
Hidden (.5x) _ _ _ _ _ _ _ _ _ _ _ _ _ _ _ _ _
 72
    65
 73
     2
 40
4.7625
 49
3.175
 49
-1.5875
  0
ENDTAB
  0
TABLE
  2
LAYER
 70
     1
  0
LAYER
  2
0
 70
     0
 62
     7
  6
CONTINUOUS
  0
ENDTAB
  0
TABLE
  2
STYLE
 70
     1
  0
STYLE
  2
STANDARD
 70
     0
 40
0.0
 41
1.0
 50
0.0
 71
     0
 42
0.0
  3
txt
  4

  0
ENDTAB
  0
TABLE
  2
VIEW
 70
     0
  0
ENDTAB
  0
TABLE
  2
UCS
 70
     0
  0
ENDTAB
  0
TABLE
  2
APPID
 70
     1
  0
APPID
  2
ACAD
 70
     0
  0
ENDTAB
  0
TABLE
  2
DIMSTYLE
 70
     1
  0
DIMSTYLE
  2
STANDARD
 70
     0
  3

  4

  5

  6

  7

 40
1.0
 41
0.18
 42
0.0625
 43
0.38
 44
0.18
 45
0.0
 46
0.0
 47
0.0
 48
0.0
 71
     0
 72
     0
 73
     1
 74
     1
 75
     0
 76
     0
 77
     0
 78
     0
140
0.18
141
0.09
142
0.0
143
25.4
144
1.0
145
0.0
146
1.0
147
0.09
170
     0
171
     2
172
     0
173
     0
174
     0
175
     0
176
     0
177
     0
178
     0
  0
ENDTAB
  0
ENDSEC
  0
SECTION
  2
BLOCKS
  0
ENDSEC
  0
SECTION
  2
ENTITIES
  0
LINE
  8
0
  6
CONTINUOUS
 62
     7
  5
149
 10
1.05
 20
0.7
 30
0.0
 11
1.35
 21
0.7
 31
0.0
  0
LINE
  8
0
  6
CONTINUOUS
 62
     7
  5
14A
 10
1.35
 20
0.7
 30
0.0
 11
1.35
 21
0.8
 31
0.0
  0
LINE
  8
0
  6
CONTINUOUS
 62
     7
  5
14B
 10
1.35
 20
0.8
 30
0.0
 11
1.35
 21
1.5
 31
0.0
  0
LINE
  8
0
  6
CONTINUOUS
 62
     7
  5
14C
 10
1.35
 20
1.5
 30
0.0
 11
1.35
 21
1.6
 31
0.0
  0
LINE
  8
0
  6
CONTINUOUS
 62
     7
  5
14D
 10
1.05
 20
1.6
 30
0.0
 11
1.35
 21
1.6
 31
0.0
  0
LINE
  8
0
  6
CONTINUOUS
 62
     7
  5
14E
 10
-0.425
 20
1.775197
 30
0.0
 11
-0.95
 21
1.775197
 31
0.0
  0
LINE
  8
0
  6
CONTINUOUS
 62
     7
  5
14F
 10
0.95
 20
1.775197
 30
0.0
 11
0.425
 21
1.775197
 31
0.0
  0
LINE
  8
0
  6
CONTINUOUS
 62
     7
  5
150
 10
0.075
 20
1.775197
 30
0.0
 11
0.425
 21
1.775197
 31
0.0
  0
LINE
  8
0
  6
CONTINUOUS
 62
     7
  5
151
 10
-0.075
 20
1.775197
 30
0.0
 11
0.075
 21
1.775197
 31
0.0
  0
LINE
  8
0
  6
CONTINUOUS
 62
     7
  5
152
 10
-0.425
 20
1.775197
 30
0.0
 11
-0.075
 21
1.775197
 31
0.0
  0
LINE
  8
0
  6
CONTINUOUS
 62
     7
  5
153
 10
0.425
 20
1.775197
 30
0.0
 11
0.425
 21
1.972441
 31
0.0
  0
LINE
  8
0
  6
CONTINUOUS
 62
     7
  5
154
 10
0.425
 20
1.972441
 30
0.0
 11
0.075
 21
1.972441
 31
0.0
  0
LINE
  8
0
  6
CONTINUOUS
 62
     7
  5
155
 10
0.075
 20
1.972441
 30
0.0
 11
-0.075
 21
1.972441
 31
0.0
  0
LINE
  8
0
  6
CONTINUOUS
 62
     7
  5
156
 10
-0.075
 20
1.972441
 30
0.0
 11
-0.425
 21
1.972441
 31
0.0
  0
LINE
  8
0
  6
CONTINUOUS
 62
     7
  5
157
 10
-0.425
 20
1.775197
 30
0.0
 11
-0.425
 21
1.972441
 31
0.0
  0
LINE
  8
0
  6
CONTINUOUS
 62
     7
  5
158
 10
-1.05
 20
0.0
 30
0.0
 11
-1.05
 21
1.775197
 31
0.0
  0
LINE
  8
0
  6
CONTINUOUS
 62
     7
  5
159
 10
1.05
 20
0.0
 30
0.0
 11
1.05
 21
1.775197
 31
0.0
  0
LINE
  8
0
  6
CONTINUOUS
 62
     7
  5
15A
 10
1.05
 20
1.775197
 30
0.0
 11
0.95
 21
1.775197
 31
0.0
  0
LINE
  8
0
  6
CONTINUOUS
 62
     7
  5
15B
 10
-0.95
 20
1.775197
 30
0.0
 11
-1.05
 21
1.775197
 31
0.0
  0
LINE
  8
0
  6
CONTINUOUS
 62
     7
  5
15C
 10
0.4
 20
-0.1
 30
0.0
 11
0.5
 21
-0.1
 31
0.0
  0
LINE
  8
0
  6
CONTINUOUS
 62
     7
  5
15D
 10
0.5
 20
0.0
 30
0.0
 11
0.5
 21
-0.1
 31
0.0
  0
LINE
  8
0
  6
CONTINUOUS
 62
     7
  5
15E
 10
0.4
 20
0.0
 30
0.0
 11
0.5
 21
0.0
 31
0.0
  0
LINE
  8
0
  6
CONTINUOUS
 62
     7
  5
15F
 10
-0.5
 20
0.0
 30
0.0
 11
-0.5
 21
-0.1
 31
0.0
  0
LINE
  8
0
  6
CONTINUOUS
 62
     7
  5
160
 10
-0.5
 20
-0.1
 30
0.0
 11
-0.4
 21
-0.1
 31
0.0
  0
LINE
  8
0
  6
CONTINUOUS
 62
     7
  5
161
 10
-0.5
 20
0.0
 30
0.0
 11
-0.4
 21
0.0
 31
0.0
  0
LINE
  8
0
  6
CONTINUOUS
 62
     7
  5
162
 10
-0.4
 20
-0.1
 30
0.0
 11
0.4
 21
-0.1
 31
0.0
  0
LINE
  8
0
  6
CONTINUOUS
 62
     7
  5
163
 10
-0.4
 20
0.0
 30
0.0
 11
0.4
 21
0.0
 31
0.0
  0
LINE
  8
0
  6
CONTINUOUS
 62
     7
  5
164
 10
3.553553
 20
-0.282843
 30
0.0
 11
2.917157
 21
0.353553
 31
0.0
  0
LINE
  8
0
  6
CONTINUOUS
 62
     7
  5
165
 10
2.917157
 20
0.353553
 30
0.0
 11
2.846447
 21
0.282843
 31
0.0
  0
LINE
  8
0
  6
CONTINUOUS
 62
     7
  5
166
 10
2.846447
 20
0.282843
 30
0.0
 11
3.482843
 21
-0.353553
 31
0.0
  0
LINE
  8
0
  6
CONTINUOUS
 62
     7
  5
167
 10
3.482843
 20
-0.353553
 30
0.0
 11
3.553553
 21
-0.282843
 31
0.0
  0
CIRCLE
  8
0
  6
CONTINUOUS
 62
     7
  5
168
 10
3.2
 20
0.0
 30
0.0
 40
0.6
  0
LINE
  8
0
  6
CONTINUOUS
 62
     7
  5
169
 10
3.9
 20
0.320411
 30
0.0
 11
3.9
 21
0.0
 31
0.0
  0
LINE
  8
0
  6
CONTINUOUS
 62
     7
  5
16A
 10
2.5
 20
0.0
 30
0.0
 11
2.5
 21
0.60882
 31
0.0
  0
LINE
  8
0
  6
CONTINUOUS
 62
     7
  5
16B
 10
3.9
 20
0.0
 30
0.0
 11
3.898544
 21
-0.04513
 31
0.0
  0
LINE
  8
0
  6
CONTINUOUS
 62
     7
  5
16C
 10
3.898544
 20
-0.04513
 30
0.0
 11
3.894181
 21
-0.090072
 31
0.0
  0
LINE
  8
0
  6
CONTINUOUS
 62
     7
  5
16D
 10
3.894181
 20
-0.090072
 30
0.0
 11
3.88693
 21
-0.134639
 31
0.0
  0
LINE
  8
0
  6
CONTINUOUS
 62
     7
  5
16E
 10
3.88693
 20
-0.134639
 30
0.0
 11
3.87682
 21
-0.178646
 31
0.0
  0
LINE
  8
0
  6
CONTINUOUS
 62
     7
  5
16F
 10
3.87682
 20
-0.178646
 30
0.0
 11
3.863895
 21
-0.22191
 31
0.0
  0
LINE
  8
0
  6
CONTINUOUS
 62
     7
  5
170
 10
3.863895
 20
-0.22191
 30
0.0
 11
3.848207
 21
-0.26425
 31
0.0
  0
LINE
  8
0
  6
CONTINUOUS
 62
     7
  5
171
 10
3.848207
 20
-0.26425
 30
0.0
 11
3.829822
 21
-0.305491
 31
0.0
  0
LINE
  8
0
  6
CONTINUOUS
 62
     7
  5
172
 10
3.829822
 20
-0.305491
 30
0.0
 11
3.808816
 21
-0.345461
 31
0.0
  0
LINE
  8
0
  6
CONTINUOUS
 62
     7
  5
173
 10
3.808816
 20
-0.345461
 30
0.0
 11
3.785277
 21
-0.383993
 31
0.0
  0
LINE
  8
0
  6
CONTINUOUS
 62
     7
  5
174
 10
3.785277
 20
-0.383993
 30
0.0
 11
3.759303
 21
-0.420928
 31
0.0
  0
LINE
  8
0
  6
CONTINUOUS
 62
     7
  5
175
 10
3.759303
 20
-0.420928
 30
0.0
 11
3.731002
 21
-0.456111
 31
0.0
  0
LINE
  8
0
  6
CONTINUOUS
 62
     7
  5
176
 10
3.731002
 20
-0.456111
 30
0.0
 11
3.700491
 21
-0.489396
 31
0.0
  0
LINE
  8
0
  6
CONTINUOUS
 62
     7
  5
177
 10
3.700491
 20
-0.489396
 30
0.0
 11
3.667898
 21
-0.520645
 31
0.0
  0
LINE
  8
0
  6
CONTINUOUS
 62
     7
  5
178
 10
3.667898
 20
-0.520645
 30
0.0
 11
3.633358
 21
-0.549728
 31
0.0
  0
LINE
  8
0
  6
CONTINUOUS
 62
     7
  5
179
 10
3.633358
 20
-0.549728
 30
0.0
 11
3.597015
 21
-0.576523
 31
0.0
  0
LINE
  8
0
  6
CONTINUOUS
 62
     7
  5
17A
 10
3.597015
 20
-0.576523
 30
0.0
 11
3.55902
 21
-0.60092
 31
0.0
  0
LINE
  8
0
  6
CONTINUOUS
 62
     7
  5
17B
 10
3.55902
 20
-0.60092
 30
0.0
 11
3.519531
 21
-0.622816
 31
0.0
  0
LINE
  8
0
  6
CONTINUOUS
 62
     7
  5
17C
 10
3.519531
 20
-0.622816
 30
0.0
 11
3.478712
 21
-0.642121
 31
0.0
  0
LINE
  8
0
  6
CONTINUOUS
 62
     7
  5
17D
 10
3.478712
 20
-0.642121
 30
0.0
 11
3.436734
 21
-0.658754
 31
0.0
  0
LINE
  8
0
  6
CONTINUOUS
 62
     7
  5
17E
 10
3.436734
 20
-0.658754
 30
0.0
 11
3.393771
 21
-0.672646
 31
0.0
  0
LINE
  8
0
  6
CONTINUOUS
 62
     7
  5
17F
 10
3.393771
 20
-0.672646
 30
0.0
 11
3.350002
 21
-0.683739
 31
0.0
  0
LINE
  8
0
  6
CONTINUOUS
 62
     7
  5
180
 10
3.350002
 20
-0.683739
 30
0.0
 11
3.305608
 21
-0.691988
 31
0.0
  0
LINE
  8
0
  6
CONTINUOUS
 62
     7
  5
181
 10
3.305608
 20
-0.691988
 30
0.0
 11
3.260775
 21
-0.697357
 31
0.0
  0
LINE
  8
0
  6
CONTINUOUS
 62
     7
  5
182
 10
3.260775
 20
-0.697357
 30
0.0
 11
3.21569
 21
-0.699824
 31
0.0
  0
LINE
  8
0
  6
CONTINUOUS
 62
     7
  5
183
 10
3.21569
 20
-0.699824
 30
0.0
 11
3.170539
 21
-0.69938
 31
0.0
  0
LINE
  8
0
  6
CONTINUOUS
 62
     7
  5
184
 10
3.170539
 20
-0.69938
 30
0.0
 11
3.12551
 21
-0.696025
 31
0.0
  0
LINE
  8
0
  6
CONTINUOUS
 62
     7
  5
185
 10
3.12551
 20
-0.696025
 30
0.0
 11
3.080791
 21
-0.689775
 31
0.0
  0
LINE
  8
0
  6
CONTINUOUS
 62
     7
  5
186
 10
3.080791
 20
-0.689775
 30
0.0
 11
3.036569
 21
-0.680654
 31
0.0
  0
LINE
  8
0
  6
CONTINUOUS
 62
     7
  5
187
 10
3.036569
 20
-0.680654
 30
0.0
 11
2.993026
 21
-0.668702
 31
0.0
  0
LINE
  8
0
  6
CONTINUOUS
 62
     7
  5
188
 10
2.993026
 20
-0.668702
 30
0.0
 11
2.950345
 21
-0.653967
 31
0.0
  0
LINE
  8
0
  6
CONTINUOUS
 62
     7
  5
189
 10
2.950345
 20
-0.653967
 30
0.0
 11
2.908702
 21
-0.636511
 31
0.0
  0
LINE
  8
0
  6
CONTINUOUS
 62
     7
  5
18A
 10
2.908702
 20
-0.636511
 30
0.0
 11
2.868272
 21
-0.616406
 31
0.0
  0
LINE
  8
0
  6
CONTINUOUS
 62
     7
  5
18B
 10
2.868272
 20
-0.616406
 30
0.0
 11
2.829222
 21
-0.593737
 31
0.0
  0
LINE
  8
0
  6
CONTINUOUS
 62
     7
  5
18C
 10
2.829222
 20
-0.593737
 30
0.0
 11
2.791714
 21
-0.568597
 31
0.0
  0
LINE
  8
0
  6
CONTINUOUS
 62
     7
  5
18D
 10
2.791714
 20
-0.568597
 30
0.0
 11
2.755906
 21
-0.541092
 31
0.0
  0
LINE
  8
0
  6
CONTINUOUS
 62
     7
  5
18E
 10
2.755906
 20
-1.456693
 30
0.0
 11
2.755906
 21
-0.541092
 31
0.0
  0
LINE
  8
0
  6
CONTINUOUS
 62
     7
  5
18F
 10
3.740157
 20
-1.456693
 30
0.0
 11
2.755906
 21
-1.456693
 31
0.0
  0
LINE
  8
0
  6
CONTINUOUS
 62
     7
  5
190
 10
4.409449
 20
-0.787402
 30
0.0
 11
4.408775
 21
-0.817429
 31
0.0
  0
LINE
  8
0
  6
CONTINUOUS
 62
     7
  5
191
 10
4.408775
 20
-0.817429
 30
0.0
 11
4.406754
 21
-0.847396
 31
0.0
  0
LINE
  8
0
  6
CONTINUOUS
 62
     7
  5
192
 10
4.406754
 20
-0.847396
 30
0.0
 11
4.403392
 21
-0.877243
 31
0.0
  0
LINE
  8
0
  6
CONTINUOUS
 62
     7
  5
193
 10
4.403392
 20
-0.877243
 30
0.0
 11
4.398693
 21
-0.906908
 31
0.0
  0
LINE
  8
0
  6
CONTINUOUS
 62
     7
  5
194
 10
4.398693
 20
-0.906908
 30
0.0
 11
4.392668
 21
-0.936333
 31
0.0
  0
LINE
  8
0
  6
CONTINUOUS
 62
     7
  5
195
 10
4.392668
 20
-0.936333
 30
0.0
 11
4.385329
 21
-0.965458
 31
0.0
  0
LINE
  8
0
  6
CONTINUOUS
 62
     7
  5
196
 10
4.385329
 20
-0.965458
 30
0.0
 11
4.376691
 21
-0.994224
 31
0.0
  0
LINE
  8
0
  6
CONTINUOUS
 62
     7
  5
197
 10
4.376691
 20
-0.994224
 30
0.0
 11
4.366771
 21
-1.022574
 31
0.0
  0
LINE
  8
0
  6
CONTINUOUS
 62
     7
  5
198
 10
4.366771
 20
-1.022574
 30
0.0
 11
4.355589
 21
-1.05045
 31
0.0
  0
LINE
  8
0
  6
CONTINUOUS
 62
     7
  5
199
 10
4.355589
 20
-1.05045
 30
0.0
 11
4.343168
 21
-1.077796
 31
0.0
  0
LINE
  8
0
  6
CONTINUOUS
 62
     7
  5
19A
 10
4.343168
 20
-1.077796
 30
0.0
 11
4.329532
 21
-1.104558
 31
0.0
  0
LINE
  8
0
  6
CONTINUOUS
 62
     7
  5
19B
 10
4.329532
 20
-1.104558
 30
0.0
 11
4.31471
 21
-1.130681
 31
0.0
  0
LINE
  8
0
  6
CONTINUOUS
 62
     7
  5
19C
 10
4.31471
 20
-1.130681
 30
0.0
 11
4.29873
 21
-1.156112
 31
0.0
  0
LINE
  8
0
  6
CONTINUOUS
 62
     7
  5
19D
 10
4.29873
 20
-1.156112
 30
0.0
 11
4.281626
 21
-1.180801
 31
0.0
  0
LINE
  8
0
  6
CONTINUOUS
 62
     7
  5
19E
 10
4.281626
 20
-1.180801
 30
0.0
 11
4.263431
 21
-1.204698
 31
0.0
  0
LINE
  8
0
  6
CONTINUOUS
 62
     7
  5
19F
 10
4.263431
 20
-1.204698
 30
0.0
 11
4.244182
 21
-1.227754
 31
0.0
  0
LINE
  8
0
  6
CONTINUOUS
 62
     7
  5
1A0
 10
4.244182
 20
-1.227754
 30
0.0
 11
4.223918
 21
-1.249924
 31
0.0
  0
LINE
  8
0
  6
CONTINUOUS
 62
     7
  5
1A1
 10
4.223918
 20
-1.249924
 30
0.0
 11
4.20268
 21
-1.271162
 31
0.0
  0
LINE
  8
0
  6
CONTINUOUS
 62
     7
  5
1A2
 10
4.20268
 20
-1.271162
 30
0.0
 11
4.18051
 21
-1.291426
 31
0.0
  0
LINE
  8
0
  6
CONTINUOUS
 62
     7
  5
1A3
 10
4.18051
 20
-1.291426
 30
0.0
 11
4.157454
 21
-1.310675
 31
0.0
  0
LINE
  8
0
  6
CONTINUOUS
 62
     7
  5
1A4
 10
4.157454
 20
-1.310675
 30
0.0
 11
4.133557
 21
-1.32887
 31
0.0
  0
LINE
  8
0
  6
CONTINUOUS
 62
     7
  5
1A5
 10
4.133557
 20
-1.32887
 30
0.0
 11
4.108868
 21
-1.345974
 31
0.0
  0
LINE
  8
0
  6
CONTINUOUS
 62
     7
  5
1A6
 10
4.108868
 20
-1.345974
 30
0.0
 11
4.083437
 21
-1.361954
 31
0.0
  0
LINE
  8
0
  6
CONTINUOUS
 62
     7
  5
1A7
 10
4.083437
 20
-1.361954
 30
0.0
 11
4.057314
 21
-1.376777
 31
0.0
  0
LINE
  8
0
  6
CONTINUOUS
 62
     7
  5
1A8
 10
4.057314
 20
-1.376777
 30
0.0
 11
4.030552
 21
-1.390412
 31
0.0
  0
LINE
  8
0
  6
CONTINUOUS
 62
     7
  5
1A9
 10
4.030552
 20
-1.390412
 30
0.0
 11
4.003206
 21
-1.402834
 31
0.0
  0
LINE
  8
0
  6
CONTINUOUS
 62
     7
  5
1AA
 10
4.003206
 20
-1.402834
 30
0.0
 11
3.97533
 21
-1.414015
 31
0.0
  0
LINE
  8
0
  6
CONTINUOUS
 62
     7
  5
1AB
 10
3.97533
 20
-1.414015
 30
0.0
 11
3.94698
 21
-1.423935
 31
0.0
  0
LINE
  8
0
  6
CONTINUOUS
 62
     7
  5
1AC
 10
3.94698
 20
-1.423935
 30
0.0
 11
3.918214
 21
-1.432574
 31
0.0
  0
LINE
  8
0
  6
CONTINUOUS
 62
     7
  5
1AD
 10
3.918214
 20
-1.432574
 30
0.0
 11
3.889089
 21
-1.439912
 31
0.0
  0
LINE
  8
0
  6
CONTINUOUS
 62
     7
  5
1AE
 10
3.889089
 20
-1.439912
 30
0.0
 11
3.859664
 21
-1.445937
 31
0.0
  0
LINE
  8
0
  6
CONTINUOUS
 62
     7
  5
1AF
 10
3.859664
 20
-1.445937
 30
0.0
 11
3.829999
 21
-1.450636
 31
0.0
  0
LINE
  8
0
  6
CONTINUOUS
 62
     7
  5
1B0
 10
3.829999
 20
-1.450636
 30
0.0
 11
3.800152
 21
-1.453999
 31
0.0
  0
LINE
  8
0
  6
CONTINUOUS
 62
     7
  5
1B1
 10
3.800152
 20
-1.453999
 30
0.0
 11
3.770185
 21
-1.456019
 31
0.0
  0
LINE
  8
0
  6
CONTINUOUS
 62
     7
  5
1B2
 10
3.770185
 20
-1.456019
 30
0.0
 11
3.740157
 21
-1.456693
 31
0.0
  0
LINE
  8
0
  6
CONTINUOUS
 62
     7
  5
1B3
 10
4.409449
 20
-0.749381
 30
0.0
 11
4.409449
 21
-0.787402
 31
0.0
  0
LINE
  8
0
  6
CONTINUOUS
 62
     7
  5
1B4
 10
3.9
 20
0.320411
 30
0.0
 11
3.926886
 21
0.298011
 31
0.0
  0
LINE
  8
0
  6
CONTINUOUS
 62
     7
  5
1B5
 10
3.926886
 20
0.298011
 30
0.0
 11
3.953194
 21
0.274936
 31
0.0
  0
LINE
  8
0
  6
CONTINUOUS
 62
     7
  5
1B6
 10
3.953194
 20
0.274936
 30
0.0
 11
3.978908
 21
0.2512
 31
0.0
  0
LINE
  8
0
  6
CONTINUOUS
 62
     7
  5
1B7
 10
3.978908
 20
0.2512
 30
0.0
 11
4.004011
 21
0.22682
 31
0.0
  0
LINE
  8
0
  6
CONTINUOUS
 62
     7
  5
1B8
 10
4.004011
 20
0.22682
 30
0.0
 11
4.028487
 21
0.201809
 31
0.0
  0
LINE
  8
0
  6
CONTINUOUS
 62
     7
  5
1B9
 10
4.028487
 20
0.201809
 30
0.0
 11
4.05232
 21
0.176185
 31
0.0
  0
LINE
  8
0
  6
CONTINUOUS
 62
     7
  5
1BA
 10
4.05232
 20
0.176185
 30
0.0
 11
4.075494
 21
0.149964
 31
0.0
  0
LINE
  8
0
  6
CONTINUOUS
 62
     7
  5
1BB
 10
4.075494
 20
0.149964
 30
0.0
 11
4.097995
 21
0.123163
 31
0.0
  0
LINE
  8
0
  6
CONTINUOUS
 62
     7
  5
1BC
 10
4.097995
 20
0.123163
 30
0.0
 11
4.119808
 21
0.095799
 31
0.0
  0
LINE
  8
0
  6
CONTINUOUS
 62
     7
  5
1BD
 10
4.119808
 20
0.095799
 30
0.0
 11
4.14092
 21
0.06789
 31
0.0
  0
LINE
  8
0
  6
CONTINUOUS
 62
     7
  5
1BE
 10
4.14092
 20
0.06789
 30
0.0
 11
4.161316
 21
0.039455
 31
0.0
  0
LINE
  8
0
  6
CONTINUOUS
 62
     7
  5
1BF
 10
4.161316
 20
0.039455
 30
0.0
 11
4.180983
 21
0.01051
 31
0.0
  0
LINE
  8
0
  6
CONTINUOUS
 62
     7
  5
1C0
 10
4.180983
 20
0.01051
 30
0.0
 11
4.199908
 21
-0.018925
 31
0.0
  0
LINE
  8
0
  6
CONTINUOUS
 62
     7
  5
1C1
 10
4.199908
 20
-0.018925
 30
0.0
 11
4.218081
 21
-0.048831
 31
0.0
  0
LINE
  8
0
  6
CONTINUOUS
 62
     7
  5
1C2
 10
4.218081
 20
-0.048831
 30
0.0
 11
4.235488
 21
-0.079188
 31
0.0
  0
LINE
  8
0
  6
CONTINUOUS
 62
     7
  5
1C3
 10
4.235488
 20
-0.079188
 30
0.0
 11
4.252118
 21
-0.109978
 31
0.0
  0
LINE
  8
0
  6
CONTINUOUS
 62
     7
  5
1C4
 10
4.252118
 20
-0.109978
 30
0.0
 11
4.267961
 21
-0.141181
 31
0.0
  0
LINE
  8
0
  6
CONTINUOUS
 62
     7
  5
1C5
 10
4.267961
 20
-0.141181
 30
0.0
 11
4.283007
 21
-0.172775
 31
0.0
  0
LINE
  8
0
  6
CONTINUOUS
 62
     7
  5
1C6
 10
4.283007
 20
-0.172775
 30
0.0
 11
4.297245
 21
-0.204742
 31
0.0
  0
LINE
  8
0
  6
CONTINUOUS
 62
     7
  5
1C7
 10
4.297245
 20
-0.204742
 30
0.0
 11
4.310668
 21
-0.237059
 31
0.0
  0
LINE
  8
0
  6
CONTINUOUS
 62
     7
  5
1C8
 10
4.310668
 20
-0.237059
 30
0.0
 11
4.323265
 21
-0.269708
 31
0.0
  0
LINE
  8
0
  6
CONTINUOUS
 62
     7
  5
1C9
 10
4.323265
 20
-0.269708
 30
0.0
 11
4.335029
 21
-0.302665
 31
0.0
  0
LINE
  8
0
  6
CONTINUOUS
 62
     7
  5
1CA
 10
4.335029
 20
-0.302665
 30
0.0
 11
4.345953
 21
-0.335911
 31
0.0
  0
LINE
  8
0
  6
CONTINUOUS
 62
     7
  5
1CB
 10
4.345953
 20
-0.335911
 30
0.0
 11
4.356028
 21
-0.369423
 31
0.0
  0
LINE
  8
0
  6
CONTINUOUS
 62
     7
  5
1CC
 10
4.356028
 20
-0.369423
 30
0.0
 11
4.36525
 21
-0.40318
 31
0.0
  0
LINE
  8
0
  6
CONTINUOUS
 62
     7
  5
1CD
 10
4.36525
 20
-0.40318
 30
0.0
 11
4.373611
 21
-0.437161
 31
0.0
  0
LINE
  8
0
  6
CONTINUOUS
 62
     7
  5
1CE
 10
4.373611
 20
-0.437161
 30
0.0
 11
4.381107
 21
-0.471343
 31
0.0
  0
LINE
  8
0
  6
CONTINUOUS
 62
     7
  5
1CF
 10
4.381107
 20
-0.471343
 30
0.0
 11
4.387732
 21
-0.505704
 31
0.0
  0
LINE
  8
0
  6
CONTINUOUS
 62
     7
  5
1D0
 10
4.387732
 20
-0.505704
 30
0.0
 11
4.393482
 21
-0.540222
 31
0.0
  0
LINE
  8
0
  6
CONTINUOUS
 62
     7
  5
1D1
 10
4.393482
 20
-0.540222
 30
0.0
 11
4.398354
 21
-0.574876
 31
0.0
  0
LINE
  8
0
  6
CONTINUOUS
 62
     7
  5
1D2
 10
4.398354
 20
-0.574876
 30
0.0
 11
4.402345
 21
-0.609642
 31
0.0
  0
LINE
  8
0
  6
CONTINUOUS
 62
     7
  5
1D3
 10
4.402345
 20
-0.609642
 30
0.0
 11
4.405451
 21
-0.644498
 31
0.0
  0
LINE
  8
0
  6
CONTINUOUS
 62
     7
  5
1D4
 10
4.405451
 20
-0.644498
 30
0.0
 11
4.407672
 21
-0.679421
 31
0.0
  0
LINE
  8
0
  6
CONTINUOUS
 62
     7
  5
1D5
 10
4.407672
 20
-0.679421
 30
0.0
 11
4.409004
 21
-0.71439
 31
0.0
  0
LINE
  8
0
  6
CONTINUOUS
 62
     7
  5
1D6
 10
4.409004
 20
-0.71439
 30
0.0
 11
4.409449
 21
-0.749381
 31
0.0
  0
ARC
  8
0
  6
CONTINUOUS
 62
     7
  5
1D7
 10
2.623134
 20
0.234871
 30
0.0
 40
0.393701
 50
90.0
 51
108.225733
  0
ARC
  8
0
  6
CONTINUOUS
 62
     7
  5
1D8
 10
2.623134
 20
0.234871
 30
0.0
 40
0.393701
 50
108.225733
 51
165.0
  0
ARC
  8
0
  6
CONTINUOUS
 62
     7
  5
1D9
 10
3.031496
 20
-0.749381
 30
0.0
 40
1.377953
 50
50.928795
 51
90.0
  0
LINE
  8
0
  6
CONTINUOUS
 62
     7
  5
1DA
 10
2.623134
 20
0.628572
 30
0.0
 11
3.031496
 21
0.628572
 31
0.0
  0
ARC
  8
0
  6
CONTINUOUS
 62
     7
  5
1DB
 10
3.2
 20
0.0
 30
0.0
 40
0.7
 50
180.0
 51
230.622968
  0
LINE
  8
0
  6
CONTINUOUS
 62
     7
  5
1DC
 10
-3.600003
 20
-1.466693
 30
0.0
 11
-4.02
 21
-1.466693
 31
0.0
  0
LINE
  8
0
  6
CONTINUOUS
 62
     7
  5
1DD
 10
-3.740157
 20
-1.456693
 30
0.0
 11
-3.770185
 21
-1.456019
 31
0.0
  0
LINE
  8
0
  6
CONTINUOUS
 62
     7
  5
1DE
 10
-3.770185
 20
-1.456019
 30
0.0
 11
-3.800152
 21
-1.453999
 31
0.0
  0
LINE
  8
0
  6
CONTINUOUS
 62
     7
  5
1DF
 10
-3.800152
 20
-1.453999
 30
0.0
 11
-3.829999
 21
-1.450636
 31
0.0
  0
LINE
  8
0
  6
CONTINUOUS
 62
     7
  5
1E0
 10
-3.829999
 20
-1.450636
 30
0.0
 11
-3.859664
 21
-1.445937
 31
0.0
  0
LINE
  8
0
  6
CONTINUOUS
 62
     7
  5
1E1
 10
-3.859664
 20
-1.445937
 30
0.0
 11
-3.889089
 21
-1.439912
 31
0.0
  0
LINE
  8
0
  6
CONTINUOUS
 62
     7
  5
1E2
 10
-3.889089
 20
-1.439912
 30
0.0
 11
-3.918214
 21
-1.432574
 31
0.0
  0
LINE
  8
0
  6
CONTINUOUS
 62
     7
  5
1E3
 10
-3.918214
 20
-1.432574
 30
0.0
 11
-3.94698
 21
-1.423935
 31
0.0
  0
LINE
  8
0
  6
CONTINUOUS
 62
     7
  5
1E4
 10
-3.94698
 20
-1.423935
 30
0.0
 11
-3.97533
 21
-1.414015
 31
0.0
  0
LINE
  8
0
  6
CONTINUOUS
 62
     7
  5
1E5
 10
-3.97533
 20
-1.414015
 30
0.0
 11
-4.003206
 21
-1.402834
 31
0.0
  0
LINE
  8
0
  6
CONTINUOUS
 62
     7
  5
1E6
 10
-4.003206
 20
-1.402834
 30
0.0
 11
-4.030552
 21
-1.390412
 31
0.0
  0
LINE
  8
0
  6
CONTINUOUS
 62
     7
  5
1E7
 10
-4.030552
 20
-1.390412
 30
0.0
 11
-4.057314
 21
-1.376777
 31
0.0
  0
LINE
  8
0
  6
CONTINUOUS
 62
     7
  5
1E8
 10
-4.057314
 20
-1.376777
 30
0.0
 11
-4.083437
 21
-1.361954
 31
0.0
  0
LINE
  8
0
  6
CONTINUOUS
 62
     7
  5
1E9
 10
-4.083437
 20
-1.361954
 30
0.0
 11
-4.108868
 21
-1.345974
 31
0.0
  0
LINE
  8
0
  6
CONTINUOUS
 62
     7
  5
1EA
 10
-4.108868
 20
-1.345974
 30
0.0
 11
-4.133557
 21
-1.32887
 31
0.0
  0
LINE
  8
0
  6
CONTINUOUS
 62
     7
  5
1EB
 10
-4.133557
 20
-1.32887
 30
0.0
 11
-4.157454
 21
-1.310675
 31
0.0
  0
LINE
  8
0
  6
CONTINUOUS
 62
     7
  5
1EC
 10
-4.157454
 20
-1.310675
 30
0.0
 11
-4.18051
 21
-1.291426
 31
0.0
  0
LINE
  8
0
  6
CONTINUOUS
 62
     7
  5
1ED
 10
-4.18051
 20
-1.291426
 30
0.0
 11
-4.20268
 21
-1.271162
 31
0.0
  0
LINE
  8
0
  6
CONTINUOUS
 62
     7
  5
1EE
 10
-4.20268
 20
-1.271162
 30
0.0
 11
-4.223918
 21
-1.249924
 31
0.0
  0
LINE
  8
0
  6
CONTINUOUS
 62
     7
  5
1EF
 10
-4.223918
 20
-1.249924
 30
0.0
 11
-4.244182
 21
-1.227754
 31
0.0
  0
LINE
  8
0
  6
CONTINUOUS
 62
     7
  5
1F0
 10
-4.244182
 20
-1.227754
 30
0.0
 11
-4.263431
 21
-1.204698
 31
0.0
  0
LINE
  8
0
  6
CONTINUOUS
 62
     7
  5
1F1
 10
-4.263431
 20
-1.204698
 30
0.0
 11
-4.281626
 21
-1.180801
 31
0.0
  0
LINE
  8
0
  6
CONTINUOUS
 62
     7
  5
1F2
 10
-4.281626
 20
-1.180801
 30
0.0
 11
-4.29873
 21
-1.156112
 31
0.0
  0
LINE
  8
0
  6
CONTINUOUS
 62
     7
  5
1F3
 10
-4.29873
 20
-1.156112
 30
0.0
 11
-4.31471
 21
-1.130681
 31
0.0
  0
LINE
  8
0
  6
CONTINUOUS
 62
     7
  5
1F4
 10
-4.31471
 20
-1.130681
 30
0.0
 11
-4.329532
 21
-1.104558
 31
0.0
  0
LINE
  8
0
  6
CONTINUOUS
 62
     7
  5
1F5
 10
-4.329532
 20
-1.104558
 30
0.0
 11
-4.343168
 21
-1.077796
 31
0.0
  0
LINE
  8
0
  6
CONTINUOUS
 62
     7
  5
1F6
 10
-4.343168
 20
-1.077796
 30
0.0
 11
-4.355589
 21
-1.05045
 31
0.0
  0
LINE
  8
0
  6
CONTINUOUS
 62
     7
  5
1F7
 10
-4.355589
 20
-1.05045
 30
0.0
 11
-4.366771
 21
-1.022574
 31
0.0
  0
LINE
  8
0
  6
CONTINUOUS
 62
     7
  5
1F8
 10
-4.366771
 20
-1.022574
 30
0.0
 11
-4.376691
 21
-0.994224
 31
0.0
  0
LINE
  8
0
  6
CONTINUOUS
 62
     7
  5
1F9
 10
-4.376691
 20
-0.994224
 30
0.0
 11
-4.385329
 21
-0.965458
 31
0.0
  0
LINE
  8
0
  6
CONTINUOUS
 62
     7
  5
1FA
 10
-4.385329
 20
-0.965458
 30
0.0
 11
-4.392668
 21
-0.936333
 31
0.0
  0
LINE
  8
0
  6
CONTINUOUS
 62
     7
  5
1FB
 10
-4.392668
 20
-0.936333
 30
0.0
 11
-4.398693
 21
-0.906908
 31
0.0
  0
LINE
  8
0
  6
CONTINUOUS
 62
     7
  5
1FC
 10
-4.398693
 20
-0.906908
 30
0.0
 11
-4.403392
 21
-0.877243
 31
0.0
  0
LINE
  8
0
  6
CONTINUOUS
 62
     7
  5
1FD
 10
-4.403392
 20
-0.877243
 30
0.0
 11
-4.406754
 21
-0.847396
 31
0.0
  0
LINE
  8
0
  6
CONTINUOUS
 62
     7
  5
1FE
 10
-4.406754
 20
-0.847396
 30
0.0
 11
-4.408775
 21
-0.817429
 31
0.0
  0
LINE
  8
0
  6
CONTINUOUS
 62
     7
  5
1FF
 10
-4.408775
 20
-0.817429
 30
0.0
 11
-4.409449
 21
-0.787402
 31
0.0
  0
LINE
  8
0
  6
CONTINUOUS
 62
     7
  5
200
 10
-1.98
 20
-1.466693
 30
0.0
 11
-2.42
 21
-1.466693
 31
0.0
  0
LINE
  8
0
  6
CONTINUOUS
 62
     7
  5
201
 10
-3.7
 20
-2.067087
 30
0.0
 11
-2.5
 21
-2.067087
 31
0.0
  0
LINE
  8
0
  6
CONTINUOUS
 62
     7
  5
202
 10
-3.7
 20
-2.209843
 30
0.0
 11
-2.5
 21
-2.209843
 31
0.0
  0
LINE
  8
0
  6
CONTINUOUS
 62
     7
  5
203
 10
-2.55
 20
-2.259843
 30
0.0
 11
-3.65
 21
-2.259843
 31
0.0
  0
LINE
  8
0
  6
CONTINUOUS
 62
     7
  5
204
 10
-2.55
 20
-1.667323
 30
0.0
 11
-3.65
 21
-1.667323
 31
0.0
  0
LINE
  8
0
  6
CONTINUOUS
 62
     7
  5
205
 10
-3.6
 20
-1.617323
 30
0.0
 11
-2.6
 21
-1.617323
 31
0.0
  0
LINE
  8
0
  6
CONTINUOUS
 62
     7
  5
206
 10
2.755906
 20
-1.456693
 30
0.0
 11
-2.755906
 21
-1.456693
 31
0.0
  0
LINE
  8
0
  6
CONTINUOUS
 62
     7
  5
207
 10
-2.755906
 20
-1.456693
 30
0.0
 11
-3.740157
 21
-1.456693
 31
0.0
  0
LINE
  8
0
  6
CONTINUOUS
 62
     7
  5
208
 10
-4.409449
 20
-0.749381
 30
0.0
 11
-4.408061
 21
-0.68756
 31
0.0
  0
LINE
  8
0
  6
CONTINUOUS
 62
     7
  5
209
 10
-4.408061
 20
-0.68756
 30
0.0
 11
-4.403902
 21
-0.625863
 31
0.0
  0
LINE
  8
0
  6
CONTINUOUS
 62
     7
  5
20A
 10
-4.403902
 20
-0.625863
 30
0.0
 11
-4.396978
 21
-0.564414
 31
0.0
  0
LINE
  8
0
  6
CONTINUOUS
 62
     7
  5
20B
 10
-4.396978
 20
-0.564414
 30
0.0
 11
-4.387305
 21
-0.503338
 31
0.0
  0
LINE
  8
0
  6
CONTINUOUS
 62
     7
  5
20C
 10
-4.387305
 20
-0.503338
 30
0.0
 11
-4.374901
 21
-0.442758
 31
0.0
  0
LINE
  8
0
  6
CONTINUOUS
 62
     7
  5
20D
 10
-4.374901
 20
-0.442758
 30
0.0
 11
-4.359791
 21
-0.382795
 31
0.0
  0
LINE
  8
0
  6
CONTINUOUS
 62
     7
  5
20E
 10
-4.359791
 20
-0.382795
 30
0.0
 11
-4.342007
 21
-0.32357
 31
0.0
  0
LINE
  8
0
  6
CONTINUOUS
 62
     7
  5
20F
 10
-4.342007
 20
-0.32357
 30
0.0
 11
-4.321583
 21
-0.265203
 31
0.0
  0
LINE
  8
0
  6
CONTINUOUS
 62
     7
  5
210
 10
-4.321583
 20
-0.265203
 30
0.0
 11
-4.298562
 21
-0.207811
 31
0.0
  0
LINE
  8
0
  6
CONTINUOUS
 62
     7
  5
211
 10
-4.298562
 20
-0.207811
 30
0.0
 11
-4.272989
 21
-0.15151
 31
0.0
  0
LINE
  8
0
  6
CONTINUOUS
 62
     7
  5
212
 10
-4.272989
 20
-0.15151
 30
0.0
 11
-4.244915
 21
-0.096413
 31
0.0
  0
LINE
  8
0
  6
CONTINUOUS
 62
     7
  5
213
 10
-4.244915
 20
-0.096413
 30
0.0
 11
-4.214398
 21
-0.04263
 31
0.0
  0
LINE
  8
0
  6
CONTINUOUS
 62
     7
  5
214
 10
-4.214398
 20
-0.04263
 30
0.0
 11
-4.181499
 21
0.009729
 31
0.0
  0
LINE
  8
0
  6
CONTINUOUS
 62
     7
  5
215
 10
-4.181499
 20
0.009729
 30
0.0
 11
-4.146283
 21
0.060559
 31
0.0
  0
LINE
  8
0
  6
CONTINUOUS
 62
     7
  5
216
 10
-4.146283
 20
0.060559
 30
0.0
 11
-4.108823
 21
0.109758
 31
0.0
  0
LINE
  8
0
  6
CONTINUOUS
 62
     7
  5
217
 10
-4.108823
 20
0.109758
 30
0.0
 11
-4.069193
 21
0.157227
 31
0.0
  0
LINE
  8
0
  6
CONTINUOUS
 62
     7
  5
218
 10
-4.069193
 20
0.157227
 30
0.0
 11
-4.027473
 21
0.20287
 31
0.0
  0
LINE
  8
0
  6
CONTINUOUS
 62
     7
  5
219
 10
-4.027473
 20
0.20287
 30
0.0
 11
-3.983748
 21
0.246596
 31
0.0
  0
LINE
  8
0
  6
CONTINUOUS
 62
     7
  5
21A
 10
-3.983748
 20
0.246596
 30
0.0
 11
-3.938105
 21
0.288316
 31
0.0
  0
LINE
  8
0
  6
CONTINUOUS
 62
     7
  5
21B
 10
-3.938105
 20
0.288316
 30
0.0
 11
-3.890636
 21
0.327946
 31
0.0
  0
LINE
  8
0
  6
CONTINUOUS
 62
     7
  5
21C
 10
-3.890636
 20
0.327946
 30
0.0
 11
-3.841436
 21
0.365406
 31
0.0
  0
LINE
  8
0
  6
CONTINUOUS
 62
     7
  5
21D
 10
-3.841436
 20
0.365406
 30
0.0
 11
-3.790606
 21
0.400621
 31
0.0
  0
LINE
  8
0
  6
CONTINUOUS
 62
     7
  5
21E
 10
-3.790606
 20
0.400621
 30
0.0
 11
-3.738247
 21
0.433521
 31
0.0
  0
LINE
  8
0
  6
CONTINUOUS
 62
     7
  5
21F
 10
-3.738247
 20
0.433521
 30
0.0
 11
-3.684465
 21
0.464038
 31
0.0
  0
LINE
  8
0
  6
CONTINUOUS
 62
     7
  5
220
 10
-3.684465
 20
0.464038
 30
0.0
 11
-3.629367
 21
0.492111
 31
0.0
  0
LINE
  8
0
  6
CONTINUOUS
 62
     7
  5
221
 10
-3.629367
 20
0.492111
 30
0.0
 11
-3.573066
 21
0.517685
 31
0.0
  0
LINE
  8
0
  6
CONTINUOUS
 62
     7
  5
222
 10
-3.573066
 20
0.517685
 30
0.0
 11
-3.515674
 21
0.540706
 31
0.0
  0
LINE
  8
0
  6
CONTINUOUS
 62
     7
  5
223
 10
-3.515674
 20
0.540706
 30
0.0
 11
-3.457307
 21
0.56113
 31
0.0
  0
LINE
  8
0
  6
CONTINUOUS
 62
     7
  5
224
 10
-3.457307
 20
0.56113
 30
0.0
 11
-3.398082
 21
0.578914
 31
0.0
  0
LINE
  8
0
  6
CONTINUOUS
 62
     7
  5
225
 10
-3.398082
 20
0.578914
 30
0.0
 11
-3.338119
 21
0.594023
 31
0.0
  0
LINE
  8
0
  6
CONTINUOUS
 62
     7
  5
226
 10
-3.338119
 20
0.594023
 30
0.0
 11
-3.277539
 21
0.606427
 31
0.0
  0
LINE
  8
0
  6
CONTINUOUS
 62
     7
  5
227
 10
-3.277539
 20
0.606427
 30
0.0
 11
-3.216463
 21
0.616101
 31
0.0
  0
LINE
  8
0
  6
CONTINUOUS
 62
     7
  5
228
 10
-3.216463
 20
0.616101
 30
0.0
 11
-3.155015
 21
0.623024
 31
0.0
  0
LINE
  8
0
  6
CONTINUOUS
 62
     7
  5
229
 10
-3.155015
 20
0.623024
 30
0.0
 11
-3.093318
 21
0.627184
 31
0.0
  0
LINE
  8
0
  6
CONTINUOUS
 62
     7
  5
22A
 10
-3.093318
 20
0.627184
 30
0.0
 11
-3.031496
 21
0.628572
 31
0.0
  0
LINE
  8
0
  6
CONTINUOUS
 62
     7
  5
22B
 10
-4.409449
 20
-0.787402
 30
0.0
 11
-4.409449
 21
-0.749381
 31
0.0
  0
LINE
  8
0
  6
CONTINUOUS
 62
     7
  5
22C
 10
-3.031496
 20
0.628572
 30
0.0
 11
-2.755906
 21
0.628572
 31
0.0
  0
LINE
  8
0
  6
CONTINUOUS
 62
     7
  5
22D
 10
-2.755906
 20
0.628572
 30
0.0
 11
-2.755906
 21
-1.456693
 31
0.0
  0
LINE
  8
0
  6
CONTINUOUS
 62
     7
  5
22E
 10
-2.755906
 20
0.628572
 30
0.0
 11
-2.623134
 21
0.628572
 31
0.0
  0
LINE
  8
0
  6
CONTINUOUS
 62
     7
  5
22F
 10
-2.001563
 20
0.0
 30
0.0
 11
-0.5
 21
0.0
 31
0.0
  0
ARC
  8
0
  6
CONTINUOUS
 62
     7
  5
230
 10
-2.001563
 20
0.19685
 30
0.0
 40
0.19685
 50
195.0
 51
270.0
  0
LINE
  8
0
  6
CONTINUOUS
 62
     7
  5
231
 10
-2.242849
 20
0.336768
 30
0.0
 11
-2.191706
 21
0.145902
 31
0.0
  0
ARC
  8
0
  6
CONTINUOUS
 62
     7
  5
232
 10
-2.623134
 20
0.234871
 30
0.0
 40
0.393701
 50
15.0
 51
90.0
  0
LINE
  8
0
  6
CONTINUOUS
 62
     7
  5
233
 10
2.191706
 20
0.145902
 30
0.0
 11
2.242849
 21
0.336768
 31
0.0
  0
ARC
  8
0
  6
CONTINUOUS
 62
     7
  5
234
 10
2.001563
 20
0.19685
 30
0.0
 40
0.19685
 50
270.0
 51
345.0
  0
LINE
  8
0
  6
CONTINUOUS
 62
     7
  5
235
 10
0.5
 20
0.0
 30
0.0
 11
2.001563
 21
0.0
 31
0.0
  0
LINE
  8
0
  6
CONTINUOUS
 62
     7
  5
236
 10
-4.02
 20
-1.395381
 30
0.0
 11
-4.02
 21
-1.466693
 31
0.0
  0
LINE
  8
0
  6
CONTINUOUS
 62
     7
  5
237
 10
-1.98
 20
-1.466693
 30
0.0
 11
-1.98
 21
-1.456693
 31
0.0
  0
LINE
  8
0
  6
CONTINUOUS
 62
     7
  5
238
 10
-2.42
 20
-1.456693
 30
0.0
 11
-2.42
 21
-1.466693
 31
0.0
  0
LINE
  8
0
  6
CONTINUOUS
 62
     7
  5
239
 10
-3.7
 20
-2.209843
 30
0.0
 11
-3.65
 21
-2.259843
 31
0.0
  0
LINE
  8
0
  6
CONTINUOUS
 62
     7
  5
23A
 10
-2.55
 20
-2.259843
 30
0.0
 11
-2.5
 21
-2.209843
 31
0.0
  0
LINE
  8
0
  6
CONTINUOUS
 62
     7
  5
23B
 10
-3.7
 20
-2.067087
 30
0.0
 11
-3.7
 21
-2.209843
 31
0.0
  0
LINE
  8
0
  6
CONTINUOUS
 62
     7
  5
23C
 10
-2.5
 20
-2.209843
 30
0.0
 11
-2.5
 21
-2.067087
 31
0.0
  0
LINE
  8
0
  6
CONTINUOUS
 62
     7
  5
23D
 10
-2.55
 20
-1.667323
 30
0.0
 11
-2.6
 21
-1.617323
 31
0.0
  0
LINE
  8
0
  6
CONTINUOUS
 62
     7
  5
23E
 10
-3.6
 20
-1.617323
 30
0.0
 11
-3.65
 21
-1.667323
 31
0.0
  0
LINE
  8
0
  6
CONTINUOUS
 62
     7
  5
23F
 10
-2.55
 20
-2.067087
 30
0.0
 11
-2.55
 21
-1.667323
 31
0.0
  0
LINE
  8
0
  6
CONTINUOUS
 62
     7
  5
240
 10
-3.65
 20
-1.667323
 30
0.0
 11
-3.65
 21
-2.067087
 31
0.0
  0
LINE
  8
0
  6
CONTINUOUS
 62
     7
  5
241
 10
-3.6
 20
-1.456693
 30
0.0
 11
-3.6
 21
-1.617323
 31
0.0
  0
LINE
  8
0
  6
CONTINUOUS
 62
     7
  5
242
 10
-2.6
 20
-1.617323
 30
0.0
 11
-2.6
 21
-1.456693
 31
0.0
  0
ENDSEC
  0
EOF
