999
DXF file: C:\Users\sesa63760\Dev\_Creo\CAD\MCADID0003916_3D-CAD\drw0001_1.dxf
999
Pro/ENGINEER 2019471 by Parametric Technology Corporation
  0
SECTION
  2
HEADER
  9
$ACADVER
  1
AC1024
  9
$DWGCODEPAGE
  3
ANSI_1252
  9
$EXTMAX
 10
77.98607483
 20
110.2945915452
 30
0.0
  9
$EXTMIN
 10
0.0
 20
0.0
 30
0.0
  9
$LIMMIN
 10
0.0
 20
0.0
  9
$LIMMAX
 10
77.98607483
 20
110.2945915452
  9
$VIEWCTR
 10
38.993037415
 20
55.1472957726
  9
$VIEWSIZE
 40
110.2945915452
  9
$CLAYER
  8
0
  9
$LTSCALE
 40
7.1895733748
  9
$CELTYPE
  6
BYLAYER
  9
$DIMSCALE
 40
1.0
  9
$DIMASZ
 40
0.9284056527
  9
$DIMEXO
 40
1.0
  9
$DIMDLI
 40
4.9673416044
  9
$DIMEXE
 40
1.0
  9
$DIMCEN
 40
1.1764756431
  9
$DIMLFAC
 40
1.0
  9
$DIMBLK
  1
_FILLED
  9
$DIMALT
 70
0
  9
$DIMALTF
 40
0.0393700787
  9
$DIMTXT
 40
1.2997679138
  9
$DIMTOL
 70
1
  9
$DIMLIM
 70
0
  9
$DIMTFAC
 40
1.0
  9
$DIMTP
 40
0.01
  9
$DIMTM
 40
0.01
  9
$DIMGAP
 40
0.625
  9
$DIMDSEP
 70
46
  9
$AUNITS
 70
0
  9
$PDMODE
 70
3
  9
$PDSIZE
 40
0.3125
  9
$HANDSEED
  5
268
  9
$TILEMODE
 70
1
  9
$MEASUREMENT
 70
1
  9
$INSUNITS
 70
4
  0
ENDSEC
  0
SECTION
  2
CLASSES
  0
CLASS
  1
ACDBDICTIONARYWDFLT
  2
AcDbDictionaryWithDefault
  3
AutoCAD 2000
 90
0
 91
1
280
0
281
0
  0
CLASS
  1
ACDBPLACEHOLDER
  2
AcDbPlaceHolder
  3
AutoCAD 2000
 90
0
 91
1
280
0
281
0
  0
CLASS
  1
LAYOUT
  2
AcDbLayout
  3
AutoCAD 2000
 90
0
 91
0
280
0
281
0
  0
ENDSEC
  0
SECTION
  2
TABLES
  0
TABLE
  2
VPORT
  5
8
100
AcDbSymbolTable
 70
2
  0
VPORT
  5
1F4
100
AcDbSymbolTableRecord
100
AcDbViewportTableRecord
  2
*ACTIVE
 70
0
 10
0.0
 20
0.0
 11
1.0
 21
1.0
 12
38.993037415
 22
55.1472957726
 13
0.0
 23
0.0
 14
1.0
 24
1.0
 15
0.0
 25
0.0
 16
0.0
 26
0.0
 36
1.0
 17
0.0
 27
0.0
 37
0.0
 40
110.2945915452
 41
0.7070707071
 42
50.0
 43
0.0
 44
0.0
 50
0.0
 51
0.0
 71
0
 72
100
 73
1
 74
1
 75
0
 76
0
 77
0
 78
0
  0
ENDTAB
  0
TABLE
  2
LTYPE
  5
5
100
AcDbSymbolTable
 70
6
  0
LTYPE
  5
14
100
AcDbSymbolTableRecord
100
AcDbLinetypeTableRecord
  2
BYBLOCK
 70
0
  3

 72
65
 73
0
 40
0.0
  0
LTYPE
  5
15
100
AcDbSymbolTableRecord
100
AcDbLinetypeTableRecord
  2
BYLAYER
 70
0
  3

 72
65
 73
0
 40
0.0
  0
LTYPE
  5
16
100
AcDbSymbolTableRecord
100
AcDbLinetypeTableRecord
  2
CONTINUOUS
 70
64
  3
Solid line
 72
65
 73
0
 40
0.0
  0
LTYPE
  5
1F5
100
AcDbSymbolTableRecord
100
AcDbLinetypeTableRecord
  2
CENTER
 70
64
  3
____ _ ____ _ ____ _ ____ _ ____ _ ____ _ ____
 72
65
 73
4
 40
0.6
 49
0.375
 74
0
 49
-0.075
 74
0
 49
0.075
 74
0
 49
-0.075
 74
0
  0
LTYPE
  5
1F6
100
AcDbSymbolTableRecord
100
AcDbLinetypeTableRecord
  2
HIDDEN
 70
64
  3
- - - - - - - - - - - - - - - - - - - -
 72
65
 73
2
 40
0.2
 49
0.1
 74
0
 49
-0.1
 74
0
  0
LTYPE
  5
1F7
100
AcDbSymbolTableRecord
100
AcDbLinetypeTableRecord
  2
PHANTOM
 70
64
  3
_____ _ _ _____ _ _ _____ _ _ _____
 72
65
 73
6
 40
0.8
 49
0.45
 74
0
 49
-0.05
 74
0
 49
0.1
 74
0
 49
-0.05
 74
0
 49
0.1
 74
0
 49
-0.05
 74
0
  0
LTYPE
  5
1F8
100
AcDbSymbolTableRecord
100
AcDbLinetypeTableRecord
  2
DOT
 70
64
  3
. . . . . . . . . . . . . . . . . . . .
 72
65
 73
2
 40
0.2
 49
0.1
 74
0
 49
-0.1
 74
0
  0
LTYPE
  5
1F9
100
AcDbSymbolTableRecord
100
AcDbLinetypeTableRecord
  2
DASHED
 70
64
  3
- - - - - - - - - - - - - - - - - - - -
 72
65
 73
2
 40
0.2
 49
0.1
 74
0
 49
-0.1
 74
0
  0
ENDTAB
  0
TABLE
  2
LAYER
  5
2
100
AcDbSymbolTable
 70
36
  0
LAYER
  5
10
100
AcDbSymbolTableRecord
100
AcDbLayerTableRecord
  2
0
 70
0
 62
7
  6
CONTINUOUS
370
-3
390
F
  0
LAYER
  5
1FA
100
AcDbSymbolTableRecord
100
AcDbLayerTableRecord
  2
DEFAULT_1
 70
0
 62
7
  6
CENTER
370
-3
390
F
  0
LAYER
  5
1FB
100
AcDbSymbolTableRecord
100
AcDbLayerTableRecord
  2
DEFAULT_2
 70
0
 62
7
  6
HIDDEN
370
-3
390
F
  0
LAYER
  5
1FC
100
AcDbSymbolTableRecord
100
AcDbLayerTableRecord
  2
DEFAULT_3
 70
0
 62
7
  6
PHANTOM
370
-3
390
F
  0
LAYER
  5
1FD
100
AcDbSymbolTableRecord
100
AcDbLayerTableRecord
  2
00_COMPONENTS
 70
0
 62
7
  6
CONTINUOUS
370
-3
390
F
  0
LAYER
  5
1FE
100
AcDbSymbolTableRecord
100
AcDbLayerTableRecord
  2
01_1_DEFAULT_DATUMS
 70
0
 62
7
  6
CONTINUOUS
370
-3
390
F
  0
LAYER
  5
1FF
100
AcDbSymbolTableRecord
100
AcDbLayerTableRecord
  2
01_PLANES
 70
0
 62
7
  6
CONTINUOUS
370
-3
390
F
  0
LAYER
  5
200
100
AcDbSymbolTableRecord
100
AcDbLayerTableRecord
  2
02_COORD_SYS
 70
0
 62
7
  6
CONTINUOUS
370
-3
390
F
  0
LAYER
  5
201
100
AcDbSymbolTableRecord
100
AcDbLayerTableRecord
  2
03_AXES
 70
0
 62
7
  6
CONTINUOUS
370
-3
390
F
  0
LAYER
  5
202
100
AcDbSymbolTableRecord
100
AcDbLayerTableRecord
  2
04_POINTS
 70
0
 62
7
  6
CONTINUOUS
370
-3
390
F
  0
LAYER
  5
203
100
AcDbSymbolTableRecord
100
AcDbLayerTableRecord
  2
05_CURVES
 70
0
 62
7
  6
CONTINUOUS
370
-3
390
F
  0
LAYER
  5
204
100
AcDbSymbolTableRecord
100
AcDbLayerTableRecord
  2
06_SURFS
 70
0
 62
7
  6
CONTINUOUS
370
-3
390
F
  0
LAYER
  5
205
100
AcDbSymbolTableRecord
100
AcDbLayerTableRecord
  2
07_COSMETICS
 70
0
 62
7
  6
CONTINUOUS
370
-3
390
F
  0
LAYER
  5
206
100
AcDbSymbolTableRecord
100
AcDbLayerTableRecord
  2
10_NOTES
 70
0
 62
7
  6
CONTINUOUS
370
-3
390
F
  0
LAYER
  5
207
100
AcDbSymbolTableRecord
100
AcDbLayerTableRecord
  2
11_NOTES_PUB
 70
0
 62
7
  6
CONTINUOUS
370
-3
390
F
  0
LAYER
  5
208
100
AcDbSymbolTableRecord
100
AcDbLayerTableRecord
  2
13_REF_GTOL
 70
0
 62
7
  6
CONTINUOUS
370
-3
390
F
  0
LAYER
  5
209
100
AcDbSymbolTableRecord
100
AcDbLayerTableRecord
  2
16_MISC
 70
0
 62
7
  6
CONTINUOUS
370
-3
390
F
  0
LAYER
  5
20A
100
AcDbSymbolTableRecord
100
AcDbLayerTableRecord
  2
17_NO_PRINT
 70
0
 62
7
  6
CONTINUOUS
370
-3
390
F
  0
LAYER
  5
20B
100
AcDbSymbolTableRecord
100
AcDbLayerTableRecord
  2
18_DATUM_CAMS_JOINTS
 70
0
 62
7
  6
CONTINUOUS
370
-3
390
F
  0
LAYER
  5
20C
100
AcDbSymbolTableRecord
100
AcDbLayerTableRecord
  2
19_DATUM_FUNCTIONAL
 70
0
 62
7
  6
CONTINUOUS
370
-3
390
F
  0
LAYER
  5
20D
100
AcDbSymbolTableRecord
100
AcDbLayerTableRecord
  2
20_DATUM_KINEMATIC_SCHEME
 70
0
 62
7
  6
CONTINUOUS
370
-3
390
F
  0
ENDTAB
  0
TABLE
  2
STYLE
  5
3
100
AcDbSymbolTable
 70
1
  0
STYLE
  5
11
100
AcDbSymbolTableRecord
100
AcDbTextStyleTableRecord
  2
STANDARD
 70
0
 40
0.0
 41
1.0
 50
0.0
 71
0
 42
0.2
  3
ARIAL.TTF
  4

  0
STYLE
  5
20E
100
AcDbSymbolTableRecord
100
AcDbTextStyleTableRecord
  2
TEXTSTYLE_1
 70
0
 40
0.0
 41
0.8
 50
0.0
 71
0
 42
0.2
  3
gdt
  4

  0
ENDTAB
  0
TABLE
  2
VIEW
  5
6
100
AcDbSymbolTable
 70
0
  0
ENDTAB
  0
TABLE
  2
UCS
  5
7
100
AcDbSymbolTable
 70
0
  0
ENDTAB
  0
TABLE
  2
APPID
  5
9
100
AcDbSymbolTable
 70
1
  0
APPID
  5
20F
100
AcDbSymbolTableRecord
100
AcDbRegAppTableRecord
  2
ACAD
 70
0
  0
ENDTAB
  0
TABLE
  2
BLOCK_RECORD
  5
1
100
AcDbSymbolTable
 70
0
  0
BLOCK_RECORD
  5
210
100
AcDbSymbolTableRecord
100
AcDbBlockTableRecord
  2
*Model_Space
  0
BLOCK_RECORD
  5
211
100
AcDbSymbolTableRecord
100
AcDbBlockTableRecord
  2
*Paper_Space
  0
BLOCK_RECORD
  5
212
100
AcDbSymbolTableRecord
100
AcDbBlockTableRecord
  2
_FILLED
  0
ENDTAB
  0
TABLE
  2
DIMSTYLE
  5
A
100
AcDbSymbolTable
 70
1
100
AcDbDimStyleTable
 71
0
  0
DIMSTYLE
105
213
100
AcDbSymbolTableRecord
100
AcDbDimStyleTableRecord
  2
STANDARD
 70
0
  3

  4

 40
1.0
 41
0.9284056527
 42
1.0
 43
0.38
 44
1.0
 45
0.0
 46
0.0
 47
0.01
 48
0.01
140
1.2997679138
141
0.09
142
0.0
143
25.4
144
1.0
145
0.0
146
1.0
147
0.625
 71
1
 72
0
 73
0
 74
0
 75
0
 76
0
 77
1
 78
8
 79
2
170
0
171
1
172
0
173
0
174
0
175
0
176
0
177
0
178
0
270
2
179
2
271
2
272
2
273
2
274
2
275
0
280
0
281
0
282
0
283
1
284
8
285
0
286
0
287
3
288
0
340
11
278
46
341
212
342
212
343
212
344
212
  0
ENDTAB
  0
ENDSEC
  0
SECTION
  2
BLOCKS
  0
BLOCK
  5
20
100
AcDbEntity
  8
0
100
AcDbBlockBegin
  2
*Model_Space
 70
0
 10
0.0
 20
0.0
 30
0.0
  3
*Model_Space
  1

  0
ENDBLK
  5
21
100
AcDbEntity
  8
0
100
AcDbBlockEnd
  0
BLOCK
  5
1C
100
AcDbEntity
  8
0
100
AcDbBlockBegin
  2
*Paper_Space
 70
0
 10
0.0
 20
0.0
 30
0.0
  3
*Paper_Space
  1

  0
ENDBLK
  5
1D
100
AcDbEntity
  8
0
100
AcDbBlockEnd
  0
BLOCK
  5
214
100
AcDbEntity
  8
0
100
AcDbBlockBegin
  2
_FILLED
 70
64
 10
0.0
 20
0.0
  3
_FILLED
  1

  0
SOLID
  5
215
100
AcDbEntity
  8
0
  6
BYBLOCK
 62
0
100
AcDbTrace
 10
0.0
 20
0.0
 11
-1.0
 21
0.25
 12
-1.0
 22
-0.25
 13
-1.0
 23
-0.25
  0
ENDBLK
  5
216
100
AcDbEntity
  8
0
  6
BYBLOCK
 62
0
100
AcDbBlockEnd
  0
ENDSEC
  0
SECTION
  2
ENTITIES
  0
LINE
  5
217
100
AcDbEntity
  8
0
100
AcDbLine
 62
7
  6
BYLAYER
 10
13.8763748811
 20
76.1920963434
 11
13.4521035277
 21
75.9471395374
  0
LINE
  5
218
100
AcDbEntity
  8
0
100
AcDbLine
 62
7
  6
BYLAYER
 10
9.6337578765
 20
69.3334670426
 11
9.6337643345
 21
68.8435639575
  0
LINE
  5
219
100
AcDbEntity
  8
0
100
AcDbLine
 62
7
  6
BYLAYER
 10
18.0483879164
 20
57.453601577
 11
18.0483938043
 21
56.6371098697
  0
LINE
  5
21A
100
AcDbEntity
  8
0
100
AcDbLine
 62
7
  6
BYLAYER
 10
27.947841637
 20
74.6001487564
 11
28.6549513622
 21
75.008410419
  0
LINE
  5
21B
100
AcDbEntity
  8
0
100
AcDbLine
 62
7
  6
BYLAYER
 10
43.676521688
 20
36.767952571
 11
21.1550786149
 21
49.7704196367
  0
LINE
  5
21C
100
AcDbEntity
  8
0
100
AcDbLine
 62
7
  6
BYLAYER
 10
19.1253181932
 20
52.0969698595
 11
16.5638822313
 21
53.5757821464
  0
LINE
  5
21D
100
AcDbEntity
  8
0
100
AcDbLine
 62
7
  6
BYLAYER
 10
44.6007807124
 20
37.3890374542
 11
45.3078904375
 21
36.9807966997
  0
LINE
  5
21E
100
AcDbEntity
  8
0
100
AcDbLine
 62
7
  6
BYLAYER
 10
46.0925062446
 20
37.2783599054
 11
53.97677968
 21
32.7264754924
  0
LINE
  5
21F
100
AcDbEntity
  8
0
100
AcDbLine
 62
7
  6
BYLAYER
 10
44.6286536452
 20
37.4577188825
 11
44.6422793419
 21
37.4481516784
  0
LINE
  5
220
100
AcDbEntity
  8
0
100
AcDbLine
 62
7
  6
BYLAYER
 10
44.6286536452
 20
37.4577188825
 11
44.641489026
 21
37.4469498254
  0
LINE
  5
221
100
AcDbEntity
  8
0
100
AcDbLine
 62
7
  6
BYLAYER
 10
14.2108364735
 20
64.1718350777
 11
10.8764382585
 21
66.0969072338
  0
LWPOLYLINE
  5
222
100
AcDbEntity
  8
0
100
AcDbPolyline
 62
7
  6
BYLAYER
 90
4
 70
0
 10
41.9223105889
 20
40.2726132922
 10
43.3673928645
 20
37.8420963575
 10
45.6212865131
 20
36.5444463685
 10
46.4351334815
 20
36.5351983883
  0
LWPOLYLINE
  5
223
100
AcDbEntity
  8
0
100
AcDbPolyline
 62
7
  6
BYLAYER
 90
7
 70
0
 10
51.6006619432
 20
61.2710982461
 10
48.4555517177
 20
58.8803402352
 10
45.623048436
 20
55.5806232218
 10
43.3546143722
 20
51.6502210916
 10
41.9087033658
 20
47.5224974634
 10
41.4184069853
 20
43.6045303493
 10
41.9223105889
 20
40.2726132922
  0
LWPOLYLINE
  5
224
100
AcDbEntity
  8
0
100
AcDbPolyline
 62
7
  6
BYLAYER
 90
3
 70
0
 10
57.5800373733
 20
62.4824769871
 10
54.7584794273
 20
62.5145391723
 10
51.6006619432
 20
61.2710982461
  0
LINE
  5
225
100
AcDbEntity
  8
0
100
AcDbLine
 62
7
  6
BYLAYER
 10
20.2112412736
 20
74.5639062177
 11
16.8763364564
 21
76.489270854
  0
LINE
  5
226
100
AcDbEntity
  8
0
100
AcDbLine
 62
7
  6
BYLAYER
 10
59.4422797348
 20
60.4013689604
 11
67.3265531702
 21
55.8494845475
  0
LINE
  5
227
100
AcDbEntity
  8
0
100
AcDbLine
 62
7
  6
BYLAYER
 10
33.2052226396
 20
76.299549357
 11
30.5636446929
 21
77.8246305937
  0
LINE
  5
228
100
AcDbEntity
  8
0
100
AcDbLine
 62
7
  6
BYLAYER
 10
58.600543174
 20
61.6378859015
 11
59.3076528992
 21
61.229645147
  0
LINE
  5
229
100
AcDbEntity
  8
0
100
AcDbLine
 62
7
  6
BYLAYER
 10
58.6762671826
 20
62.7488616216
 11
36.1548241095
 21
75.7513286873
  0
LWPOLYLINE
  5
22A
100
AcDbEntity
  8
0
100
AcDbPolyline
 62
7
  6
BYLAYER
 90
3
 70
0
 10
60.7479143635
 20
59.6475775091
 10
59.8339310219
 20
61.1848269982
 10
57.5800373733
 20
62.4824769871
  0
ARC
  5
22B
100
AcDbEntity
  8
0
100
AcDbCircle
 62
7
  6
BYLAYER
 10
53.1328787011
 20
46.4302238805
 40
15.0603434765
100
AcDbArc
 50
305.6345758933
 51
307.8547598568
  0
ARC
  5
22C
100
AcDbEntity
  8
0
100
AcDbCircle
 62
7
  6
BYLAYER
 10
30.2605943703
 20
65.5337171491
 40
13.3921650736
100
AcDbArc
 50
120.0036971451
 51
120.9668847003
  0
ARC
  5
22D
100
AcDbEntity
  8
0
100
AcDbCircle
 62
7
  6
BYLAYER
 10
27.0062667777
 20
59.9845011572
 40
13.3419570378
100
AcDbArc
 50
179.0323431155
 51
179.9991533696
  0
ARC
  5
22E
100
AcDbEntity
  8
0
100
AcDbCircle
 62
7
  6
BYLAYER
 10
57.8335490444
 20
50.4960842379
 40
13.2964117094
100
AcDbArc
 50
116.4558834848
 51
120.0445366597
  0
ARC
  5
22F
100
AcDbEntity
  8
0
100
AcDbCircle
 62
7
  6
BYLAYER
 10
57.486444813
 20
49.6564570897
 40
12.6636370716
100
AcDbArc
 50
359.6517122025
 51
359.9996993679
  0
ARC
  5
230
100
AcDbEntity
  8
0
100
AcDbCircle
 62
7
  6
BYLAYER
 10
53.2327546157
 20
43.588278082
 40
12.6619347232
100
AcDbArc
 50
183.3804808083
 51
183.8567531133
  0
ARC
  5
231
100
AcDbEntity
  8
0
100
AcDbCircle
 62
7
  6
BYLAYER
 10
63.8650278228
 20
38.8378531103
 40
12.6531976247
100
AcDbArc
 50
179.6517073848
 51
179.9996945501
  0
ARC
  5
232
100
AcDbEntity
  8
0
100
AcDbCircle
 62
7
  6
BYLAYER
 10
55.7260587003
 20
41.9179680819
 40
9.8431005654
100
AcDbArc
 50
291.5693806427
 51
293.3266857191
  0
ARC
  5
233
100
AcDbEntity
  8
0
100
AcDbCircle
 62
7
  6
BYLAYER
 10
53.2119240044
 20
56.6617387498
 40
8.4942054732
100
AcDbArc
 50
17.2809693952
 51
19.2742640261
  0
ARC
  5
234
100
AcDbEntity
  8
0
100
AcDbCircle
 62
7
  6
BYLAYER
 10
16.0877513401
 20
68.8125002127
 40
6.4548150242
100
AcDbArc
 50
175.4278221753
 51
175.6142068016
  0
ARC
  5
235
100
AcDbEntity
  8
0
100
AcDbCircle
 62
7
  6
BYLAYER
 10
16.9403443902
 20
70.9013122205
 40
6.1139685067
100
AcDbArc
 50
120.0757516351
 51
124.3358863427
  0
ARC
  5
236
100
AcDbEntity
  8
0
100
AcDbCircle
 62
7
  6
BYLAYER
 10
15.6209619512
 20
68.8410957078
 40
5.9872100755
100
AcDbArc
 50
175.5454536385
 51
179.9763077463
  0
ARC
  5
237
100
AcDbEntity
  8
0
100
AcDbCircle
 62
7
  6
BYLAYER
 10
14.0593524213
 20
69.7621187521
 40
5.014532692
100
AcDbArc
 50
179.9992362518
 51
180.5618135541
  0
ARC
  5
238
100
AcDbEntity
  8
0
100
AcDbCircle
 62
7
  6
BYLAYER
 10
14.1049025459
 20
69.6804673193
 40
5.0015035841
100
AcDbArc
 50
179.9992044545
 51
180.5617817567
  0
ARC
  5
239
100
AcDbEntity
  8
0
100
AcDbCircle
 62
7
  6
BYLAYER
 10
47.6712810305
 20
41.0689273368
 40
4.7221140058
100
AcDbArc
 50
230.0874454301
 51
239.9673490593
  0
ARC
  5
23A
100
AcDbEntity
  8
0
100
AcDbCircle
 62
7
  6
BYLAYER
 10
56.960987773
 20
57.1641841246
 40
4.6941180659
100
AcDbArc
 50
60.0056012455
 51
69.8405204653
  0
SPLINE
  5
23B
100
AcDbEntity
  8
0
100
AcDbSpline
 62
7
  6
BYLAYER
 70
0
 71
3
 72
25
 73
21
 74
0
 42
0.0000001
 43
0.0000001
 44
0.0000000001
 40
0.0
 40
0.0
 40
0.0
 40
0.0
 40
0.0226326827
 40
0.0456959369
 40
0.0693144792
 40
0.0936024351
 40
0.1445227477
 40
0.1990514022
 40
0.2573821936
 40
0.3194021343
 40
0.3847420307
 40
0.4528323521
 40
0.5229550949
 40
0.594291409
 40
0.665965589
 40
0.7370858322
 40
0.8067879745
 40
0.8742690438
 40
0.9388536828
 40
1.0
 40
1.0
 40
1.0
 40
1.0
 10
15.1750706891
 20
76.6676757179
 30
0.0
 10
15.1011824017
 20
76.6910324535
 30
0.0
 10
14.949112412
 20
76.7294955702
 30
0.0
 10
14.7135712207
 20
76.7619039742
 30
0.0
 10
14.4702626623
 20
76.7695968187
 30
0.0
 10
14.13218945
 20
76.7468880269
 30
0.0
 10
13.695070786
 20
76.6553519895
 30
0.0
 10
13.1690854358
 20
76.455690509
 30
0.0
 10
12.6411775678
 20
76.1698483578
 30
0.0
 10
12.1198210347
 20
75.8037994426
 30
0.0
 10
11.6135825685
 20
75.3645149346
 30
0.0
 10
11.1312330864
 20
74.8601697812
 30
0.0
 10
10.6813976532
 20
74.3001385094
 30
0.0
 10
10.272304983
 20
73.6948735475
 30
0.0
 10
9.9115497924
 20
73.055700836
 30
0.0
 10
9.605872402
 20
72.3945675986
 30
0.0
 10
9.3610584162
 20
71.723780304
 30
0.0
 10
9.181719475
 20
71.0556197518
 30
0.0
 10
9.0714593662
 20
70.4023059556
 30
0.0
 10
9.0448197298
 20
69.9715444623
 30
0.0
 10
9.0448197298
 20
69.7621855954
 30
0.0
  0
SPLINE
  5
23C
100
AcDbEntity
  8
0
100
AcDbSpline
 62
7
  6
BYLAYER
 70
0
 71
3
 72
15
 73
11
 74
0
 42
0.0000001
 43
0.0000001
 44
0.0000000001
 40
0.0
 40
0.0
 40
0.0
 40
0.0
 40
0.1420130108
 40
0.2787112011
 40
0.4100009872
 40
0.5361392052
 40
0.6575733485
 40
0.7748681181
 40
0.8887437054
 40
1.0
 40
1.0
 40
1.0
 40
1.0
 10
9.0450607954
 20
69.7129495582
 30
0.0
 10
9.0461921163
 20
69.5977343861
 30
0.0
 10
9.0562863843
 20
69.3715913343
 30
0.0
 10
9.0965686463
 20
69.0410439006
 30
0.0
 10
9.1618613438
 20
68.7275865944
 30
0.0
 10
9.2520816728
 20
68.4332424305
 30
0.0
 10
9.36710236
 20
68.159879374
 30
0.0
 10
9.5066814208
 20
67.9094242105
 30
0.0
 10
9.6703178927
 20
67.6840763721
 30
0.0
 10
9.7960141053
 20
67.5506866132
 30
0.0
 10
9.8622364662
 20
67.4893461105
 30
0.0
  0
SPLINE
  5
23D
100
AcDbEntity
  8
0
100
AcDbSpline
 62
7
  6
BYLAYER
 70
0
 71
3
 72
24
 73
20
 74
0
 42
0.0000001
 43
0.0000001
 44
0.0000000001
 40
0.0
 40
0.0
 40
0.0
 40
0.0
 40
0.0610656377
 40
0.1258222302
 40
0.1936636339
 40
0.2638595524
 40
0.3355677186
 40
0.407889978
 40
0.4799026591
 40
0.5506945129
 40
0.6194024451
 40
0.6852500927
 40
0.7475902561
 40
0.8059536018
 40
0.8601064488
 40
0.9101187648
 40
0.9564363986
 40
0.9784978974
 40
1.0
 40
1.0
 40
1.0
 40
1.0
 10
9.1033989623
 20
69.6805367646
 30
0.0
 10
9.1033989623
 20
69.8890820965
 30
0.0
 10
9.1299294792
 20
70.3190413951
 30
0.0
 10
9.2396621227
 20
70.97227024
 30
0.0
 10
9.4185054189
 20
71.6423421209
 30
0.0
 10
9.6630100666
 20
72.3165224502
 30
0.0
 10
9.9685896624
 20
72.9821364705
 30
0.0
 10
10.3294392005
 20
73.6265759829
 30
0.0
 10
10.7387332483
 20
74.2376374291
 30
0.0
 10
11.1887204766
 20
74.8037504374
 30
0.0
 10
11.6709043712
 20
75.3142118176
 30
0.0
 10
12.1762213162
 20
75.7593943763
 30
0.0
 10
12.6952611477
 20
76.130918979
 30
0.0
 10
13.2184688831
 20
76.4217777209
 30
0.0
 10
13.7364748106
 20
76.6263342507
 30
0.0
 10
14.2399074583
 20
76.7403078927
 30
0.0
 10
14.6467744788
 20
76.7572117194
 30
0.0
 10
14.9520984093
 20
76.721007458
 30
0.0
 10
15.0973722992
 20
76.6871715455
 30
0.0
 10
15.1677904733
 20
76.6663504446
 30
0.0
  0
SPLINE
  5
23E
100
AcDbEntity
  8
0
100
AcDbSpline
 62
7
  6
BYLAYER
 70
0
 71
3
 72
14
 73
10
 74
0
 42
0.0000001
 43
0.0000001
 44
0.0000000001
 40
0.0
 40
0.0
 40
0.0
 40
0.0
 40
0.1082119911
 40
0.2196497442
 40
0.3353881412
 40
0.4562671591
 40
0.7154059309
 40
0.8545825455
 40
1.0
 40
1.0
 40
1.0
 40
1.0
 10
9.9199940708
 20
67.4411176196
 30
0.0
 10
9.854932388
 20
67.4984763589
 30
0.0
 10
9.7309361711
 20
67.6243702873
 30
0.0
 10
9.5688716935
 20
67.8397193612
 30
0.0
 10
9.4296025153
 20
68.0822369205
 30
0.0
 10
9.2718468775
 20
68.4476983715
 30
0.0
 10
9.1686786959
 20
68.8539701657
 30
0.0
 10
9.1150855398
 20
69.2867040891
 30
0.0
 10
9.104783815
 20
69.5148773569
 30
0.0
 10
9.1036393744
 20
69.6314286558
 30
0.0
  0
SPLINE
  5
23F
100
AcDbEntity
  8
0
100
AcDbSpline
 62
7
  6
BYLAYER
 70
0
 71
3
 72
11
 73
7
 74
0
 42
0.0000001
 43
0.0000001
 44
0.0000000001
 40
0.0
 40
0.0
 40
0.0
 40
0.0
 40
0.2443899148
 40
0.4910867227
 40
0.7422893005
 40
1.0
 40
1.0
 40
1.0
 40
1.0
 10
45.3078939591
 20
36.9808027992
 30
0.0
 10
45.4692224962
 20
36.8876544764
 30
0.0
 10
45.8050010378
 20
36.719813855
 30
0.0
 10
46.338740786
 20
36.5282703355
 30
0.0
 10
46.9008493731
 20
36.3972703932
 30
0.0
 10
47.2869249075
 20
36.3513584361
 30
0.0
 10
47.4829254197
 20
36.3381855081
 30
0.0
  0
SPLINE
  5
240
100
AcDbEntity
  8
0
100
AcDbSpline
 62
7
  6
BYLAYER
 70
0
 71
3
 72
9
 73
5
 74
0
 42
0.0000001
 43
0.0000001
 44
0.0000000001
 40
0.0
 40
0.0
 40
0.0
 40
0.0
 40
0.4947211145
 40
1.0
 40
1.0
 40
1.0
 40
1.0
 10
44.6007862535
 20
37.3890470393
 30
0.0
 10
44.3561716358
 20
37.5302829005
 30
0.0
 10
43.8868753761
 20
37.8616536355
 30
0.0
 10
43.4843787487
 20
38.2710774568
 30
0.0
 10
43.2996636788
 20
38.4926759022
 30
0.0
  0
SPLINE
  5
241
100
AcDbEntity
  8
0
100
AcDbSpline
 62
7
  6
BYLAYER
 70
0
 71
3
 72
14
 73
10
 74
0
 42
0.0000001
 43
0.0000001
 44
0.0000000001
 40
0.0
 40
0.0
 40
0.0
 40
0.0
 40
0.108943088
 40
0.2215641981
 40
0.3385099209
 40
0.4602642865
 40
0.7192304519
 40
0.8569573151
 40
1.0
 40
1.0
 40
1.0
 40
1.0
 10
43.2996636788
 20
38.4926759022
 30
0.0
 10
43.1683191866
 20
38.6502468863
 30
0.0
 10
42.9197313765
 20
38.9865798239
 30
0.0
 10
42.5979091175
 20
39.5380211518
 30
0.0
 10
42.323171894
 20
40.1409794053
 30
0.0
 10
42.0151194495
 20
41.0271191525
 30
0.0
 10
41.8164361808
 20
41.9879136236
 30
0.0
 10
41.7174141627
 20
42.9997771009
 30
0.0
 10
41.7012082222
 20
43.5287017043
 30
0.0
 10
41.7012082222
 20
43.7980435236
 30
0.0
  0
SPLINE
  5
242
100
AcDbEntity
  8
0
100
AcDbSpline
 62
7
  6
BYLAYER
 70
0
 71
3
 72
15
 73
11
 74
0
 42
0.0000001
 43
0.0000001
 44
0.0000000001
 40
0.0
 40
0.0
 40
0.0
 40
0.0
 40
0.109362005
 40
0.2205508056
 40
0.3352551857
 40
0.4549110474
 40
0.580628782
 40
0.7131538356
 40
0.8529351523
 40
1.0
 40
1.0
 40
1.0
 40
1.0
 10
67.3265531702
 20
55.8494845475
 30
0.0
 10
67.5514564416
 20
55.7196395207
 30
0.0
 10
67.9834546873
 20
55.4183281277
 30
0.0
 10
68.5536126531
 20
54.857880472
 30
0.0
 10
69.0426025601
 20
54.1949364638
 30
0.0
 10
69.4460710096
 20
53.4379689489
 30
0.0
 10
69.7614350483
 20
52.5953710668
 30
0.0
 10
69.987075374
 20
51.6755274196
 30
0.0
 10
70.1217986969
 20
50.6872402043
 30
0.0
 10
70.1500818844
 20
50.0056154604
 30
0.0
 10
70.1500818844
 20
49.6563906434
 30
0.0
  0
SPLINE
  5
243
100
AcDbEntity
  8
0
100
AcDbSpline
 62
7
  6
BYLAYER
 70
0
 71
3
 72
29
 73
25
 74
0
 42
0.0000001
 43
0.0000001
 44
0.0000000001
 40
0.0
 40
0.0
 40
0.0
 40
0.0
 40
0.0623736497
 40
0.1286997032
 40
0.1982807332
 40
0.2702443702
 40
0.343608727
 40
0.4173272813
 40
0.4903386147
 40
0.5616124642
 40
0.6301977677
 40
0.6952741455
 40
0.7263041327
 40
0.7562408174
 40
0.785046408
 40
0.8127056512
 40
0.8392263591
 40
0.8646451625
 40
0.8890275592
 40
0.9124730055
 40
0.9351136268
 40
0.9571151015
 40
0.978671747
 40
1.0
 40
1.0
 40
1.0
 40
1.0
 10
41.7012082222
 20
43.7980435236
 30
0.0
 10
41.7012082222
 20
44.3788609936
 30
0.0
 10
41.7798861031
 20
45.5781013546
 30
0.0
 10
42.1036825551
 20
47.3989852244
 30
0.0
 10
42.6300671652
 20
49.2647983184
 30
0.0
 10
43.3478395416
 20
51.1356506688
 30
0.0
 10
44.2416811545
 20
52.9718785932
 30
0.0
 10
45.2925492402
 20
54.7343061913
 30
0.0
 10
46.4780070673
 20
56.3853332843
 30
0.0
 10
47.7728526531
 20
57.8898193571
 30
0.0
 10
49.1494508665
 20
59.2156240396
 30
0.0
 10
50.3596400527
 20
60.1631293515
 30
0.0
 10
51.3443408148
 20
60.8029810642
 30
0.0
 10
52.0727399053
 20
61.2143680577
 30
0.0
 10
52.7987685695
 20
61.5625638465
 30
0.0
 10
53.5185581854
 20
61.8457353509
 30
0.0
 10
54.228326569
 20
62.0622135623
 30
0.0
 10
54.9242799407
 20
62.2108525794
 30
0.0
 10
55.6027479655
 20
62.2906076314
 30
0.0
 10
56.2600749153
 20
62.3009960452
 30
0.0
 10
56.8926667468
 20
62.2416505506
 30
0.0
 10
57.4970092765
 20
62.1127659392
 30
0.0
 10
58.0694804899
 20
61.9148686354
 30
0.0
 10
58.4285415216
 20
61.7371836233
 30
0.0
 10
58.6005376329
 20
61.6378763164
 30
0.0
  0
SPLINE
  5
244
100
AcDbEntity
  8
0
100
AcDbSpline
 62
7
  6
BYLAYER
 70
0
 71
3
 72
27
 73
23
 74
0
 42
0.0000001
 43
0.0000001
 44
0.0000000001
 40
0.0
 40
0.0
 40
0.0
 40
0.0
 40
0.0624952353
 40
0.1287856594
 40
0.1982037172
 40
0.2699046127
 40
0.3429315607
 40
0.4162636887
 40
0.4888662431
 40
0.5597385068
 40
0.6279636613
 40
0.6927624398
 40
0.7535532732
 40
0.7823524194
 40
0.8100587295
 40
0.862234007
 40
0.8868634136
 40
0.9106278678
 40
0.9336568559
 40
0.9561062164
 40
0.9781556477
 40
1.0
 40
1.0
 40
1.0
 40
1.0
 10
70.1498479156
 20
49.5794782418
 30
0.0
 10
70.1464850434
 20
49.025792386
 30
0.0
 10
70.0654800288
 20
47.8844863611
 30
0.0
 10
69.7497019607
 20
46.1541243853
 30
0.0
 10
69.2429652462
 20
44.3848605136
 30
0.0
 10
68.5560820209
 20
42.6136380491
 30
0.0
 10
67.703589365
 20
40.8773100563
 30
0.0
 10
66.7034366705
 20
39.2123470925
 30
0.0
 10
65.5766379469
 20
37.6537479438
 30
0.0
 10
64.3467573296
 20
36.2342701232
 30
0.0
 10
63.03918574
 20
34.9836006446
 30
0.0
 10
61.6807393722
 20
33.9279979285
 30
0.0
 10
60.5078603561
 20
33.216604578
 30
0.0
 10
59.5682988919
 20
32.7704836424
 30
0.0
 10
58.670369451
 20
32.4213909511
 30
0.0
 10
57.769154287
 20
32.186127184
 30
0.0
 10
56.8826223363
 20
32.0852790786
 30
0.0
 10
56.2486831274
 20
32.0774638133
 30
0.0
 10
55.6367892281
 20
32.1367260664
 30
0.0
 10
55.0505450912
 20
32.2631522176
 30
0.0
 10
54.4939595713
 20
32.4565283824
 30
0.0
 10
54.1443884705
 20
32.6297087013
 30
0.0
 10
53.97677968
 20
32.7264754924
 30
0.0
  0
SPLINE
  5
245
100
AcDbEntity
  8
0
100
AcDbSpline
 62
7
  6
BYLAYER
 70
0
 71
3
 72
11
 73
7
 74
0
 42
0.0000001
 43
0.0000001
 44
0.0000000001
 40
0.0
 40
0.0
 40
0.0
 40
0.0
 40
0.2577540747
 40
0.508964809
 40
0.7556424249
 40
1.0
 40
1.0
 40
1.0
 40
1.0
 10
60.9558782915
 20
59.6611343097
 30
0.0
 10
60.8463131828
 20
59.8249960634
 30
0.0
 10
60.6130821487
 20
60.1377087767
 30
0.0
 10
60.217638294
 20
60.560750739
 30
0.0
 10
59.7836971917
 20
60.9286338443
 30
0.0
 10
59.4694831972
 20
61.1361989832
 30
0.0
 10
59.3076493776
 20
61.2296390474
 30
0.0
  0
SPLINE
  5
246
100
AcDbEntity
  8
0
100
AcDbSpline
 62
7
  6
BYLAYER
 70
0
 71
3
 72
29
 73
25
 74
0
 42
0.0000001
 43
0.0000001
 44
0.0000000001
 40
0.0
 40
0.0
 40
0.0
 40
0.0
 40
0.0623736049
 40
0.1286994921
 40
0.1982804702
 40
0.2702442733
 40
0.3436085564
 40
0.4173271102
 40
0.4903385366
 40
0.5616124512
 40
0.630197616
 40
0.6952738252
 40
0.7263037599
 40
0.7562404121
 40
0.78504599
 40
0.8127052341
 40
0.8392259424
 40
0.8646447629
 40
0.8890272124
 40
0.9124727359
 40
0.9351134374
 40
0.9571149885
 40
0.9786716939
 40
1.0
 40
1.0
 40
1.0
 40
1.0
 10
43.3275567629
 20
43.3898049787
 30
0.0
 10
43.3275567629
 20
43.9436556687
 30
0.0
 10
43.4025815077
 20
45.0872154257
 30
0.0
 10
43.7113434814
 20
46.8235565297
 30
0.0
 10
44.2132882586
 20
48.6027427416
 30
0.0
 10
44.8977346343
 20
50.3867353453
 30
0.0
 10
45.7500767421
 20
52.1377111635
 30
0.0
 10
46.7521541414
 20
53.8183127674
 30
0.0
 10
47.8825736293
 20
55.392686834
 30
0.0
 10
49.1173015766
 20
56.82732247
 30
0.0
 10
50.4299846938
 20
58.091571164
 30
0.0
 10
51.5839839242
 20
58.9950838806
 30
0.0
 10
52.5229643977
 20
59.6052277105
 30
0.0
 10
53.2175440211
 20
59.9975149106
 30
0.0
 10
53.9098638102
 20
60.3295448432
 30
0.0
 10
54.5962343833
 20
60.5995699378
 30
0.0
 10
55.2730493402
 20
60.8059982103
 30
0.0
 10
55.9366912173
 20
60.9477370692
 30
0.0
 10
56.5836603284
 20
61.0237899214
 30
0.0
 10
57.2104705696
 20
61.0336970056
 30
0.0
 10
57.8136942631
 20
60.9771065198
 30
0.0
 10
58.3899802957
 20
60.8542063103
 30
0.0
 10
58.9358738858
 20
60.6654955435
 30
0.0
 10
59.2782654679
 20
60.4960602222
 30
0.0
 10
59.4422763767
 20
60.4013631441
 30
0.0
  0
SPLINE
  5
247
100
AcDbEntity
  8
0
100
AcDbSpline
 62
7
  6
BYLAYER
 70
0
 71
3
 72
15
 73
11
 74
0
 42
0.0000001
 43
0.0000001
 44
0.0000000001
 40
0.0
 40
0.0
 40
0.0
 40
0.0
 40
0.1485854561
 40
0.2895077838
 40
0.4227225767
 40
0.5486420259
 40
0.6680012364
 40
0.7819387143
 40
0.8919876489
 40
1.0
 40
1.0
 40
1.0
 40
1.0
 10
51.2118301983
 20
38.8379205658
 30
0.0
 10
51.2118301983
 20
38.4902414115
 30
0.0
 10
51.2398669669
 20
37.8123475492
 30
0.0
 10
51.3732960406
 20
36.8306767855
 30
0.0
 10
51.5962120621
 20
35.9195159972
 30
0.0
 10
51.9068337144
 20
35.0876976869
 30
0.0
 10
52.3028018213
 20
34.3432346276
 30
0.0
 10
52.781019162
 20
33.6937307127
 30
0.0
 10
53.3370680503
 20
33.1464931181
 30
0.0
 10
53.7579056467
 20
32.8528566288
 30
0.0
 10
53.9767867487
 20
32.7264877361
 30
0.0
  0
LINE
  5
248
100
AcDbEntity
  8
0
100
AcDbLine
 62
7
  6
BYLAYER
 10
70.0915038256
 20
49.5747424902
 11
70.0912735455
 21
49.4990447883
  0
SPLINE
  5
249
100
AcDbEntity
  8
0
100
AcDbSpline
 62
7
  6
BYLAYER
 70
0
 71
3
 72
15
 73
11
 74
0
 42
0.0000001
 43
0.0000001
 44
0.0000000001
 40
0.0
 40
0.0
 40
0.0
 40
0.0
 40
0.1080124436
 40
0.2180616015
 40
0.3319987829
 40
0.4513572265
 40
0.5772782235
 40
0.7104932664
 40
0.8514103637
 40
1.0
 40
1.0
 40
1.0
 40
1.0
 10
46.0925096027
 20
37.2783657217
 30
0.0
 10
45.8736322848
 20
37.4047417208
 30
0.0
 10
45.452786753
 20
37.6983680356
 30
0.0
 10
44.8967547615
 20
38.2456242328
 30
0.0
 10
44.4185264323
 20
38.8951154593
 30
0.0
 10
44.0225502844
 20
39.6395776406
 30
0.0
 10
43.7119450132
 20
40.4714048148
 30
0.0
 10
43.4890251931
 20
41.3825556629
 30
0.0
 10
43.3555862257
 20
42.3642239568
 30
0.0
 10
43.3275567629
 20
43.0421159609
 30
0.0
 10
43.3275567629
 20
43.3898049787
 30
0.0
  0
SPLINE
  5
24A
100
AcDbEntity
  8
0
100
AcDbSpline
 62
7
  6
BYLAYER
 70
0
 71
3
 72
23
 73
19
 74
0
 42
0.0000001
 43
0.0000001
 44
0.0000000001
 40
0.0
 40
0.0
 40
0.0
 40
0.0
 40
0.075906048
 40
0.1483104024
 40
0.2171581682
 40
0.2825860341
 40
0.3448488392
 40
0.4043372492
 40
0.4615995662
 40
0.5173214725
 40
0.5722938605
 40
0.6273646185
 40
0.6833742537
 40
0.7410938214
 40
0.8011778055
 40
0.8641397899
 40
0.9303410087
 40
1.0
 40
1.0
 40
1.0
 40
1.0
 10
51.4946729147
 20
38.8379212479
 30
0.0
 10
51.4946729147
 20
38.5287594296
 30
0.0
 10
51.5172645451
 20
37.9243697649
 30
0.0
 10
51.6240799258
 20
37.0452680346
 30
0.0
 10
51.8025616612
 20
36.2212433824
 30
0.0
 10
52.0514984267
 20
35.4588239503
 30
0.0
 10
52.3692014309
 20
34.7638273702
 30
0.0
 10
52.7537028663
 20
34.1418995728
 30
0.0
 10
53.2022812147
 20
33.5982727306
 30
0.0
 10
53.7115687931
 20
33.137745182
 30
0.0
 10
54.2774618736
 20
32.7646519445
 30
0.0
 10
54.8949421429
 20
32.4823086944
 30
0.0
 10
55.5585173037
 20
32.2931004546
 30
0.0
 10
56.2623686421
 20
32.1982713563
 30
0.0
 10
57.0006232928
 20
32.198033064
 30
0.0
 10
57.7674323434
 20
32.2920077941
 30
0.0
 10
58.5568224973
 20
32.4789658525
 30
0.0
 10
59.0807976332
 20
32.659864043
 30
0.0
 10
59.3446543306
 20
32.7641495122
 30
0.0
  0
SPLINE
  5
24B
100
AcDbEntity
  8
0
100
AcDbSpline
 62
7
  6
BYLAYER
 70
0
 71
3
 72
9
 73
5
 74
0
 42
0.0000001
 43
0.0000001
 44
0.0000000001
 40
0.0
 40
0.0
 40
0.0
 40
0.0
 40
0.4845901931
 40
1.0
 40
1.0
 40
1.0
 40
1.0
 10
59.6236630186
 20
32.8794223294
 30
0.0
 10
60.0147865253
 20
33.0479908137
 30
0.0
 10
60.8005651157
 20
33.4466005722
 30
0.0
 10
61.5390444981
 20
33.926060041
 30
0.0
 10
61.9072387351
 20
34.1899399122
 30
0.0
  0
SPLINE
  5
24C
100
AcDbEntity
  8
0
100
AcDbSpline
 62
7
  6
BYLAYER
 70
0
 71
3
 72
17
 73
13
 74
0
 42
0.0000001
 43
0.0000001
 44
0.0000000001
 40
0.0
 40
0.0
 40
0.0
 40
0.0
 40
0.1202403474
 40
0.24675873
 40
0.3772456447
 40
0.5091361135
 40
0.6397780686
 40
0.7665981038
 40
0.827855883
 40
0.8873157546
 40
0.9447698139
 40
1.0
 40
1.0
 40
1.0
 40
1.0
 10
62.37483854
 20
34.539045471
 30
0.0
 10
62.9236057109
 20
34.9652771054
 30
0.0
 10
63.9927147111
 20
35.9151696239
 30
0.0
 10
65.4510041976
 20
37.5409639017
 30
0.0
 10
66.7714669636
 20
39.364395568
 30
0.0
 10
67.9146828757
 20
41.3312807429
 30
0.0
 10
68.8468199529
 20
43.3832280307
 30
0.0
 10
69.4315849192
 20
45.1339945735
 30
0.0
 10
69.7671894929
 20
46.525273276
 30
0.0
 10
69.9483824415
 20
47.5395331668
 30
0.0
 10
70.0605036084
 20
48.5286676345
 30
0.0
 10
70.0893350834
 20
49.1798833843
 30
0.0
 10
70.0912735455
 20
49.4990447883
 30
0.0
  0
SPLINE
  5
24D
100
AcDbEntity
  8
0
100
AcDbSpline
 62
7
  6
BYLAYER
 70
0
 71
3
 72
41
 73
37
 74
0
 42
0.0000001
 43
0.0000001
 44
0.0000000001
 40
0.0
 40
0.0
 40
0.0
 40
0.0
 40
0.0309891184
 40
0.0603838805
 40
0.0881745934
 40
0.1014985843
 40
0.114459084
 40
0.1393640753
 40
0.1631377493
 40
0.1860975915
 40
0.2086271968
 40
0.2311489913
 40
0.2540862016
 40
0.2778245991
 40
0.3026837751
 40
0.3156184812
 40
0.3289157979
 40
0.3566515868
 40
0.3859821177
 40
0.4169178507
 40
0.4494109892
 40
0.4833640255
 40
0.5186393975
 40
0.5550666893
 40
0.5924484209
 40
0.630566934
 40
0.6691896492
 40
0.708073594
 40
0.7469710533
 40
0.7856339359
 40
0.8238182443
 40
0.8612908348
 40
0.8978313242
 40
0.9332382535
 40
0.9673476909
 40
1.0
 40
1.0
 40
1.0
 40
1.0
 10
70.0915038256
 20
49.5747424902
 30
0.0
 10
70.0915038256
 20
49.9164604741
 30
0.0
 10
70.06400233
 20
50.5827869685
 30
0.0
 10
69.9331711667
 20
51.5477190382
 30
0.0
 10
69.7484451398
 20
52.3047990426
 30
0.0
 10
69.5559653468
 20
52.8695333654
 30
0.0
 10
69.3410346654
 20
53.3917945651
 30
0.0
 10
69.0216014781
 20
53.994363694
 30
0.0
 10
68.5526630556
 20
54.6338022915
 30
0.0
 10
68.0071295474
 20
55.1732110886
 30
0.0
 10
67.3903983259
 20
55.6062507864
 30
0.0
 10
66.7091966347
 20
55.9279256708
 30
0.0
 10
65.971186567
 20
56.1348451921
 30
0.0
 10
65.184555418
 20
56.2254323815
 30
0.0
 10
64.5040489099
 20
56.2042308041
 30
0.0
 10
63.9450253043
 20
56.1319570727
 30
0.0
 10
63.3603727243
 20
56.0190504018
 30
0.0
 10
62.6130491022
 20
55.8038938428
 30
0.0
 10
61.7123512792
 20
55.4386780623
 30
0.0
 10
60.8034742184
 20
54.9664546489
 30
0.0
 10
59.8949701937
 20
54.3917920175
 30
0.0
 10
58.9952776524
 20
53.7202013793
 30
0.0
 10
58.1128578587
 20
52.9580665638
 30
0.0
 10
57.2560666597
 20
52.1125955635
 30
0.0
 10
56.433007365
 20
51.1918402055
 30
0.0
 10
55.6514856006
 20
50.2045637625
 30
0.0
 10
54.9189598784
 20
49.1601416227
 30
0.0
 10
54.2423990288
 20
48.0685240314
 30
0.0
 10
53.6282273596
 20
46.9401212876
 30
0.0
 10
53.0823169302
 20
45.785672898
 30
0.0
 10
52.6098681698
 20
44.6161673172
 30
0.0
 10
52.2153656812
 20
43.4427388134
 30
0.0
 10
51.9025693905
 20
42.2765654248
 30
0.0
 10
51.6744373912
 20
41.1285981744
 30
0.0
 10
51.5332561954
 20
40.009911871
 30
0.0
 10
51.4970900067
 20
39.2736703493
 30
0.0
 10
51.4949031947
 20
38.9136189498
 30
0.0
  0
LINE
  5
24E
100
AcDbEntity
  8
0
100
AcDbLine
 62
7
  6
BYLAYER
 10
51.4946729147
 20
38.8379212479
 11
51.4949031947
 21
38.9136189498
  0
SPLINE
  5
24F
100
AcDbEntity
  8
0
100
AcDbSpline
 62
7
  6
BYLAYER
 70
0
 71
3
 72
15
 73
11
 74
0
 42
0.0000001
 43
0.0000001
 44
0.0000000001
 40
0.0
 40
0.0
 40
0.0
 40
0.0
 40
0.1460961199
 40
0.28568805
 40
0.4186696085
 40
0.5452664678
 40
0.66590435
 40
0.7812431677
 40
0.8922156098
 40
1.0
 40
1.0
 40
1.0
 40
1.0
 10
42.4083179474
 20
43.3898027691
 30
0.0
 10
42.4083179474
 20
43.071674911
 30
0.0
 10
42.4308035503
 20
42.4492692624
 30
0.0
 10
42.5369516958
 20
41.5427598422
 30
0.0
 10
42.7143066478
 20
40.6905534176
 30
0.0
 10
42.9617369829
 20
39.8989401098
 30
0.0
 10
43.2776514765
 20
39.1735590572
 30
0.0
 10
43.6602428044
 20
38.5198229613
 30
0.0
 10
44.1068445462
 20
37.9429243994
 30
0.0
 10
44.4491162897
 20
37.6088873286
 30
0.0
 10
44.6286536452
 20
37.4577188825
 30
0.0
  0
SPLINE
  5
250
100
AcDbEntity
  8
0
100
AcDbSpline
 62
7
  6
BYLAYER
 70
0
 71
3
 72
27
 73
23
 74
0
 42
0.0000001
 43
0.0000001
 44
0.0000000001
 40
0.0
 40
0.0
 40
0.0
 40
0.0
 40
0.0213273112
 40
0.0428817413
 40
0.0648782349
 40
0.0875106951
 40
0.1109432716
 40
0.1353088356
 40
0.1607054749
 40
0.1872003379
 40
0.2435643052
 40
0.3044272909
 40
0.3694261294
 40
0.4379386958
 40
0.5091532327
 40
0.5821268222
 40
0.6558367894
 40
0.7292283146
 40
0.8012602168
 40
0.8709524778
 40
0.9374335099
 40
1.0
 40
1.0
 40
1.0
 40
1.0
 10
67.3265461015
 20
55.8494723039
 30
0.0
 10
67.1630232394
 20
55.9438806508
 30
0.0
 10
66.8217232162
 20
56.1129034812
 30
0.0
 10
66.2776044064
 20
56.3012859536
 30
0.0
 10
65.7032828876
 20
56.4243699475
 30
0.0
 10
65.1021367281
 20
56.4814287148
 30
0.0
 10
64.4775015129
 20
56.472509305
 30
0.0
 10
63.8327898709
 20
56.3977137117
 30
0.0
 10
63.1713952126
 20
56.2577249607
 30
0.0
 10
62.2532286772
 20
55.9794410506
 30
0.0
 10
61.0837995986
 20
55.4653655408
 30
0.0
 10
59.702618677
 20
54.6241963738
 30
0.0
 10
58.3426624673
 20
53.5641566681
 30
0.0
 10
57.0323470624
 20
52.3077186475
 30
0.0
 10
55.79897968
 20
50.8813179905
 30
0.0
 10
54.6686007857
 20
49.3151100331
 30
0.0
 10
53.6651371109
 20
47.6422735892
 30
0.0
 10
52.8098740595
 20
45.8982764845
 30
0.0
 10
52.1209357703
 20
44.1201146494
 30
0.0
 10
51.6129252024
 20
42.3452695459
 30
0.0
 10
51.2966074433
 20
40.6114760714
 30
0.0
 10
51.2154282488
 20
39.468685243
 30
0.0
 10
51.2120639807
 20
38.9147695636
 30
0.0
  0
SPLINE
  5
251
100
AcDbEntity
  8
0
100
AcDbSpline
 62
7
  6
BYLAYER
 70
0
 71
3
 72
26
 73
22
 74
0
 42
0.0000001
 43
0.0000001
 44
0.0000000001
 40
0.0
 40
0.0
 40
0.0
 40
0.0
 40
0.0213832828
 40
0.0432460786
 40
0.0657569531
 40
0.0890590624
 40
0.1132655806
 40
0.1384618026
 40
0.1919842556
 40
0.2498267806
 40
0.3118037196
 40
0.3774667991
 40
0.4461694874
 40
0.5171209575
 40
0.5894325629
 40
0.6621596125
 40
0.7343407917
 40
0.8050365477
 40
0.8733694617
 40
0.9385643496
 40
1.0
 40
1.0
 40
1.0
 40
1.0
 10
58.5787423167
 20
61.5707263804
 30
0.0
 10
58.3972693568
 20
61.6375057381
 30
0.0
 10
58.0217330131
 20
61.7504629654
 30
0.0
 10
57.4351089555
 20
61.8548609827
 30
0.0
 10
56.8232872571
 20
61.8955153396
 30
0.0
 10
56.1894950439
 20
61.8722146057
 30
0.0
 10
55.5368297308
 20
61.7853759148
 30
0.0
 10
54.6276589398
 20
61.5813713478
 30
0.0
 10
53.4605340205
 20
61.1620876149
 30
0.0
 10
52.0685972675
 20
60.4325042087
 30
0.0
 10
50.6828454971
 20
59.4812304479
 30
0.0
 10
49.3298873107
 20
58.3269794628
 30
0.0
 10
48.0356230996
 20
56.9921927701
 30
0.0
 10
46.8252177276
 20
55.5029086769
 30
0.0
 10
45.7223004232
 20
53.8882427033
 30
0.0
 10
44.7484713939
 20
52.1798248271
 30
0.0
 10
43.9228184106
 20
50.411128353
 30
0.0
 10
43.2615074775
 20
48.6168155548
 30
0.0
 10
42.7774938977
 20
46.8318235605
 30
0.0
 10
42.4802606915
 20
45.0912148768
 30
0.0
 10
42.4083179474
 20
43.9453678635
 30
0.0
 10
42.4083179474
 20
43.3898027691
 30
0.0
  0
SPLINE
  5
252
100
AcDbEntity
  8
0
100
AcDbSpline
 62
7
  6
BYLAYER
 70
0
 71
3
 72
15
 73
11
 74
0
 42
0.0000001
 43
0.0000001
 44
0.0000000001
 40
0.0
 40
0.0
 40
0.0
 40
0.0
 40
0.148541072
 40
0.2895046219
 40
0.4227341418
 40
0.548638914
 40
0.667996025
 40
0.7819381288
 40
0.8919876537
 40
1.0
 40
1.0
 40
1.0
 40
1.0
 10
13.876362405
 20
76.1921179527
 30
0.0
 10
14.0116419238
 20
76.270221153
 30
0.0
 10
14.2817979101
 20
76.4116017207
 30
0.0
 10
14.6938428504
 20
76.5803233004
 30
0.0
 10
15.0986142227
 20
76.6983035668
 30
0.0
 10
15.4921622347
 20
76.7643289835
 30
0.0
 10
15.8708782448
 20
76.7774766689
 30
0.0
 10
16.2311384535
 20
76.7373331931
 30
0.0
 10
16.5690770921
 20
76.6438638469
 30
0.0
 10
16.7779413937
 20
76.546076701
 30
0.0
 10
16.8763059019
 20
76.4892755574
 30
0.0
  0
SPLINE
  5
253
100
AcDbEntity
  8
0
100
AcDbSpline
 62
7
  6
BYLAYER
 70
0
 71
3
 72
15
 73
11
 74
0
 42
0.0000001
 43
0.0000001
 44
0.0000000001
 40
0.0
 40
0.0
 40
0.0
 40
0.0
 40
0.1485722693
 40
0.2895080351
 40
0.4227240497
 40
0.548637796
 40
0.6679997554
 40
0.781937722
 40
0.8919864347
 40
1.0
 40
1.0
 40
1.0
 40
1.0
 10
23.5637634621
 20
77.1312402099
 30
0.0
 10
23.8794824421
 20
77.3135195599
 30
0.0
 10
24.5098273185
 20
77.6434707994
 30
0.0
 10
25.4712848572
 20
78.0370432786
 30
0.0
 10
26.4156629182
 20
78.3123574478
 30
0.0
 10
27.3339504251
 20
78.4663545897
 30
0.0
 10
28.2176445019
 20
78.4971586162
 30
0.0
 10
29.0582440402
 20
78.4033859253
 30
0.0
 10
29.846764495
 20
78.1853242237
 30
0.0
 10
30.3341125613
 20
77.9571474891
 30
0.0
 10
30.5636446928
 20
77.8246305935
 30
0.0
  0
SPLINE
  5
254
100
AcDbEntity
  8
0
100
AcDbSpline
 62
7
  6
BYLAYER
 70
0
 71
3
 72
12
 73
8
 74
0
 42
0.0000001
 43
0.0000001
 44
0.0000000001
 40
0.0
 40
0.0
 40
0.0
 40
0.0
 40
0.2687946425
 40
0.5220700536
 40
0.7639294919
 40
0.882352203
 40
1.0
 40
1.0
 40
1.0
 40
1.0
 10
61.2300234507
 20
59.4655946466
 30
0.0
 10
61.1043757456
 20
59.8246554449
 30
0.0
 10
60.8114675919
 20
60.5066416242
 30
0.0
 10
60.2271359706
 20
61.4222083219
 30
0.0
 10
59.6312731617
 20
62.0617738348
 30
0.0
 10
59.1016323642
 20
62.4839031978
 30
0.0
 10
58.8204525081
 20
62.6655969883
 30
0.0
 10
58.6762618101
 20
62.7488523163
 30
0.0
  0
SPLINE
  5
255
100
AcDbEntity
  8
0
100
AcDbSpline
 62
7
  6
BYLAYER
 70
0
 71
3
 72
15
 73
11
 74
0
 42
0.0000001
 43
0.0000001
 44
0.0000000001
 40
0.0
 40
0.0
 40
0.0
 40
0.0
 40
0.1485789806
 40
0.2895073893
 40
0.4227221717
 40
0.5486389679
 40
0.6679996183
 40
0.7819377767
 40
0.8919867565
 40
1.0
 40
1.0
 40
1.0
 40
1.0
 10
28.6549513622
 20
75.008410419
 30
0.0
 10
28.9932370548
 20
75.2037185888
 30
0.0
 10
29.6685989495
 20
75.5572498605
 30
0.0
 10
30.6987371116
 20
75.9789120047
 30
0.0
 10
31.7105550128
 20
76.2738861985
 30
0.0
 10
32.6944340013
 20
76.4389101165
 30
0.0
 10
33.6412544435
 20
76.4718738419
 30
0.0
 10
34.5418989161
 20
76.371443728
 30
0.0
 10
35.3867381222
 20
76.1377847354
 30
0.0
 10
35.9088987879
 20
75.8933129107
 30
0.0
 10
36.154818737
 20
75.751319382
 30
0.0
  0
SPLINE
  5
256
100
AcDbEntity
  8
0
100
AcDbSpline
 62
7
  6
BYLAYER
 70
0
 71
3
 72
15
 73
11
 74
0
 42
0.0000001
 43
0.0000001
 44
0.0000000001
 40
0.0
 40
0.0
 40
0.0
 40
0.0
 40
0.1080126202
 40
0.2180618614
 40
0.3319991058
 40
0.4513570786
 40
0.5772776064
 40
0.7104996761
 40
0.8513939834
 40
1.0
 40
1.0
 40
1.0
 40
1.0
 10
21.1550839874
 20
49.770428942
 30
0.0
 10
20.9091585745
 20
49.9124256256
 30
0.0
 10
20.4362978444
 20
50.2423312057
 30
0.0
 10
19.8115603283
 20
50.8572294786
 30
0.0
 10
19.2742142992
 20
51.5869707957
 30
0.0
 10
18.829301607
 20
52.4234332797
 30
0.0
 10
18.4803131117
 20
53.3580769426
 30
0.0
 10
18.2298526562
 20
54.3817856169
 30
0.0
 10
18.0798642536
 20
55.4847648512
 30
0.0
 10
18.0484105322
 20
56.2464178004
 30
0.0
 10
18.0484077173
 20
56.6371179024
 30
0.0
  0
SPLINE
  5
257
100
AcDbEntity
  8
0
100
AcDbSpline
 62
7
  6
BYLAYER
 70
0
 71
3
 72
13
 73
9
 74
0
 42
0.0000001
 43
0.0000001
 44
0.0000000001
 40
0.0
 40
0.0
 40
0.0
 40
0.0
 40
0.1174107
 40
0.2356212326
 40
0.3554017595
 40
0.477475741
 40
0.7307861627
 40
1.0
 40
1.0
 40
1.0
 40
1.0
 10
43.6765270605
 20
36.7679618763
 30
0.0
 10
43.8230472602
 20
36.6833615002
 30
0.0
 10
44.1259557268
 20
36.5284443063
 30
0.0
 10
44.6038899572
 20
36.3421818141
 30
0.0
 10
45.1043838316
 20
36.2021665517
 30
0.0
 10
45.8077167865
 20
36.0764142317
 30
0.0
 10
46.7410057203
 20
36.0412618161
 30
0.0
 10
47.4912039393
 20
36.1369726106
 30
0.0
 10
47.871707481
 20
36.212570878
 30
0.0
  0
SPLINE
  5
258
100
AcDbEntity
  8
0
100
AcDbSpline
 62
7
  6
BYLAYER
 70
0
 71
3
 72
15
 73
11
 74
0
 42
0.0000001
 43
0.0000001
 44
0.0000000001
 40
0.0
 40
0.0
 40
0.0
 40
0.0
 40
0.108012928
 40
0.2180616121
 40
0.3319993318
 40
0.4513582438
 40
0.5772771934
 40
0.7105008758
 40
0.8513954444
 40
1.0
 40
1.0
 40
1.0
 40
1.0
 10
16.5638822314
 20
53.5757821466
 30
0.0
 10
16.3343451207
 20
53.7083019167
 30
0.0
 10
15.8930465569
 20
54.01626767
 30
0.0
 10
15.3099202808
 20
54.590126064
 30
0.0
 10
14.8083983437
 20
55.271228516
 30
0.0
 10
14.3931875719
 20
56.0519435337
 30
0.0
 10
14.0674058428
 20
56.9242569621
 30
0.0
 10
13.8336797644
 20
57.8797309151
 30
0.0
 10
13.6937027889
 20
58.9091769631
 30
0.0
 10
13.6643122304
 20
59.6200486884
 30
0.0
 10
13.6643097414
 20
59.9846983044
 30
0.0
  0
SPLINE
  5
259
100
AcDbEntity
  8
0
100
AcDbSpline
 62
7
  6
BYLAYER
 70
0
 71
3
 72
19
 73
15
 74
0
 42
0.0000001
 43
0.0000001
 44
0.0000000001
 40
0.0
 40
0.0
 40
0.0
 40
0.0
 40
0.0558514397
 40
0.1142052018
 40
0.1748224905
 40
0.2374069314
 40
0.3670165167
 40
0.5000000263
 40
0.6329834627
 40
0.7625926648
 40
0.8251754232
 40
0.8857904571
 40
0.9441598057
 40
1.0
 40
1.0
 40
1.0
 40
1.0
 10
13.6643124682
 20
60.229650749
 30
0.0
 10
13.6643082872
 20
60.6044290952
 30
0.0
 10
13.6976008688
 20
61.3710587251
 30
0.0
 10
13.8387774784
 20
62.5366350692
 30
0.0
 10
14.070998184
 20
63.7336073102
 30
0.0
 10
14.5040985208
 20
65.374872525
 30
0.0
 10
15.2594741713
 20
67.4281336865
 30
0.0
 10
16.4582198488
 20
69.8026190638
 30
0.0
 10
17.9151779375
 20
72.0280266849
 30
0.0
 10
19.3156547488
 20
73.7088226052
 30
0.0
 10
20.5204360449
 20
74.904534298
 30
0.0
 10
21.440968547
 20
75.7042116701
 30
0.0
 10
22.3798467408
 20
76.4092219847
 30
0.0
 10
23.0271257206
 20
76.8214137257
 30
0.0
 10
23.3516284236
 20
77.0087643303
 30
0.0
  0
SPLINE
  5
25A
100
AcDbEntity
  8
0
100
AcDbSpline
 62
7
  6
BYLAYER
 70
0
 71
3
 72
15
 73
11
 74
0
 42
0.0000001
 43
0.0000001
 44
0.0000000001
 40
0.0
 40
0.0
 40
0.0
 40
0.0
 40
0.114153018
 40
0.2373231035
 40
0.3669721324
 40
0.4999963895
 40
0.6330190068
 40
0.7626703126
 40
0.8858445048
 40
1.0
 40
1.0
 40
1.0
 40
1.0
 10
9.6337539654
 20
69.3334777815
 30
0.0
 10
9.6337500296
 20
69.635310864
 30
0.0
 10
9.6890253734
 20
70.2634060223
 30
0.0
 10
9.9094050347
 20
71.2109629207
 30
0.0
 10
10.2624522964
 20
72.1707721962
 30
0.0
 10
10.734973472
 20
73.1067361497
 30
0.0
 10
11.3092651957
 20
73.9839510961
 30
0.0
 10
11.963949971
 20
74.7696291824
 30
0.0
 10
12.6743735925
 20
75.4342912079
 30
0.0
 10
13.190691092
 20
75.7962268955
 30
0.0
 10
13.4520922715
 20
75.947146036
 30
0.0
  0
SPLINE
  5
25B
100
AcDbEntity
  8
0
100
AcDbSpline
 62
7
  6
BYLAYER
 70
0
 71
3
 72
14
 73
10
 74
0
 42
0.0000001
 43
0.0000001
 44
0.0000000001
 40
0.0
 40
0.0
 40
0.0
 40
0.0
 40
0.1080478745
 40
0.2181322202
 40
0.332106282
 40
0.4515034996
 40
0.5774623123
 40
0.7107296162
 40
1.0
 40
1.0
 40
1.0
 40
1.0
 10
10.8764189081
 20
66.0969313423
 30
0.0
 10
10.7780518761
 20
66.1537339433
 30
0.0
 10
10.5889068173
 20
66.285690277
 30
0.0
 10
10.3390152404
 20
66.5316467411
 30
0.0
 10
10.1240654755
 20
66.8235350554
 30
0.0
 10
9.9461330546
 20
67.1581198393
 30
0.0
 10
9.8064842882
 20
67.5319924906
 30
0.0
 10
9.6692810837
 20
68.0930757024
 30
0.0
 10
9.6337563905
 20
68.5394644056
 30
0.0
 10
9.6337523876
 20
68.843571466
 30
0.0
  0
SPLINE
  5
25C
100
AcDbEntity
  8
0
100
AcDbSpline
 62
7
  6
BYLAYER
 70
0
 71
3
 72
19
 73
15
 74
0
 42
0.0000001
 43
0.0000001
 44
0.0000000001
 40
0.0
 40
0.0
 40
0.0
 40
0.0
 40
0.0581298118
 40
0.1193709295
 40
0.1832732735
 40
0.2493790581
 40
0.3858353996
 40
0.5238857373
 40
0.6584041009
 40
0.7228831003
 40
0.7847835293
 40
0.843690283
 40
0.8993038753
 40
1.0
 40
1.0
 40
1.0
 40
1.0
 10
18.4018603476
 20
73.5793796053
 30
0.0
 10
18.2293042986
 20
73.4797549187
 30
0.0
 10
17.8855797557
 20
73.2563748672
 30
0.0
 10
17.391651697
 20
72.8670313388
 30
0.0
 10
16.911840043
 20
72.4192770718
 30
0.0
 10
16.2936124081
 20
71.745978112
 30
0.0
 10
15.6001518836
 20
70.8014539661
 30
0.0
 10
14.9286125259
 20
69.566240822
 30
0.0
 10
14.5192281876
 20
68.481153515
 30
0.0
 10
14.3011084491
 20
67.6130366202
 30
0.0
 10
14.1969873274
 20
66.9857926821
 30
0.0
 10
14.1514839019
 20
66.3816824573
 30
0.0
 10
14.1691809871
 20
65.6438479773
 30
0.0
 10
14.2696306048
 20
65.1096493739
 30
0.0
 10
14.3850392571
 20
64.7843617514
 30
0.0
  0
SPLINE
  5
25D
100
AcDbEntity
  8
0
100
AcDbSpline
 62
7
  6
BYLAYER
 70
0
 71
3
 72
21
 73
17
 74
0
 42
0.0000001
 43
0.0000001
 44
0.0000000001
 40
0.0
 40
0.0
 40
0.0
 40
0.0
 40
0.0562120148
 40
0.1150564284
 40
0.1762332059
 40
0.2394320353
 40
0.3042706925
 40
0.3703302752
 40
0.5042638134
 40
0.637597119
 40
0.7029196009
 40
0.7667479622
 40
0.828688065
 40
0.8883909951
 40
0.9455674251
 40
1.0
 40
1.0
 40
1.0
 40
1.0
 10
51.1763944353
 20
62.0059433533
 30
0.0
 10
50.8058315775
 20
61.7920000646
 30
0.0
 10
50.066905545
 20
61.3195480759
 30
0.0
 10
48.9970714521
 20
60.5081632682
 30
0.0
 10
47.9499646387
 20
59.585104227
 30
0.0
 10
46.9365426809
 20
58.5601800769
 30
0.0
 10
45.9671121564
 20
57.4438675749
 30
0.0
 10
44.7413735445
 20
55.8420652039
 30
0.0
 10
43.3836107874
 20
53.6912115498
 30
0.0
 10
42.2880404219
 20
51.4017489763
 30
0.0
 10
41.5942344277
 20
49.5268436167
 30
0.0
 10
41.1768228499
 20
48.1323155194
 30
0.0
 10
40.8632221994
 20
46.7546301228
 30
0.0
 10
40.6567241401
 20
45.4079014906
 30
0.0
 10
40.5594427744
 20
44.1061677575
 30
0.0
 10
40.5684154395
 20
43.2552727895
 30
0.0
 10
40.5928519864
 20
42.8416506959
 30
0.0
  0
SPLINE
  5
25E
100
AcDbEntity
  8
0
100
AcDbSpline
 62
7
  6
BYLAYER
 70
0
 71
3
 72
15
 73
11
 74
0
 42
0.0000001
 43
0.0000001
 44
0.0000000001
 40
0.0
 40
0.0
 40
0.0
 40
0.0
 40
0.1461132015
 40
0.2850952708
 40
0.4171421896
 40
0.5427202509
 40
0.6625927964
 40
0.7778230168
 40
0.8897655847
 40
1.0
 40
1.0
 40
1.0
 40
1.0
 10
40.5994949632
 20
42.7366082594
 30
0.0
 10
40.6223970132
 20
42.3969425566
 30
0.0
 10
40.6939625374
 20
41.7355653986
 30
0.0
 10
40.8865113953
 20
40.7814394496
 30
0.0
 10
41.1604459436
 20
39.8970556747
 30
0.0
 10
41.5139777477
 20
39.0894597612
 30
0.0
 10
41.9446848146
 20
38.3651225421
 30
0.0
 10
42.449774955
 20
37.7302225547
 30
0.0
 10
43.0251309974
 20
37.1904390751
 30
0.0
 10
43.4541007441
 20
36.8963902436
 30
0.0
 10
43.6765270605
 20
36.7679618763
 30
0.0
  0
SPLINE
  5
25F
100
AcDbEntity
  8
0
100
AcDbSpline
 62
7
  6
BYLAYER
 70
0
 71
3
 72
15
 73
11
 74
0
 42
0.0000001
 43
0.0000001
 44
0.0000000001
 40
0.0
 40
0.0
 40
0.0
 40
0.0
 40
0.1100911512
 40
0.2219141046
 40
0.3370700483
 40
0.4569258098
 40
0.5189940433
 40
0.5826105074
 40
0.7147616087
 40
1.0
 40
1.0
 40
1.0
 40
1.0
 10
58.6762618101
 20
62.7488523163
 30
0.0
 10
58.4520953728
 20
62.8782854249
 30
0.0
 10
57.9790286194
 20
63.1042005976
 30
0.0
 10
57.2173118895
 20
63.3331674994
 30
0.0
 10
56.4077457373
 20
63.4518091572
 30
0.0
 10
55.7071623308
 20
63.4583552092
 30
0.0
 10
55.131562177
 20
63.4104355604
 30
0.0
 10
54.5310975122
 20
63.3244557668
 30
0.0
 10
53.4274347738
 20
63.0685664111
 30
0.0
 10
52.5103947088
 20
62.6986863112
 30
0.0
 10
51.9098832688
 20
62.4000645859
 30
0.0
  0
SPLINE
  5
260
100
AcDbEntity
  8
0
100
AcDbSpline
 62
7
  6
BYLAYER
 70
0
 71
3
 72
20
 73
16
 74
0
 42
0.0000001
 43
0.0000001
 44
0.0000000001
 40
0.0
 40
0.0
 40
0.0
 40
0.0
 40
0.0558475332
 40
0.1141983896
 40
0.174812492
 40
0.2373931543
 40
0.3015994985
 40
0.3670543958
 40
0.5000301798
 40
0.6330058384
 40
0.7626085305
 40
0.8251884788
 40
0.8857987378
 40
0.9441613525
 40
1.0
 40
1.0
 40
1.0
 40
1.0
 10
18.0484077173
 20
56.6371179024
 30
0.0
 10
18.0484047611
 20
57.047454571
 30
0.0
 10
18.0848166088
 20
57.8868291643
 30
0.0
 10
18.2394101539
 20
59.1630169773
 30
0.0
 10
18.4936936339
 20
60.4735400884
 30
0.0
 10
18.8451675274
 20
61.8058111314
 30
0.0
 10
19.2905377049
 20
63.1472134117
 30
0.0
 10
20.0074956476
 20
64.9397927521
 30
0.0
 10
21.1075374525
 20
67.11865519
 30
0.0
 10
22.7026150697
 20
69.5550297069
 30
0.0
 10
24.2360229952
 20
71.3953811744
 30
0.0
 10
25.5551400775
 20
72.7045392944
 30
0.0
 10
26.5630078139
 20
73.5800751312
 30
0.0
 10
27.5909470927
 20
74.3519895471
 30
0.0
 10
28.2996453934
 20
74.8032756467
 30
0.0
 10
28.6549513622
 20
75.008410419
 30
0.0
  0
SPLINE
  5
261
100
AcDbEntity
  8
0
100
AcDbSpline
 62
7
  6
BYLAYER
 70
0
 71
3
 72
19
 73
15
 74
0
 42
0.0000001
 43
0.0000001
 44
0.0000000001
 40
0.0
 40
0.0
 40
0.0
 40
0.0
 40
0.0561571019
 40
0.1147107094
 40
0.1754242261
 40
0.2380109541
 40
0.3674032928
 40
0.4999955866
 40
0.6325877552
 40
0.7619810582
 40
0.8245665202
 40
0.8852762727
 40
0.9438421166
 40
1.0
 40
1.0
 40
1.0
 40
1.0
 10
13.6662124681
 20
60.2098200717
 30
0.0
 10
13.6725495039
 20
60.586431797
 30
0.0
 10
13.7173884082
 20
61.3554553807
 30
0.0
 10
13.8728344916
 20
62.5227012003
 30
0.0
 10
14.1164385137
 20
63.7188410061
 30
0.0
 10
14.5608512683
 20
65.3554205063
 30
0.0
 10
15.3231983125
 20
67.4003954394
 30
0.0
 10
16.5215139347
 20
69.765971762
 30
0.0
 10
17.9709641246
 20
71.9865669412
 30
0.0
 10
19.3607678923
 20
73.6692821952
 30
0.0
 10
20.5558361588
 20
74.8724488948
 30
0.0
 10
21.4699199795
 20
75.6815625404
 30
0.0
 10
22.403135394
 20
76.3998127029
 30
0.0
 10
23.0467695352
 20
76.8232219776
 30
0.0
 10
23.3697553213
 20
77.0170277588
 30
0.0
  0
SPLINE
  5
262
100
AcDbEntity
  8
0
100
AcDbSpline
 62
7
  6
BYLAYER
 70
0
 71
3
 72
15
 73
11
 74
0
 42
0.0000001
 43
0.0000001
 44
0.0000000001
 40
0.0
 40
0.0
 40
0.0
 40
0.0
 40
0.1166309941
 40
0.2403519203
 40
0.3690553281
 40
0.5003069554
 40
0.6315145088
 40
0.760092792
 40
0.8836012652
 40
1.0
 40
1.0
 40
1.0
 40
1.0
 10
9.6534774439
 20
69.3270450854
 30
0.0
 10
9.6778893956
 20
69.6323174793
 30
0.0
 10
9.7724541168
 20
70.2583581633
 30
0.0
 10
10.029436461
 20
71.1946474646
 30
0.0
 10
10.398915832
 20
72.1338748495
 30
0.0
 10
10.8700927086
 20
73.0484292987
 30
0.0
 10
11.4291730768
 20
73.9116658826
 30
0.0
 10
12.0599020954
 20
74.6983228152
 30
0.0
 10
12.7437085871
 20
75.3854924556
 30
0.0
 10
13.2393522068
 20
75.7776030142
 30
0.0
 10
13.4918010965
 20
75.9498922241
 30
0.0
  0
SPLINE
  5
263
100
AcDbEntity
  8
0
100
AcDbSpline
 62
7
  6
BYLAYER
 70
0
 71
3
 72
9
 73
5
 74
0
 42
0.0000001
 43
0.0000001
 44
0.0000000001
 40
0.0
 40
0.0
 40
0.0
 40
0.0
 40
0.4762750846
 40
1.0
 40
1.0
 40
1.0
 40
1.0
 10
19.8081307002
 20
74.1143378161
 30
0.0
 10
19.5718000391
 20
74.073764802
 30
0.0
 10
19.0845018935
 20
73.9332767506
 30
0.0
 10
18.6302120987
 20
73.7112177634
 30
0.0
 10
18.4018603476
 20
73.5793796053
 30
0.0
  0
SPLINE
  5
264
100
AcDbEntity
  8
0
100
AcDbSpline
 62
7
  6
BYLAYER
 70
0
 71
3
 72
15
 73
11
 74
0
 42
0.0000001
 43
0.0000001
 44
0.0000000001
 40
0.0
 40
0.0
 40
0.0
 40
0.0
 40
0.1178753274
 40
0.2417275345
 40
0.3697538752
 40
0.4999268271
 40
0.6301081235
 40
0.7581632472
 40
0.8820474036
 40
1.0
 40
1.0
 40
1.0
 40
1.0
 10
15.1234580919
 20
66.9284555677
 30
0.0
 10
15.1549186052
 20
67.1801971361
 30
0.0
 10
15.2508621406
 20
67.6928477755
 30
0.0
 10
15.478539118
 20
68.4566801474
 30
0.0
 10
15.7887010211
 20
69.2195511752
 30
0.0
 10
16.1737700378
 20
69.9627640062
 30
0.0
 10
16.6243692847
 20
70.6682491852
 30
0.0
 10
17.1295529991
 20
71.3187903596
 30
0.0
 10
17.6769009386
 20
71.8985818071
 30
0.0
 10
18.0727794745
 20
72.2384963584
 30
0.0
 10
18.2750555557
 20
72.3918990256
 30
0.0
  0
SPLINE
  5
265
100
AcDbEntity
  8
0
100
AcDbSpline
 62
7
  6
BYLAYER
 70
0
 71
3
 72
19
 73
15
 74
0
 42
0.0000001
 43
0.0000001
 44
0.0000000001
 40
0.0
 40
0.0
 40
0.0
 40
0.0
 40
0.0558396725
 40
0.1142080946
 40
0.1748225079
 40
0.2374050151
 40
0.367015688
 40
0.4999989011
 40
0.6329823903
 40
0.7625924154
 40
0.8251771335
 40
0.8857945996
 40
0.9441485119
 40
1.0
 40
1.0
 40
1.0
 40
1.0
 10
27.947841637
 20
74.6001487564
 30
0.0
 10
27.6162359559
 20
74.4086972699
 30
0.0
 10
26.9547899267
 20
73.9874862482
 30
0.0
 10
25.9953634943
 20
73.267045462
 30
0.0
 10
25.0546798804
 20
72.4498673265
 30
0.0
 10
23.8235090165
 20
71.2279724522
 30
0.0
 10
22.3923592632
 20
69.5103647102
 30
0.0
 10
20.9034873717
 20
67.2362202605
 30
0.0
 10
19.6784876479
 20
64.8097375279
 30
0.0
 10
18.9065687025
 20
62.7115090318
 30
0.0
 10
18.4639795555
 20
61.0342975686
 30
0.0
 10
18.2266752558
 20
59.8111091192
 30
0.0
 10
18.0824035426
 20
58.620006296
 30
0.0
 10
18.0483851489
 20
57.8365872865
 30
0.0
 10
18.0483879164
 20
57.453601577
 30
0.0
  0
ENDSEC
  0
SECTION
  2
OBJECTS
  0
DICTIONARY
  5
C
100
AcDbDictionary
280
0
281
1
  3
ACAD_GROUP
350
D
  3
ACAD_MLINESTYLE
350
17
  3
ACAD_LAYOUT
350
1A
  3
ACAD_PLOTSETTINGS
350
19
  3
ACAD_PLOTSTYLENAME
350
E
  0
DICTIONARY
  5
D
102
{ACAD_REACTORS
330
C
102
}
100
AcDbDictionary
280
0
281
1
  0
ACDBDICTIONARYWDFLT
  5
E
102
{ACAD_REACTORS
330
C
102
}
100
AcDbDictionary
281
1
  3
Normal
350
F
100
AcDbDictionaryWithDefault
340
F
  0
DICTIONARY
  5
17
102
{ACAD_REACTORS
330
C
102
}
100
AcDbDictionary
280
0
281
1
  3
Standard
350
18
  0
DICTIONARY
  5
19
102
{ACAD_REACTORS
330
C
102
}
100
AcDbDictionary
281
1
  0
DICTIONARY
  5
1A
102
{ACAD_REACTORS
330
C
102
}
100
AcDbDictionary
281
1
  3
Model
350
266
  3
Layout1
350
267
  0
ACDBPLACEHOLDER
  5
F
102
{ACAD_REACTORS
330
E
102
}
  0
MLINESTYLE
  5
18
102
{ACAD_REACTORS
330
17
102
}
100
AcDbMlineStyle
  2
STANDARD
 70
0
  3

 62
256
 51
90.0
 52
90.0
 71
2
 49
0.5
 62
256
  6
BYLAYER
 49
-0.5
 62
256
  6
BYLAYER
  0
LAYOUT
  5
266
102
{ACAD_REACTORS
330
1A
102
}
100
AcDbPlotSettings
  1

  2
none_device
  4

  6

 40
0.0
 41
0.0
 42
0.0
 43
0.0
 44
210.0
 45
297.0
 46
0.0
 47
0.0
 48
0.0
 49
0.0
140
0.0
141
0.0
142
1.0
143
1.0
 70
1024
 72
1
 73
0
 74
0
  7

 75
0
147
1.0
148
0.0
149
0.0
100
AcDbLayout
  1
Model
 70
0
 71
0
 10
0.0
 20
0.0
 11
210.0
 21
297.0
 12
0.0
 22
0.0
 32
0.0
 14
0.0
 24
0.0
 34
0.0
 15
0.0
 25
0.0
 35
0.0
146
0.0
 13
0.0
 23
0.0
 33
0.0
 16
1.0
 26
0.0
 36
0.0
 17
0.0
 27
1.0
 37
0.0
 76
0
330
210
345
0
346
0
  0
LAYOUT
  5
267
102
{ACAD_REACTORS
330
1A
102
}
100
AcDbPlotSettings
  1

  2
none_device
  4

  6

 40
0.0
 41
0.0
 42
0.0
 43
0.0
 44
210.0
 45
297.0
 46
0.0
 47
0.0
 48
0.0
 49
0.0
140
0.0
141
0.0
142
1.0
143
1.0
 70
0
 72
1
 73
0
 74
0
  7

 75
0
147
1.0
148
0.0
149
0.0
100
AcDbLayout
  1
Layout1
 70
0
 71
1
 10
0.0
 20
0.0
 11
210.0
 21
297.0
 12
0.0
 22
0.0
 32
0.0
 14
0.0
 24
0.0
 34
0.0
 15
0.0
 25
0.0
 35
0.0
146
0.0
 13
0.0
 23
0.0
 33
0.0
 16
1.0
 26
0.0
 36
0.0
 17
0.0
 27
1.0
 37
0.0
 76
0
330
211
345
0
346
0
  0
ENDSEC
  0
EOF
