999
DXF file: C:\Users\sesa63760\Dev\_Creo\CAD\MCADPD0004419_3D-CAD\drw0001_6.dxf
999
Pro/ENGINEER 2019471 by Parametric Technology Corporation
  0
SECTION
  2
HEADER
  9
$ACADVER
  1
AC1024
  9
$DWGCODEPAGE
  3
ANSI_1252
  9
$EXTMAX
 10
264.1891563335
 20
373.6389496717
 30
0.0
  9
$EXTMIN
 10
0.0
 20
0.0
 30
0.0
  9
$LIMMIN
 10
0.0
 20
0.0
  9
$LIMMAX
 10
264.1891563335
 20
373.6389496717
  9
$VIEWCTR
 10
132.0945781667
 20
186.8194748358
  9
$VIEWSIZE
 40
373.6389496717
  9
$CLAYER
  8
0
  9
$LTSCALE
 40
24.3557241267
  9
$CELTYPE
  6
BYLAYER
  9
$DIMSCALE
 40
1.0
  9
$DIMASZ
 40
3.145109004
  9
$DIMEXO
 40
1.0
  9
$DIMDLI
 40
16.8275912148
  9
$DIMEXE
 40
1.0
  9
$DIMCEN
 40
3.9854821298
  9
$DIMLFAC
 40
1.0
  9
$DIMBLK
  1
_FILLED
  9
$DIMALT
 70
0
  9
$DIMALTF
 40
0.0393700787
  9
$DIMTXT
 40
4.4031526056
  9
$DIMTOL
 70
1
  9
$DIMLIM
 70
0
  9
$DIMTFAC
 40
1.0
  9
$DIMTP
 40
0.01
  9
$DIMTM
 40
0.01
  9
$DIMGAP
 40
0.625
  9
$DIMDSEP
 70
46
  9
$AUNITS
 70
0
  9
$PDMODE
 70
3
  9
$PDSIZE
 40
0.3125
  9
$HANDSEED
  5
339
  9
$TILEMODE
 70
1
  9
$MEASUREMENT
 70
1
  9
$INSUNITS
 70
4
  0
ENDSEC
  0
SECTION
  2
CLASSES
  0
CLASS
  1
ACDBDICTIONARYWDFLT
  2
AcDbDictionaryWithDefault
  3
AutoCAD 2000
 90
0
 91
1
280
0
281
0
  0
CLASS
  1
ACDBPLACEHOLDER
  2
AcDbPlaceHolder
  3
AutoCAD 2000
 90
0
 91
1
280
0
281
0
  0
CLASS
  1
LAYOUT
  2
AcDbLayout
  3
AutoCAD 2000
 90
0
 91
0
280
0
281
0
  0
ENDSEC
  0
SECTION
  2
TABLES
  0
TABLE
  2
VPORT
  5
8
100
AcDbSymbolTable
 70
2
  0
VPORT
  5
1F4
100
AcDbSymbolTableRecord
100
AcDbViewportTableRecord
  2
*ACTIVE
 70
0
 10
0.0
 20
0.0
 11
1.0
 21
1.0
 12
132.0945781667
 22
186.8194748358
 13
0.0
 23
0.0
 14
1.0
 24
1.0
 15
0.0
 25
0.0
 16
0.0
 26
0.0
 36
1.0
 17
0.0
 27
0.0
 37
0.0
 40
373.6389496717
 41
0.7070707071
 42
50.0
 43
0.0
 44
0.0
 50
0.0
 51
0.0
 71
0
 72
100
 73
1
 74
1
 75
0
 76
0
 77
0
 78
0
  0
ENDTAB
  0
TABLE
  2
LTYPE
  5
5
100
AcDbSymbolTable
 70
6
  0
LTYPE
  5
14
100
AcDbSymbolTableRecord
100
AcDbLinetypeTableRecord
  2
BYBLOCK
 70
0
  3

 72
65
 73
0
 40
0.0
  0
LTYPE
  5
15
100
AcDbSymbolTableRecord
100
AcDbLinetypeTableRecord
  2
BYLAYER
 70
0
  3

 72
65
 73
0
 40
0.0
  0
LTYPE
  5
16
100
AcDbSymbolTableRecord
100
AcDbLinetypeTableRecord
  2
CONTINUOUS
 70
64
  3
Solid line
 72
65
 73
0
 40
0.0
  0
LTYPE
  5
1F5
100
AcDbSymbolTableRecord
100
AcDbLinetypeTableRecord
  2
CENTER
 70
64
  3
____ _ ____ _ ____ _ ____ _ ____ _ ____ _ ____
 72
65
 73
4
 40
0.6
 49
0.375
 74
0
 49
-0.075
 74
0
 49
0.075
 74
0
 49
-0.075
 74
0
  0
LTYPE
  5
1F6
100
AcDbSymbolTableRecord
100
AcDbLinetypeTableRecord
  2
HIDDEN
 70
64
  3
- - - - - - - - - - - - - - - - - - - -
 72
65
 73
2
 40
0.2
 49
0.1
 74
0
 49
-0.1
 74
0
  0
LTYPE
  5
1F7
100
AcDbSymbolTableRecord
100
AcDbLinetypeTableRecord
  2
PHANTOM
 70
64
  3
_____ _ _ _____ _ _ _____ _ _ _____
 72
65
 73
6
 40
0.8
 49
0.45
 74
0
 49
-0.05
 74
0
 49
0.1
 74
0
 49
-0.05
 74
0
 49
0.1
 74
0
 49
-0.05
 74
0
  0
LTYPE
  5
1F8
100
AcDbSymbolTableRecord
100
AcDbLinetypeTableRecord
  2
DOT
 70
64
  3
. . . . . . . . . . . . . . . . . . . .
 72
65
 73
2
 40
0.2
 49
0.1
 74
0
 49
-0.1
 74
0
  0
LTYPE
  5
1F9
100
AcDbSymbolTableRecord
100
AcDbLinetypeTableRecord
  2
DASHED
 70
64
  3
- - - - - - - - - - - - - - - - - - - -
 72
65
 73
2
 40
0.2
 49
0.1
 74
0
 49
-0.1
 74
0
  0
ENDTAB
  0
TABLE
  2
LAYER
  5
2
100
AcDbSymbolTable
 70
36
  0
LAYER
  5
10
100
AcDbSymbolTableRecord
100
AcDbLayerTableRecord
  2
0
 70
0
 62
7
  6
CONTINUOUS
370
-3
390
F
  0
LAYER
  5
1FA
100
AcDbSymbolTableRecord
100
AcDbLayerTableRecord
  2
DEFAULT_1
 70
0
 62
7
  6
CENTER
370
-3
390
F
  0
LAYER
  5
1FB
100
AcDbSymbolTableRecord
100
AcDbLayerTableRecord
  2
DEFAULT_2
 70
0
 62
7
  6
HIDDEN
370
-3
390
F
  0
LAYER
  5
1FC
100
AcDbSymbolTableRecord
100
AcDbLayerTableRecord
  2
DEFAULT_3
 70
0
 62
7
  6
PHANTOM
370
-3
390
F
  0
LAYER
  5
1FD
100
AcDbSymbolTableRecord
100
AcDbLayerTableRecord
  2
00_COMPONENTS
 70
0
 62
7
  6
CONTINUOUS
370
-3
390
F
  0
LAYER
  5
1FE
100
AcDbSymbolTableRecord
100
AcDbLayerTableRecord
  2
01_1_DEFAULT_DATUMS
 70
0
 62
7
  6
CONTINUOUS
370
-3
390
F
  0
LAYER
  5
1FF
100
AcDbSymbolTableRecord
100
AcDbLayerTableRecord
  2
01_PLANES
 70
0
 62
7
  6
CONTINUOUS
370
-3
390
F
  0
LAYER
  5
200
100
AcDbSymbolTableRecord
100
AcDbLayerTableRecord
  2
02_COORD_SYS
 70
0
 62
7
  6
CONTINUOUS
370
-3
390
F
  0
LAYER
  5
201
100
AcDbSymbolTableRecord
100
AcDbLayerTableRecord
  2
03_AXES
 70
0
 62
7
  6
CONTINUOUS
370
-3
390
F
  0
LAYER
  5
202
100
AcDbSymbolTableRecord
100
AcDbLayerTableRecord
  2
04_POINTS
 70
0
 62
7
  6
CONTINUOUS
370
-3
390
F
  0
LAYER
  5
203
100
AcDbSymbolTableRecord
100
AcDbLayerTableRecord
  2
05_CURVES
 70
0
 62
7
  6
CONTINUOUS
370
-3
390
F
  0
LAYER
  5
204
100
AcDbSymbolTableRecord
100
AcDbLayerTableRecord
  2
06_SURFS
 70
0
 62
7
  6
CONTINUOUS
370
-3
390
F
  0
LAYER
  5
205
100
AcDbSymbolTableRecord
100
AcDbLayerTableRecord
  2
07_COSMETICS
 70
0
 62
7
  6
CONTINUOUS
370
-3
390
F
  0
LAYER
  5
206
100
AcDbSymbolTableRecord
100
AcDbLayerTableRecord
  2
10_NOTES
 70
0
 62
7
  6
CONTINUOUS
370
-3
390
F
  0
LAYER
  5
207
100
AcDbSymbolTableRecord
100
AcDbLayerTableRecord
  2
11_NOTES_PUB
 70
0
 62
7
  6
CONTINUOUS
370
-3
390
F
  0
LAYER
  5
208
100
AcDbSymbolTableRecord
100
AcDbLayerTableRecord
  2
13_REF_GTOL
 70
0
 62
7
  6
CONTINUOUS
370
-3
390
F
  0
LAYER
  5
209
100
AcDbSymbolTableRecord
100
AcDbLayerTableRecord
  2
16_MISC
 70
0
 62
7
  6
CONTINUOUS
370
-3
390
F
  0
LAYER
  5
20A
100
AcDbSymbolTableRecord
100
AcDbLayerTableRecord
  2
17_NO_PRINT
 70
0
 62
7
  6
CONTINUOUS
370
-3
390
F
  0
LAYER
  5
20B
100
AcDbSymbolTableRecord
100
AcDbLayerTableRecord
  2
18_DATUM_CAMS_JOINTS
 70
0
 62
7
  6
CONTINUOUS
370
-3
390
F
  0
LAYER
  5
20C
100
AcDbSymbolTableRecord
100
AcDbLayerTableRecord
  2
19_DATUM_FUNCTIONAL
 70
0
 62
7
  6
CONTINUOUS
370
-3
390
F
  0
LAYER
  5
20D
100
AcDbSymbolTableRecord
100
AcDbLayerTableRecord
  2
20_DATUM_KINEMATIC_SCHEME
 70
0
 62
7
  6
CONTINUOUS
370
-3
390
F
  0
ENDTAB
  0
TABLE
  2
STYLE
  5
3
100
AcDbSymbolTable
 70
1
  0
STYLE
  5
11
100
AcDbSymbolTableRecord
100
AcDbTextStyleTableRecord
  2
STANDARD
 70
0
 40
0.0
 41
1.0
 50
0.0
 71
0
 42
0.2
  3
ARIAL.TTF
  4

  0
STYLE
  5
20E
100
AcDbSymbolTableRecord
100
AcDbTextStyleTableRecord
  2
TEXTSTYLE_1
 70
0
 40
0.0
 41
0.8
 50
0.0
 71
0
 42
0.2
  3
gdt
  4

  0
ENDTAB
  0
TABLE
  2
VIEW
  5
6
100
AcDbSymbolTable
 70
0
  0
ENDTAB
  0
TABLE
  2
UCS
  5
7
100
AcDbSymbolTable
 70
0
  0
ENDTAB
  0
TABLE
  2
APPID
  5
9
100
AcDbSymbolTable
 70
1
  0
APPID
  5
20F
100
AcDbSymbolTableRecord
100
AcDbRegAppTableRecord
  2
ACAD
 70
0
  0
ENDTAB
  0
TABLE
  2
BLOCK_RECORD
  5
1
100
AcDbSymbolTable
 70
0
  0
BLOCK_RECORD
  5
210
100
AcDbSymbolTableRecord
100
AcDbBlockTableRecord
  2
*Model_Space
  0
BLOCK_RECORD
  5
211
100
AcDbSymbolTableRecord
100
AcDbBlockTableRecord
  2
*Paper_Space
  0
BLOCK_RECORD
  5
212
100
AcDbSymbolTableRecord
100
AcDbBlockTableRecord
  2
_FILLED
  0
ENDTAB
  0
TABLE
  2
DIMSTYLE
  5
A
100
AcDbSymbolTable
 70
1
100
AcDbDimStyleTable
 71
0
  0
DIMSTYLE
105
213
100
AcDbSymbolTableRecord
100
AcDbDimStyleTableRecord
  2
STANDARD
 70
0
  3

  4

 40
1.0
 41
3.145109004
 42
1.0
 43
0.38
 44
1.0
 45
0.0
 46
0.0
 47
0.01
 48
0.01
140
4.4031526056
141
0.09
142
0.0
143
25.4
144
1.0
145
0.0
146
1.0
147
0.625
 71
1
 72
0
 73
0
 74
0
 75
0
 76
0
 77
1
 78
8
 79
2
170
0
171
1
172
0
173
0
174
0
175
0
176
0
177
0
178
0
270
2
179
2
271
2
272
2
273
2
274
2
275
0
280
0
281
0
282
0
283
1
284
8
285
0
286
0
287
3
288
0
340
11
278
46
341
212
342
212
343
212
344
212
  0
ENDTAB
  0
ENDSEC
  0
SECTION
  2
BLOCKS
  0
BLOCK
  5
20
100
AcDbEntity
  8
0
100
AcDbBlockBegin
  2
*Model_Space
 70
0
 10
0.0
 20
0.0
 30
0.0
  3
*Model_Space
  1

  0
ENDBLK
  5
21
100
AcDbEntity
  8
0
100
AcDbBlockEnd
  0
BLOCK
  5
1C
100
AcDbEntity
  8
0
100
AcDbBlockBegin
  2
*Paper_Space
 70
0
 10
0.0
 20
0.0
 30
0.0
  3
*Paper_Space
  1

  0
ENDBLK
  5
1D
100
AcDbEntity
  8
0
100
AcDbBlockEnd
  0
BLOCK
  5
214
100
AcDbEntity
  8
0
100
AcDbBlockBegin
  2
_FILLED
 70
64
 10
0.0
 20
0.0
  3
_FILLED
  1

  0
SOLID
  5
215
100
AcDbEntity
  8
0
  6
BYBLOCK
 62
0
100
AcDbTrace
 10
0.0
 20
0.0
 11
-1.0
 21
0.25
 12
-1.0
 22
-0.25
 13
-1.0
 23
-0.25
  0
ENDBLK
  5
216
100
AcDbEntity
  8
0
  6
BYBLOCK
 62
0
100
AcDbBlockEnd
  0
ENDSEC
  0
SECTION
  2
ENTITIES
  0
LINE
  5
217
100
AcDbEntity
  8
0
100
AcDbLine
 62
7
  6
BYLAYER
 10
67.8812302456
 20
72.4023798757
 11
223.3812302456
 21
72.4023798757
  0
LINE
  5
218
100
AcDbEntity
  8
0
100
AcDbLine
 62
7
  6
BYLAYER
 10
223.3812302456
 20
73.9023798757
 11
158.6312302456
 21
73.9023798757
  0
LINE
  5
219
100
AcDbEntity
  8
0
100
AcDbLine
 62
7
  6
BYLAYER
 10
146.1312302456
 20
73.9023798757
 11
67.8812302456
 21
73.9023798757
  0
LINE
  5
21A
100
AcDbEntity
  8
0
100
AcDbLine
 62
7
  6
BYLAYER
 10
29.8812302456
 20
210.1523798757
 11
29.8812302456
 21
214.0023798757
  0
LINE
  5
21B
100
AcDbEntity
  8
0
100
AcDbLine
 62
7
  6
BYLAYER
 10
223.3812302456
 20
74.8023798757
 11
227.8812302455
 21
74.8023798757
  0
LINE
  5
21C
100
AcDbEntity
  8
0
100
AcDbLine
 62
7
  6
BYLAYER
 10
67.8812302456
 20
74.9023798757
 11
146.1312302456
 21
74.9023798757
  0
LINE
  5
21D
100
AcDbEntity
  8
0
100
AcDbLine
 62
7
  6
BYLAYER
 10
158.6312302456
 20
74.9023798757
 11
223.3812302456
 21
74.9023798757
  0
LINE
  5
21E
100
AcDbEntity
  8
0
100
AcDbLine
 62
7
  6
BYLAYER
 10
67.8812302456
 20
76.4023798757
 11
223.3812302456
 21
76.4023798757
  0
LINE
  5
21F
100
AcDbEntity
  8
0
100
AcDbLine
 62
7
  6
BYLAYER
 10
228.8812302456
 20
76.8023800312
 11
221.0812302456
 21
76.8023798827
  0
LINE
  5
220
100
AcDbEntity
  8
0
100
AcDbLine
 62
7
  6
BYLAYER
 10
67.8812302456
 20
78.4023798757
 11
221.0812302456
 21
78.4023798757
  0
LINE
  5
221
100
AcDbEntity
  8
0
100
AcDbLine
 62
7
  6
BYLAYER
 10
67.8812302456
 20
80.4023798757
 11
221.0812302456
 21
80.4023798757
  0
LINE
  5
222
100
AcDbEntity
  8
0
100
AcDbLine
 62
7
  6
BYLAYER
 10
40.8812302456
 20
216.1023798757
 11
40.8812302456
 21
219.0023798757
  0
LINE
  5
223
100
AcDbEntity
  8
0
100
AcDbLine
 62
7
  6
BYLAYER
 10
42.7812302456
 20
219.0023798757
 11
42.7812302456
 21
214.0023798757
  0
LINE
  5
224
100
AcDbEntity
  8
0
100
AcDbLine
 62
7
  6
BYLAYER
 10
42.7812302456
 20
214.3971239874
 11
42.6892429474
 21
214.0538227172
  0
LINE
  5
225
100
AcDbEntity
  8
0
100
AcDbLine
 62
7
  6
BYLAYER
 10
42.8812302456
 20
218.6023798757
 11
42.8812302456
 21
214.0023798757
  0
LINE
  5
226
100
AcDbEntity
  8
0
100
AcDbLine
 62
7
  6
BYLAYER
 10
42.8812302456
 20
199.6523798757
 11
42.8812302456
 21
163.6023798757
  0
LINE
  5
227
100
AcDbEntity
  8
0
100
AcDbLine
 62
7
  6
BYLAYER
 10
44.8812302456
 20
216.1023798757
 11
44.8812302456
 21
214.0023798757
  0
LINE
  5
228
100
AcDbEntity
  8
0
100
AcDbLine
 62
7
  6
BYLAYER
 10
46.8812302456
 20
219.0023798757
 11
46.8812302456
 21
220.5023798757
  0
LINE
  5
229
100
AcDbEntity
  8
0
100
AcDbLine
 62
7
  6
BYLAYER
 10
47.1812302456
 20
214.0023798757
 11
47.1812302456
 21
218.6023798757
  0
LINE
  5
22A
100
AcDbEntity
  8
0
100
AcDbLine
 62
7
  6
BYLAYER
 10
95.8812302456
 20
98.6523798757
 11
91.8312302456
 21
98.6523798757
  0
LINE
  5
22B
100
AcDbEntity
  8
0
100
AcDbLine
 62
7
  6
BYLAYER
 10
42.8812302456
 20
163.6023798757
 11
55.5829361677
 21
141.6023798757
  0
LINE
  5
22C
100
AcDbEntity
  8
0
100
AcDbLine
 62
7
  6
BYLAYER
 10
56.5812302456
 20
214.0023798757
 11
56.5812302456
 21
218.6023798757
  0
LINE
  5
22D
100
AcDbEntity
  8
0
100
AcDbLine
 62
7
  6
BYLAYER
 10
56.8812302456
 20
220.5023798757
 11
56.8812302456
 21
219.0023798757
  0
LINE
  5
22E
100
AcDbEntity
  8
0
100
AcDbLine
 62
7
  6
BYLAYER
 10
58.8812302456
 20
216.1023798757
 11
58.8812302456
 21
214.0023798757
  0
LINE
  5
22F
100
AcDbEntity
  8
0
100
AcDbLine
 62
7
  6
BYLAYER
 10
60.8812302456
 20
214.0023798757
 11
60.8812302456
 21
218.6023798757
  0
LINE
  5
230
100
AcDbEntity
  8
0
100
AcDbLine
 62
7
  6
BYLAYER
 10
60.9812302456
 20
219.0023798757
 11
60.9812302456
 21
214.0023798757
  0
LINE
  5
231
100
AcDbEntity
  8
0
100
AcDbLine
 62
7
  6
BYLAYER
 10
62.8812302456
 20
216.1023798757
 11
62.8812302456
 21
219.0023798757
  0
LINE
  5
232
100
AcDbEntity
  8
0
100
AcDbLine
 62
7
  6
BYLAYER
 10
91.8312302456
 20
113.3523798757
 11
95.8812302456
 21
113.3523798757
  0
LINE
  5
233
100
AcDbEntity
  8
0
100
AcDbLine
 62
7
  6
BYLAYER
 10
65.3812302456
 20
148.6023798757
 11
65.3812302456
 21
141.6023798757
  0
LINE
  5
234
100
AcDbEntity
  8
0
100
AcDbLine
 62
7
  6
BYLAYER
 10
67.8812302456
 20
72.4023798757
 11
67.8812302456
 21
141.6023798757
  0
LINE
  5
235
100
AcDbEntity
  8
0
100
AcDbLine
 62
7
  6
BYLAYER
 10
78.8796594351
 20
194.7023798301
 11
78.7791275505
 21
213.9023800154
  0
LINE
  5
236
100
AcDbEntity
  8
0
100
AcDbLine
 62
7
  6
BYLAYER
 10
83.7789676287
 20
213.9023798757
 11
83.8535477966
 21
199.6587471982
  0
LINE
  5
237
100
AcDbEntity
  8
0
100
AcDbLine
 62
7
  6
BYLAYER
 10
78.7791275512
 20
287.7023798757
 11
78.7791275512
 21
225.2023798757
  0
LINE
  5
238
100
AcDbEntity
  8
0
100
AcDbLine
 62
7
  6
BYLAYER
 10
78.8812302456
 20
141.6023798757
 11
78.8800521375
 21
194.7023798757
  0
LINE
  5
239
100
AcDbEntity
  8
0
100
AcDbLine
 62
7
  6
BYLAYER
 10
79.6291275512
 20
296.2023798757
 11
79.6291275512
 21
292.7023798757
  0
LINE
  5
23A
100
AcDbEntity
  8
0
100
AcDbLine
 62
7
  6
BYLAYER
 10
81.6291275512
 20
292.7023798757
 11
81.6291275512
 21
298.2023798757
  0
LINE
  5
23B
100
AcDbEntity
  8
0
100
AcDbLine
 62
7
  6
BYLAYER
 10
82.1291275512
 20
194.7023798757
 11
82.1291275512
 21
194.4023798757
  0
LINE
  5
23C
100
AcDbEntity
  8
0
100
AcDbLine
 62
7
  6
BYLAYER
 10
83.7791275512
 20
225.2023798757
 11
83.7791275512
 21
292.7023798757
  0
LINE
  5
23D
100
AcDbEntity
  8
0
100
AcDbLine
 62
7
  6
BYLAYER
 10
78.779127552
 20
213.9023800154
 11
78.8382947536
 21
225.2023798757
  0
LINE
  5
23E
100
AcDbEntity
  8
0
100
AcDbLine
 62
7
  6
BYLAYER
 10
83.8381348311
 20
225.2023798757
 11
83.7789676287
 21
213.9023798757
  0
LINE
  5
23F
100
AcDbEntity
  8
0
100
AcDbLine
 62
7
  6
BYLAYER
 10
83.9800946535
 20
196.8249013029
 11
84.1291275512
 21
213.9023798757
  0
LINE
  5
240
100
AcDbEntity
  8
0
100
AcDbLine
 62
7
  6
BYLAYER
 10
32.3812302456
 20
210.1523798757
 11
42.8812302456
 21
199.6523798757
  0
LINE
  5
241
100
AcDbEntity
  8
0
100
AcDbLine
 62
7
  6
BYLAYER
 10
84.1291275512
 20
213.9023798757
 11
84.0305139452
 21
225.2023798757
  0
LINE
  5
242
100
AcDbEntity
  8
0
100
AcDbLine
 62
7
  6
BYLAYER
 10
89.8610579825
 20
217.7023798757
 11
89.7956064741
 21
225.2023798757
  0
LINE
  5
243
100
AcDbEntity
  8
0
100
AcDbLine
 62
7
  6
BYLAYER
 10
90.295606474
 20
225.2023798757
 11
90.3610606408
 21
217.702075266
  0
LINE
  5
244
100
AcDbEntity
  8
0
100
AcDbLine
 62
7
  6
BYLAYER
 10
90.4291275512
 20
213.9023798757
 11
90.3959654536
 21
217.7023798757
  0
LINE
  5
245
100
AcDbEntity
  8
0
100
AcDbLine
 62
7
  6
BYLAYER
 10
85.1291275512
 20
225.2023798757
 11
85.1291275512
 21
291.7023798757
  0
LINE
  5
246
100
AcDbEntity
  8
0
100
AcDbLine
 62
7
  6
BYLAYER
 10
88.5812302456
 20
101.9023798757
 11
88.5812302456
 21
110.1023798757
  0
LINE
  5
247
100
AcDbEntity
  8
0
100
AcDbLine
 62
7
  6
BYLAYER
 10
88.7291275512
 20
299.3023798757
 11
88.7291275512
 21
298.2023798757
  0
LINE
  5
248
100
AcDbEntity
  8
0
100
AcDbLine
 62
7
  6
BYLAYER
 10
89.1291275512
 20
217.7023798757
 11
89.1291275512
 21
220.2023798757
  0
LINE
  5
249
100
AcDbEntity
  8
0
100
AcDbLine
 62
7
  6
BYLAYER
 10
90.6291275512
 20
213.9023798757
 11
90.6291275512
 21
217.9023798757
  0
LINE
  5
24A
100
AcDbEntity
  8
0
100
AcDbLine
 62
7
  6
BYLAYER
 10
91.1291275512
 20
225.2023798757
 11
91.1291275512
 21
292.7023798757
  0
LINE
  5
24B
100
AcDbEntity
  8
0
100
AcDbLine
 62
7
  6
BYLAYER
 10
90.2615716897
 20
194.7023798757
 11
90.4291275512
 21
213.9023798757
  0
LINE
  5
24C
100
AcDbEntity
  8
0
100
AcDbLine
 62
7
  6
BYLAYER
 10
55.5829361677
 20
141.6023798757
 11
78.8812302456
 21
141.6023798757
  0
LINE
  5
24D
100
AcDbEntity
  8
0
100
AcDbLine
 62
7
  6
BYLAYER
 10
236.8812299773
 20
145.1023798757
 11
229.8812302397
 21
145.1023798757
  0
LINE
  5
24E
100
AcDbEntity
  8
0
100
AcDbLine
 62
7
  6
BYLAYER
 10
237.1402327985
 20
146.1023726018
 11
228.8812302456
 21
146.1023798758
  0
LINE
  5
24F
100
AcDbEntity
  8
0
100
AcDbLine
 62
7
  6
BYLAYER
 10
99.1312302456
 20
110.1023798757
 11
99.1312302456
 21
101.9023798757
  0
LINE
  5
250
100
AcDbEntity
  8
0
100
AcDbLine
 62
7
  6
BYLAYER
 10
221.0812302456
 20
148.1023798757
 11
236.6224111774
 21
148.1023798757
  0
LINE
  5
251
100
AcDbEntity
  8
0
100
AcDbLine
 62
7
  6
BYLAYER
 10
51.5414842834
 20
148.6023798757
 11
78.8812302456
 21
148.6023798757
  0
LINE
  5
252
100
AcDbEntity
  8
0
100
AcDbLine
 62
7
  6
BYLAYER
 10
221.0812302456
 20
149.1023798757
 11
236.8812302035
 21
149.1023798757
  0
LINE
  5
253
100
AcDbEntity
  8
0
100
AcDbLine
 62
7
  6
BYLAYER
 10
50.386783745
 20
150.6023798757
 11
78.8812302456
 21
150.6023798757
  0
LINE
  5
254
100
AcDbEntity
  8
0
100
AcDbLine
 62
7
  6
BYLAYER
 10
78.8812302456
 20
150.6391764401
 11
221.0812302456
 21
150.6391764401
  0
LINE
  5
255
100
AcDbEntity
  8
0
100
AcDbLine
 62
7
  6
BYLAYER
 10
221.0812302456
 20
153.4676035649
 11
78.8812302456
 21
153.4676035649
  0
LINE
  5
256
100
AcDbEntity
  8
0
100
AcDbLine
 62
7
  6
BYLAYER
 10
238.8812302456
 20
157.10237985
 11
221.0812302456
 21
157.1023798748
  0
LINE
  5
257
100
AcDbEntity
  8
0
100
AcDbLine
 62
7
  6
BYLAYER
 10
110.5291275512
 20
299.3023798757
 11
110.5291275512
 21
298.2023798757
  0
LINE
  5
258
100
AcDbEntity
  8
0
100
AcDbLine
 62
7
  6
BYLAYER
 10
78.8812302456
 20
158.6023798757
 11
45.7679815915
 21
158.6023798757
  0
LINE
  5
259
100
AcDbEntity
  8
0
100
AcDbLine
 62
7
  6
BYLAYER
 10
78.8812302456
 20
166.6066908614
 11
221.0812302456
 21
166.6066908614
  0
LINE
  5
25A
100
AcDbEntity
  8
0
100
AcDbLine
 62
7
  6
BYLAYER
 10
112.6291165748
 20
298.2023798757
 11
112.739657137
 21
296.2023798757
  0
LINE
  5
25B
100
AcDbEntity
  8
0
100
AcDbLine
 62
7
  6
BYLAYER
 10
115.9966834268
 20
194.7023782722
 11
115.8291275512
 21
213.9023798757
  0
LINE
  5
25C
100
AcDbEntity
  8
0
100
AcDbLine
 62
7
  6
BYLAYER
 10
122.2694818755
 20
197.8193673227
 11
122.1291275468
 21
213.9023803805
  0
LINE
  5
25D
100
AcDbEntity
  8
0
100
AcDbLine
 62
7
  6
BYLAYER
 10
122.7694296226
 20
197.6130223229
 11
122.6291085084
 21
213.9023803563
  0
LINE
  5
25E
100
AcDbEntity
  8
0
100
AcDbLine
 62
7
  6
BYLAYER
 10
121.1297282377
 20
225.1014817502
 11
121.128982869
 21
225.2023798757
  0
LINE
  5
25F
100
AcDbEntity
  8
0
100
AcDbLine
 62
7
  6
BYLAYER
 10
115.1291275512
 20
292.7023798757
 11
115.1291275512
 21
225.2023798757
  0
LINE
  5
260
100
AcDbEntity
  8
0
100
AcDbLine
 62
7
  6
BYLAYER
 10
115.6291275512
 20
213.9023798757
 11
115.6291275512
 21
217.9023798757
  0
LINE
  5
261
100
AcDbEntity
  8
0
100
AcDbLine
 62
7
  6
BYLAYER
 10
117.1291275512
 20
220.2023798757
 11
117.1291275512
 21
217.7023798757
  0
LINE
  5
262
100
AcDbEntity
  8
0
100
AcDbLine
 62
7
  6
BYLAYER
 10
117.1291275512
 20
194.4023798757
 11
117.1291275512
 21
194.7023798757
  0
LINE
  5
263
100
AcDbEntity
  8
0
100
AcDbLine
 62
7
  6
BYLAYER
 10
121.1291275512
 20
225.2023798757
 11
121.1291275512
 21
291.7023798757
  0
LINE
  5
264
100
AcDbEntity
  8
0
100
AcDbLine
 62
7
  6
BYLAYER
 10
115.8291275512
 20
213.9023798757
 11
115.8622896488
 21
217.7023798757
  0
LINE
  5
265
100
AcDbEntity
  8
0
100
AcDbLine
 62
7
  6
BYLAYER
 10
115.8971944617
 20
217.702075266
 11
115.9626486284
 21
225.2023798757
  0
LINE
  5
266
100
AcDbEntity
  8
0
100
AcDbLine
 62
7
  6
BYLAYER
 10
116.4626486284
 20
225.2023798757
 11
116.39719712
 21
217.7023798757
  0
LINE
  5
267
100
AcDbEntity
  8
0
100
AcDbLine
 62
7
  6
BYLAYER
 10
122.1291275556
 20
213.9023803804
 11
122.2277411573
 21
225.2023798757
  0
LINE
  5
268
100
AcDbEntity
  8
0
100
AcDbLine
 62
7
  6
BYLAYER
 10
122.7277221188
 20
225.2023798757
 11
122.6291085084
 21
213.9023803562
  0
LINE
  5
269
100
AcDbEntity
  8
0
100
AcDbLine
 62
7
  6
BYLAYER
 10
221.0812302456
 20
167.6673510332
 11
78.8812302456
 21
167.6673510332
  0
LINE
  5
26A
100
AcDbEntity
  8
0
100
AcDbLine
 62
7
  6
BYLAYER
 10
131.6291465943
 20
213.9023793199
 11
131.5305329837
 21
225.2023798757
  0
LINE
  5
26B
100
AcDbEntity
  8
0
100
AcDbLine
 62
7
  6
BYLAYER
 10
132.0305139452
 20
225.2023798757
 11
132.1291275557
 21
213.9023793668
  0
LINE
  5
26C
100
AcDbEntity
  8
0
100
AcDbLine
 62
7
  6
BYLAYER
 10
133.1291275512
 20
225.2023798757
 11
133.1291275512
 21
291.7023798757
  0
LINE
  5
26D
100
AcDbEntity
  8
0
100
AcDbLine
 62
7
  6
BYLAYER
 10
133.1292722335
 20
225.2023798757
 11
133.1285263292
 21
225.1014818967
  0
LINE
  5
26E
100
AcDbEntity
  8
0
100
AcDbLine
 62
7
  6
BYLAYER
 10
131.4887931332
 20
197.6147602224
 11
131.6291465943
 21
213.9023793199
  0
LINE
  5
26F
100
AcDbEntity
  8
0
100
AcDbLine
 62
7
  6
BYLAYER
 10
132.1291275468
 20
213.9023793669
 11
131.9887723163
 21
197.819262961
  0
LINE
  5
270
100
AcDbEntity
  8
0
100
AcDbLine
 62
7
  6
BYLAYER
 10
223.3812302456
 20
181.8023798757
 11
221.0812302456
 21
181.8023798757
  0
LINE
  5
271
100
AcDbEntity
  8
0
100
AcDbLine
 62
7
  6
BYLAYER
 10
137.8610579825
 20
217.7023798757
 11
137.795606474
 21
225.2023798757
  0
LINE
  5
272
100
AcDbEntity
  8
0
100
AcDbLine
 62
7
  6
BYLAYER
 10
138.3610606408
 20
217.702075266
 11
138.295606474
 21
225.2023798757
  0
LINE
  5
273
100
AcDbEntity
  8
0
100
AcDbLine
 62
7
  6
BYLAYER
 10
138.4291275512
 20
213.9023798757
 11
138.3959654536
 21
217.7023798757
  0
LINE
  5
274
100
AcDbEntity
  8
0
100
AcDbLine
 62
7
  6
BYLAYER
 10
137.1291275512
 20
220.2023798757
 11
137.1291275512
 21
217.7023798757
  0
LINE
  5
275
100
AcDbEntity
  8
0
100
AcDbLine
 62
7
  6
BYLAYER
 10
138.6291275512
 20
213.9023798757
 11
138.6291275512
 21
217.9023798757
  0
LINE
  5
276
100
AcDbEntity
  8
0
100
AcDbLine
 62
7
  6
BYLAYER
 10
139.1291275512
 20
225.2023798757
 11
139.1291275512
 21
292.7023798757
  0
LINE
  5
277
100
AcDbEntity
  8
0
100
AcDbLine
 62
7
  6
BYLAYER
 10
138.2615716736
 20
194.702378037
 11
138.4291275512
 21
213.9023798757
  0
LINE
  5
278
100
AcDbEntity
  8
0
100
AcDbLine
 62
7
  6
BYLAYER
 10
223.3812302456
 20
192.8023798757
 11
238.8812302456
 21
192.8023798757
  0
LINE
  5
279
100
AcDbEntity
  8
0
100
AcDbLine
 62
7
  6
BYLAYER
 10
78.8812302456
 20
192.9023798757
 11
223.3812302456
 21
192.9023798757
  0
LINE
  5
27A
100
AcDbEntity
  8
0
100
AcDbLine
 62
7
  6
BYLAYER
 10
223.3770248569
 20
194.4023798757
 11
78.8812302456
 21
194.4023798757
  0
LINE
  5
27B
100
AcDbEntity
  8
0
100
AcDbLine
 62
7
  6
BYLAYER
 10
78.8796681571
 20
194.7023798757
 11
171.8804407362
 21
194.7023798757
  0
LINE
  5
27C
100
AcDbEntity
  8
0
100
AcDbLine
 62
7
  6
BYLAYER
 10
178.3778136309
 20
194.7023798757
 11
223.3784072689
 21
194.7023798757
  0
LINE
  5
27D
100
AcDbEntity
  8
0
100
AcDbLine
 62
7
  6
BYLAYER
 10
236.8812302456
 20
194.8023798757
 11
223.3812302456
 21
194.8023798757
  0
LINE
  5
27E
100
AcDbEntity
  8
0
100
AcDbLine
 62
7
  6
BYLAYER
 10
186.2658970459
 20
195.198016608
 11
181.0708827867
 21
195.198016608
  0
LINE
  5
27F
100
AcDbEntity
  8
0
100
AcDbLine
 62
7
  6
BYLAYER
 10
169.1873752154
 20
195.198016608
 11
163.9923580566
 21
195.198016608
  0
LINE
  5
280
100
AcDbEntity
  8
0
100
AcDbLine
 62
7
  6
BYLAYER
 10
138.2658970459
 20
195.198016608
 11
133.0708827867
 21
195.198016608
  0
LINE
  5
281
100
AcDbEntity
  8
0
100
AcDbLine
 62
7
  6
BYLAYER
 10
121.187375213
 20
195.198016608
 11
115.9923580566
 21
195.198016608
  0
LINE
  5
282
100
AcDbEntity
  8
0
100
AcDbLine
 62
7
  6
BYLAYER
 10
146.1312302456
 20
73.9023798757
 11
146.1312302456
 21
74.9023798757
  0
LINE
  5
283
100
AcDbEntity
  8
0
100
AcDbLine
 62
7
  6
BYLAYER
 10
149.1312302456
 20
72.4023798757
 11
149.1312302456
 21
76.4023798757
  0
LINE
  5
284
100
AcDbEntity
  8
0
100
AcDbLine
 62
7
  6
BYLAYER
 10
155.6312302456
 20
76.4023798757
 11
155.6312302456
 21
72.4023798757
  0
LINE
  5
285
100
AcDbEntity
  8
0
100
AcDbLine
 62
7
  6
BYLAYER
 10
78.8537410586
 20
199.6523798757
 11
42.8812302456
 21
199.6523798757
  0
LINE
  5
286
100
AcDbEntity
  8
0
100
AcDbLine
 62
7
  6
BYLAYER
 10
179.5048805268
 20
199.658743872
 11
170.7534109213
 21
199.658730869
  0
LINE
  5
287
100
AcDbEntity
  8
0
100
AcDbLine
 62
7
  6
BYLAYER
 10
218.404707306
 20
199.6587471982
 11
218.2534298505
 21
199.6587471982
  0
LINE
  5
288
100
AcDbEntity
  8
0
100
AcDbLine
 62
7
  6
BYLAYER
 10
131.5048805519
 20
199.6587469601
 11
122.753410785
 21
199.6587471577
  0
LINE
  5
289
100
AcDbEntity
  8
0
100
AcDbLine
 62
7
  6
BYLAYER
 10
84.004825252
 20
199.6587471982
 11
83.8535477966
 21
199.6587471982
  0
LINE
  5
28A
100
AcDbEntity
  8
0
100
AcDbLine
 62
7
  6
BYLAYER
 10
223.3812302456
 20
200.4523798757
 11
238.8812302456
 21
200.4523798757
  0
LINE
  5
28B
100
AcDbEntity
  8
0
100
AcDbLine
 62
7
  6
BYLAYER
 10
163.8291275512
 20
213.9023798757
 11
163.9966834268
 21
194.7023782725
  0
LINE
  5
28C
100
AcDbEntity
  8
0
100
AcDbLine
 62
7
  6
BYLAYER
 10
158.6312302456
 20
73.9023798757
 11
158.6312302456
 21
74.9023798757
  0
LINE
  5
28D
100
AcDbEntity
  8
0
100
AcDbLine
 62
7
  6
BYLAYER
 10
163.1291275512
 20
292.7023798757
 11
163.1291275512
 21
225.2023798757
  0
LINE
  5
28E
100
AcDbEntity
  8
0
100
AcDbLine
 62
7
  6
BYLAYER
 10
163.6291275512
 20
213.9023798757
 11
163.6291275512
 21
217.9023798757
  0
LINE
  5
28F
100
AcDbEntity
  8
0
100
AcDbLine
 62
7
  6
BYLAYER
 10
165.1291275512
 20
220.2023798757
 11
165.1291275512
 21
217.7023798757
  0
LINE
  5
290
100
AcDbEntity
  8
0
100
AcDbLine
 62
7
  6
BYLAYER
 10
163.8291275512
 20
213.9023798757
 11
163.8622896488
 21
217.7023798757
  0
LINE
  5
291
100
AcDbEntity
  8
0
100
AcDbLine
 62
7
  6
BYLAYER
 10
163.8971944617
 20
217.702075266
 11
163.9626486284
 21
225.2023798757
  0
LINE
  5
292
100
AcDbEntity
  8
0
100
AcDbLine
 62
7
  6
BYLAYER
 10
164.4626486284
 20
225.2023798757
 11
164.39719712
 21
217.7023798757
  0
LINE
  5
293
100
AcDbEntity
  8
0
100
AcDbLine
 62
7
  6
BYLAYER
 10
78.7987626848
 20
210.1523798757
 11
29.8812302456
 21
210.1523798757
  0
LINE
  5
294
100
AcDbEntity
  8
0
100
AcDbLine
 62
7
  6
BYLAYER
 10
29.8812302456
 20
212.6523798757
 11
78.7856725957
 21
212.6523798757
  0
LINE
  5
295
100
AcDbEntity
  8
0
100
AcDbLine
 62
7
  6
BYLAYER
 10
131.6291465943
 20
213.9023793199
 11
122.6291085084
 21
213.9023803563
  0
LINE
  5
296
100
AcDbEntity
  8
0
100
AcDbLine
 62
7
  6
BYLAYER
 10
78.7791275506
 20
213.9023800162
 11
122.1291275512
 21
213.9023798757
  0
LINE
  5
297
100
AcDbEntity
  8
0
100
AcDbLine
 62
7
  6
BYLAYER
 10
132.1291275512
 20
213.9023798757
 11
170.1291275512
 21
213.9023798757
  0
LINE
  5
298
100
AcDbEntity
  8
0
100
AcDbLine
 62
7
  6
BYLAYER
 10
223.4791275497
 20
213.9023795946
 11
180.1291275512
 21
213.9023798757
  0
LINE
  5
299
100
AcDbEntity
  8
0
100
AcDbLine
 62
7
  6
BYLAYER
 10
179.6291465943
 20
213.9023793199
 11
170.6291085084
 21
213.9023803563
  0
LINE
  5
29A
100
AcDbEntity
  8
0
100
AcDbLine
 62
7
  6
BYLAYER
 10
78.7796511548
 20
214.0023798757
 11
29.8812302456
 21
214.0023798757
  0
LINE
  5
29B
100
AcDbEntity
  8
0
100
AcDbLine
 62
7
  6
BYLAYER
 10
62.8812302456
 20
216.1023798757
 11
60.9812302456
 21
216.1023798757
  0
LINE
  5
29C
100
AcDbEntity
  8
0
100
AcDbLine
 62
7
  6
BYLAYER
 10
60.8812302456
 20
216.1023798757
 11
58.8812302456
 21
216.1023798757
  0
LINE
  5
29D
100
AcDbEntity
  8
0
100
AcDbLine
 62
7
  6
BYLAYER
 10
40.8812302456
 20
216.1023798757
 11
42.7812302456
 21
216.1023798757
  0
LINE
  5
29E
100
AcDbEntity
  8
0
100
AcDbLine
 62
7
  6
BYLAYER
 10
42.8812302456
 20
216.1023798757
 11
44.8812302456
 21
216.1023798757
  0
LINE
  5
29F
100
AcDbEntity
  8
0
100
AcDbLine
 62
7
  6
BYLAYER
 10
89.1291275512
 20
217.7023798757
 11
90.3959654536
 21
217.7023798757
  0
LINE
  5
2A0
100
AcDbEntity
  8
0
100
AcDbLine
 62
7
  6
BYLAYER
 10
115.8622896488
 20
217.7023798757
 11
117.1291275512
 21
217.7023798757
  0
LINE
  5
2A1
100
AcDbEntity
  8
0
100
AcDbLine
 62
7
  6
BYLAYER
 10
137.1291275512
 20
217.7023798757
 11
138.3959654536
 21
217.7023798757
  0
LINE
  5
2A2
100
AcDbEntity
  8
0
100
AcDbLine
 62
7
  6
BYLAYER
 10
163.8622896488
 20
217.7023798757
 11
165.1291275512
 21
217.7023798757
  0
LINE
  5
2A3
100
AcDbEntity
  8
0
100
AcDbLine
 62
7
  6
BYLAYER
 10
185.1291275512
 20
217.7023798757
 11
186.3959654536
 21
217.7023798757
  0
LINE
  5
2A4
100
AcDbEntity
  8
0
100
AcDbLine
 62
7
  6
BYLAYER
 10
211.8622896488
 20
217.7023798757
 11
213.1291275512
 21
217.7023798757
  0
LINE
  5
2A5
100
AcDbEntity
  8
0
100
AcDbLine
 62
7
  6
BYLAYER
 10
211.6291275512
 20
217.9023798757
 11
186.6291275512
 21
217.9023798757
  0
LINE
  5
2A6
100
AcDbEntity
  8
0
100
AcDbLine
 62
7
  6
BYLAYER
 10
163.6291275512
 20
217.9023798757
 11
138.6291275512
 21
217.9023798757
  0
LINE
  5
2A7
100
AcDbEntity
  8
0
100
AcDbLine
 62
7
  6
BYLAYER
 10
115.6291275512
 20
217.9023798757
 11
90.6291275512
 21
217.9023798757
  0
LINE
  5
2A8
100
AcDbEntity
  8
0
100
AcDbLine
 62
7
  6
BYLAYER
 10
62.8812302456
 20
218.5023798757
 11
78.803213315
 21
218.5023798757
  0
LINE
  5
2A9
100
AcDbEntity
  8
0
100
AcDbLine
 62
7
  6
BYLAYER
 10
42.8812302456
 20
218.6023798757
 11
47.1812302456
 21
218.6023798757
  0
LINE
  5
2AA
100
AcDbEntity
  8
0
100
AcDbLine
 62
7
  6
BYLAYER
 10
56.5812302456
 20
218.6023798757
 11
60.8812302456
 21
218.6023798757
  0
LINE
  5
2AB
100
AcDbEntity
  8
0
100
AcDbLine
 62
7
  6
BYLAYER
 10
40.8812302456
 20
219.0023798757
 11
46.8812302456
 21
219.0023798757
  0
LINE
  5
2AC
100
AcDbEntity
  8
0
100
AcDbLine
 62
7
  6
BYLAYER
 10
56.8812302456
 20
219.0023798757
 11
62.8812302456
 21
219.0023798757
  0
LINE
  5
2AD
100
AcDbEntity
  8
0
100
AcDbLine
 62
7
  6
BYLAYER
 10
170.2694818755
 20
197.8193673227
 11
170.1291275468
 21
213.9023803805
  0
LINE
  5
2AE
100
AcDbEntity
  8
0
100
AcDbLine
 62
7
  6
BYLAYER
 10
170.7694296228
 20
197.6130223329
 11
170.6291085084
 21
213.9023803563
  0
LINE
  5
2AF
100
AcDbEntity
  8
0
100
AcDbLine
 62
7
  6
BYLAYER
 10
169.1297295779
 20
225.1014822069
 11
169.128982869
 21
225.2023798757
  0
LINE
  5
2B0
100
AcDbEntity
  8
0
100
AcDbLine
 62
7
  6
BYLAYER
 10
169.1291275512
 20
225.2023798757
 11
169.1291275512
 21
291.7023798757
  0
LINE
  5
2B1
100
AcDbEntity
  8
0
100
AcDbLine
 62
7
  6
BYLAYER
 10
170.1291275556
 20
213.9023803804
 11
170.2277411573
 21
225.2023798757
  0
LINE
  5
2B2
100
AcDbEntity
  8
0
100
AcDbLine
 62
7
  6
BYLAYER
 10
170.7277221188
 20
225.2023798757
 11
170.6291085084
 21
213.9023803562
  0
LINE
  5
2B3
100
AcDbEntity
  8
0
100
AcDbLine
 62
7
  6
BYLAYER
 10
172.1574732584
 20
194.7023798757
 11
172.1505995449
 21
194.4023798757
  0
LINE
  5
2B4
100
AcDbEntity
  8
0
100
AcDbLine
 62
7
  6
BYLAYER
 10
56.8812302456
 20
220.5023798757
 11
46.8812302456
 21
220.5023798757
  0
LINE
  5
2B5
100
AcDbEntity
  8
0
100
AcDbLine
 62
7
  6
BYLAYER
 10
223.4791275512
 20
225.2023798757
 11
78.7791275512
 21
225.2023798757
  0
LINE
  5
2B6
100
AcDbEntity
  8
0
100
AcDbLine
 62
7
  6
BYLAYER
 10
178.1076555576
 20
194.4023798757
 11
178.1007818467
 21
194.7023798757
  0
LINE
  5
2B7
100
AcDbEntity
  8
0
100
AcDbLine
 62
7
  6
BYLAYER
 10
179.6291465943
 20
213.9023793199
 11
179.5305329837
 21
225.2023798757
  0
LINE
  5
2B8
100
AcDbEntity
  8
0
100
AcDbLine
 62
7
  6
BYLAYER
 10
180.0305139452
 20
225.2023798757
 11
180.1291275557
 21
213.9023793668
  0
LINE
  5
2B9
100
AcDbEntity
  8
0
100
AcDbLine
 62
7
  6
BYLAYER
 10
185.8610579825
 20
217.7023798757
 11
185.795606474
 21
225.2023798757
  0
LINE
  5
2BA
100
AcDbEntity
  8
0
100
AcDbLine
 62
7
  6
BYLAYER
 10
186.295606474
 20
225.2023798757
 11
186.3610606408
 21
217.702075266
  0
LINE
  5
2BB
100
AcDbEntity
  8
0
100
AcDbLine
 62
7
  6
BYLAYER
 10
186.4291275512
 20
213.9023798757
 11
186.3959654536
 21
217.7023798757
  0
LINE
  5
2BC
100
AcDbEntity
  8
0
100
AcDbLine
 62
7
  6
BYLAYER
 10
181.1291275512
 20
225.2023798757
 11
181.1291275512
 21
291.7023798757
  0
LINE
  5
2BD
100
AcDbEntity
  8
0
100
AcDbLine
 62
7
  6
BYLAYER
 10
185.1291275512
 20
217.7023798757
 11
185.1291275512
 21
220.2023798757
  0
LINE
  5
2BE
100
AcDbEntity
  8
0
100
AcDbLine
 62
7
  6
BYLAYER
 10
186.6291275512
 20
213.9023798757
 11
186.6291275512
 21
217.9023798757
  0
LINE
  5
2BF
100
AcDbEntity
  8
0
100
AcDbLine
 62
7
  6
BYLAYER
 10
187.1291275512
 20
225.2023798757
 11
187.1291275512
 21
292.7023798757
  0
LINE
  5
2C0
100
AcDbEntity
  8
0
100
AcDbLine
 62
7
  6
BYLAYER
 10
181.1292722335
 20
225.2023798757
 11
181.1285249966
 21
225.1014823118
  0
LINE
  5
2C1
100
AcDbEntity
  8
0
100
AcDbLine
 62
7
  6
BYLAYER
 10
179.4887931331
 20
197.6147602248
 11
179.6291465943
 21
213.9023793199
  0
LINE
  5
2C2
100
AcDbEntity
  8
0
100
AcDbLine
 62
7
  6
BYLAYER
 10
180.1291275468
 20
213.9023793669
 11
179.9887723163
 21
197.819262961
  0
LINE
  5
2C3
100
AcDbEntity
  8
0
100
AcDbLine
 62
7
  6
BYLAYER
 10
186.2615716736
 20
194.702378037
 11
186.4291275512
 21
213.9023798757
  0
LINE
  5
2C4
100
AcDbEntity
  8
0
100
AcDbLine
 62
7
  6
BYLAYER
 10
211.8291275512
 20
213.9023798757
 11
211.9966834128
 21
194.7023798757
  0
LINE
  5
2C5
100
AcDbEntity
  8
0
100
AcDbLine
 62
7
  6
BYLAYER
 10
218.2781604459
 20
196.824901655
 11
218.1291275512
 21
213.9023798757
  0
LINE
  5
2C6
100
AcDbEntity
  8
0
100
AcDbLine
 62
7
  6
BYLAYER
 10
211.1291275512
 20
292.7023798757
 11
211.1291275512
 21
225.2023798757
  0
LINE
  5
2C7
100
AcDbEntity
  8
0
100
AcDbLine
 62
7
  6
BYLAYER
 10
211.6291275512
 20
213.9023798757
 11
211.6291275512
 21
217.9023798757
  0
LINE
  5
2C8
100
AcDbEntity
  8
0
100
AcDbLine
 62
7
  6
BYLAYER
 10
213.1291275512
 20
220.2023798757
 11
213.1291275512
 21
217.7023798757
  0
LINE
  5
2C9
100
AcDbEntity
  8
0
100
AcDbLine
 62
7
  6
BYLAYER
 10
217.1291275512
 20
225.2023798757
 11
217.1291275512
 21
291.7023798757
  0
LINE
  5
2CA
100
AcDbEntity
  8
0
100
AcDbLine
 62
7
  6
BYLAYER
 10
218.404707306
 20
199.6587471982
 11
218.4792874738
 21
213.9023798885
  0
LINE
  5
2CB
100
AcDbEntity
  8
0
100
AcDbLine
 62
7
  6
BYLAYER
 10
211.8291275512
 20
213.9023798757
 11
211.8622896488
 21
217.7023798757
  0
LINE
  5
2CC
100
AcDbEntity
  8
0
100
AcDbLine
 62
7
  6
BYLAYER
 10
211.8971944617
 20
217.702075266
 11
211.9626486284
 21
225.2023798757
  0
LINE
  5
2CD
100
AcDbEntity
  8
0
100
AcDbLine
 62
7
  6
BYLAYER
 10
212.4626486284
 20
225.2023798757
 11
212.39719712
 21
217.7023798757
  0
LINE
  5
2CE
100
AcDbEntity
  8
0
100
AcDbLine
 62
7
  6
BYLAYER
 10
218.1291275512
 20
213.9023798757
 11
218.2277411573
 21
225.2023798757
  0
LINE
  5
2CF
100
AcDbEntity
  8
0
100
AcDbLine
 62
7
  6
BYLAYER
 10
220.6291275512
 20
296.4082736816
 11
220.8419789569
 21
298.3969149968
  0
LINE
  5
2D0
100
AcDbEntity
  8
0
100
AcDbLine
 62
7
  6
BYLAYER
 10
218.4792874738
 20
213.9023798885
 11
218.4201202716
 21
225.2023798757
  0
LINE
  5
2D1
100
AcDbEntity
  8
0
100
AcDbLine
 62
7
  6
BYLAYER
 10
223.4199603489
 20
225.2023798757
 11
223.4791275512
 21
213.9023798757
  0
LINE
  5
2D2
100
AcDbEntity
  8
0
100
AcDbLine
 62
7
  6
BYLAYER
 10
218.4791275512
 20
292.7023798757
 11
218.4791275512
 21
225.2023798757
  0
LINE
  5
2D3
100
AcDbEntity
  8
0
100
AcDbLine
 62
7
  6
BYLAYER
 10
220.6291269042
 20
296.4082737273
 11
220.6291266886
 21
292.7023798757
  0
LINE
  5
2D4
100
AcDbEntity
  8
0
100
AcDbLine
 62
7
  6
BYLAYER
 10
221.0812302456
 20
76.4023798757
 11
221.0812302456
 21
181.8023798757
  0
LINE
  5
2D5
100
AcDbEntity
  8
0
100
AcDbLine
 62
7
  6
BYLAYER
 10
222.6291275512
 20
292.7023798757
 11
222.6291275512
 21
296.4082736816
  0
LINE
  5
2D6
100
AcDbEntity
  8
0
100
AcDbLine
 62
7
  6
BYLAYER
 10
223.3812302456
 20
76.4023798757
 11
223.3812302456
 21
72.4023798757
  0
LINE
  5
2D7
100
AcDbEntity
  8
0
100
AcDbLine
 62
7
  6
BYLAYER
 10
223.3812302456
 20
181.8023798757
 11
223.3812302456
 21
194.7023798757
  0
LINE
  5
2D8
100
AcDbEntity
  8
0
100
AcDbLine
 62
7
  6
BYLAYER
 10
223.4791275512
 20
225.2023798757
 11
223.4791275512
 21
287.7023798757
  0
LINE
  5
2D9
100
AcDbEntity
  8
0
100
AcDbLine
 62
7
  6
BYLAYER
 10
227.8812302456
 20
149.1023798757
 11
227.8812302455
 21
74.8023798757
  0
LINE
  5
2DA
100
AcDbEntity
  8
0
100
AcDbLine
 62
7
  6
BYLAYER
 10
223.4791275513
 20
213.9023798757
 11
223.3785956676
 21
194.7023798757
  0
LINE
  5
2DB
100
AcDbEntity
  8
0
100
AcDbLine
 62
7
  6
BYLAYER
 10
228.8812302456
 20
75.8023891055
 11
228.8812302456
 21
148.1023798757
  0
LINE
  5
2DC
100
AcDbEntity
  8
0
100
AcDbLine
 62
7
  6
BYLAYER
 10
229.6224111998
 20
146.1023798399
 11
229.6224112005
 21
148.1023798757
  0
LINE
  5
2DD
100
AcDbEntity
  8
0
100
AcDbLine
 62
7
  6
BYLAYER
 10
236.8812302456
 20
194.8023798757
 11
236.8812302456
 21
149.1023798757
  0
LINE
  5
2DE
100
AcDbEntity
  8
0
100
AcDbLine
 62
7
  6
BYLAYER
 10
237.3988699072
 20
148.2046023876
 11
237.3988140697
 21
146.1364596999
  0
LINE
  5
2DF
100
AcDbEntity
  8
0
100
AcDbLine
 62
7
  6
BYLAYER
 10
237.8812302455
 20
200.4523798757
 11
237.8812302456
 21
194.5344306833
  0
LINE
  5
2E0
100
AcDbEntity
  8
0
100
AcDbLine
 62
7
  6
BYLAYER
 10
238.8812302456
 20
147.1023798757
 11
238.8812302456
 21
200.4523798757
  0
LINE
  5
2E1
100
AcDbEntity
  8
0
100
AcDbLine
 62
7
  6
BYLAYER
 10
78.7791275512
 20
287.7023798757
 11
85.1291275512
 21
287.7023798757
  0
LINE
  5
2E2
100
AcDbEntity
  8
0
100
AcDbLine
 62
7
  6
BYLAYER
 10
121.1291275512
 20
287.7023798757
 11
133.1291275512
 21
287.7023798757
  0
LINE
  5
2E3
100
AcDbEntity
  8
0
100
AcDbLine
 62
7
  6
BYLAYER
 10
169.1291275512
 20
287.7023798757
 11
181.1291275512
 21
287.7023798757
  0
LINE
  5
2E4
100
AcDbEntity
  8
0
100
AcDbLine
 62
7
  6
BYLAYER
 10
217.1291275512
 20
287.7023798757
 11
223.4791275512
 21
287.7023798757
  0
LINE
  5
2E5
100
AcDbEntity
  8
0
100
AcDbLine
 62
7
  6
BYLAYER
 10
79.6291275512
 20
292.7023798757
 11
222.6291275512
 21
292.7023798757
  0
LINE
  5
2E6
100
AcDbEntity
  8
0
100
AcDbLine
 62
7
  6
BYLAYER
 10
79.6291275512
 20
296.2023798757
 11
112.7396627876
 21
296.2023866138
  0
LINE
  5
2E7
100
AcDbEntity
  8
0
100
AcDbLine
 62
7
  6
BYLAYER
 10
220.6291275512
 20
296.4082736816
 11
222.6291275512
 21
296.4082736816
  0
LINE
  5
2E8
100
AcDbEntity
  8
0
100
AcDbLine
 62
7
  6
BYLAYER
 10
112.6291275793
 20
298.2023798757
 11
81.6291275512
 21
298.2023798757
  0
LINE
  5
2E9
100
AcDbEntity
  8
0
100
AcDbLine
 62
7
  6
BYLAYER
 10
110.5291275512
 20
299.3023798757
 11
88.7291275512
 21
299.3023798757
  0
ARC
  5
2EA
100
AcDbEntity
  8
0
100
AcDbCircle
 62
7
  6
BYLAYER
 10
83.7791275512
 20
287.7023798757
 40
5.0
100
AcDbArc
 50
90.0
 51
180.0
  0
ARC
  5
2EB
100
AcDbEntity
  8
0
100
AcDbCircle
 62
7
  6
BYLAYER
 10
84.1291275512
 20
220.2023798757
 40
5.0
100
AcDbArc
 50
0.0
 51
80.3835683976
  0
ARC
  5
2EC
100
AcDbEntity
  8
0
100
AcDbCircle
 62
7
  6
BYLAYER
 10
132.1291275512
 20
220.2023798757
 40
5.0
100
AcDbArc
 50
0.0
 51
80.1774466575
  0
ARC
  5
2ED
100
AcDbEntity
  8
0
100
AcDbCircle
 62
7
  6
BYLAYER
 10
122.1291275512
 20
220.2023798757
 40
5.0
100
AcDbArc
 50
99.6445629044
 51
180.0
  0
ARC
  5
2EE
100
AcDbEntity
  8
0
100
AcDbCircle
 62
7
  6
BYLAYER
 10
95.8812302456
 20
101.9023798757
 40
3.25
100
AcDbArc
 50
270.0
 51
360.0
  0
ARC
  5
2EF
100
AcDbEntity
  8
0
100
AcDbCircle
 62
7
  6
BYLAYER
 10
91.8312302456
 20
101.9023798757
 40
3.25
100
AcDbArc
 50
180.0
 51
270.0
  0
ARC
  5
2F0
100
AcDbEntity
  8
0
100
AcDbCircle
 62
7
  6
BYLAYER
 10
91.8312302456
 20
110.1023798757
 40
3.25
100
AcDbArc
 50
90.0
 51
180.0
  0
ARC
  5
2F1
100
AcDbEntity
  8
0
100
AcDbCircle
 62
7
  6
BYLAYER
 10
95.8812302456
 20
110.1023798757
 40
3.25
100
AcDbArc
 50
0.0
 51
90.0
  0
ARC
  5
2F2
100
AcDbEntity
  8
0
100
AcDbCircle
 62
7
  6
BYLAYER
 10
81.6291275512
 20
296.2023798757
 40
2.0
100
AcDbArc
 50
90.0
 51
180.0
  0
ARC
  5
2F3
100
AcDbEntity
  8
0
100
AcDbCircle
 62
7
  6
BYLAYER
 10
63.3812302456
 20
148.6023798757
 40
2.0
100
AcDbArc
 50
0.0
 51
90.0
  0
ARC
  5
2F4
100
AcDbEntity
  8
0
100
AcDbCircle
 62
7
  6
BYLAYER
 10
167.6291275512
 20
-198.7634137158
 40
500.0000000003
100
AcDbArc
 50
83.890686384
 51
96.3153155584
  0
ARC
  5
2F5
100
AcDbEntity
  8
0
100
AcDbCircle
 62
7
  6
BYLAYER
 10
167.6291275512
 20
-198.7634137158
 40
498.0
100
AcDbArc
 50
83.8906864585
 51
96.3279867723
  0
ARC
  5
2F6
100
AcDbEntity
  8
0
100
AcDbCircle
 62
7
  6
BYLAYER
 10
218.4791275512
 20
287.7023798757
 40
5.0
100
AcDbArc
 50
0.0
 51
90.0
  0
ARC
  5
2F7
100
AcDbEntity
  8
0
100
AcDbCircle
 62
7
  6
BYLAYER
 10
180.1291275512
 20
220.2023798757
 40
5.0
100
AcDbArc
 50
0.0
 51
80.3835683976
  0
ARC
  5
2F8
100
AcDbEntity
  8
0
100
AcDbCircle
 62
7
  6
BYLAYER
 10
170.1291275512
 20
220.2023798757
 40
5.0
100
AcDbArc
 50
99.6435718792
 51
180.0
  0
ARC
  5
2F9
100
AcDbEntity
  8
0
100
AcDbCircle
 62
7
  6
BYLAYER
 10
218.1291275512
 20
220.2023798757
 40
5.0
100
AcDbArc
 50
99.6445629044
 51
180.0
  0
ARC
  5
2FA
100
AcDbEntity
  8
0
100
AcDbCircle
 62
7
  6
BYLAYER
 10
236.6207798409
 20
151.1147835081
 40
3.0124040741
100
AcDbArc
 50
270.0310279428
 51
284.9689402575
  0
ARC
  5
2FB
100
AcDbEntity
  8
0
100
AcDbCircle
 62
7
  6
BYLAYER
 10
220.6291275512
 20
296.4082736816
 40
2.0
100
AcDbArc
 50
0.0
 51
83.8906863843
  0
ARC
  5
2FC
100
AcDbEntity
  8
0
100
AcDbCircle
 62
7
  6
BYLAYER
 10
236.8812302456
 20
147.1023798757
 40
2.0
100
AcDbArc
 50
269.9998546927
 51
360.0
  0
ARC
  5
2FD
100
AcDbEntity
  8
0
100
AcDbCircle
 62
7
  6
BYLAYER
 10
236.8812302456
 20
151.1023798757
 40
2.0
100
AcDbArc
 50
269.9999959618
 51
359.9999999999
  0
ARC
  5
2FE
100
AcDbEntity
  8
0
100
AcDbCircle
 62
7
  6
BYLAYER
 10
236.8812302456
 20
192.8023798757
 40
2.0
100
AcDbArc
 50
0.0
 51
90.0
  0
ARC
  5
2FF
100
AcDbEntity
  8
0
100
AcDbCircle
 62
7
  6
BYLAYER
 10
237.1395882005
 20
147.1050916623
 40
1.0027192677
100
AcDbArc
 50
270.0368325921
 51
284.9824328908
  0
ARC
  5
300
100
AcDbEntity
  8
0
100
AcDbCircle
 62
7
  6
BYLAYER
 10
229.8812302456
 20
144.1023798757
 40
1.0
100
AcDbArc
 50
90.0
 51
179.9999999797
  0
ARC
  5
301
100
AcDbEntity
  8
0
100
AcDbCircle
 62
7
  6
BYLAYER
 10
229.8812302456
 20
148.1023798757
 40
1.0
100
AcDbArc
 50
90.0000000002
 51
180.0
  0
ARC
  5
302
100
AcDbEntity
  8
0
100
AcDbCircle
 62
7
  6
BYLAYER
 10
227.8812302455
 20
75.8023798757
 40
1.0
100
AcDbArc
 50
270.0000000006
 51
359.9999999999
  0
SPLINE
  5
303
100
AcDbEntity
  8
0
100
AcDbSpline
 62
7
  6
BYLAYER
 70
0
 71
3
 72
8
 73
4
 74
0
 42
0.0000001
 43
0.0000001
 44
0.0000000001
 40
0.0
 40
0.0
 40
0.0
 40
0.0
 40
1.0
 40
1.0
 40
1.0
 40
1.0
 10
137.1291275512
 20
194.4023798757
 30
0.0
 10
137.1291275512
 20
194.5025030363
 30
0.0
 10
137.1440213615
 20
194.6022567151
 30
0.0
 10
137.1440213615
 20
194.7023798757
 30
0.0
  0
SPLINE
  5
304
100
AcDbEntity
  8
0
100
AcDbSpline
 62
7
  6
BYLAYER
 70
0
 71
3
 72
8
 73
4
 74
0
 42
0.0000001
 43
0.0000001
 44
0.0000000001
 40
0.0
 40
0.0
 40
0.0
 40
0.0
 40
1.0
 40
1.0
 40
1.0
 40
1.0
 10
165.1142391172
 20
194.7023798757
 30
0.0
 10
165.1142391172
 20
194.602256804
 30
0.0
 10
165.1291275512
 20
194.5025029475
 30
0.0
 10
165.1291275512
 20
194.4023798757
 30
0.0
  0
SPLINE
  5
305
100
AcDbEntity
  8
0
100
AcDbSpline
 62
7
  6
BYLAYER
 70
0
 71
3
 72
8
 73
4
 74
0
 42
0.0000001
 43
0.0000001
 44
0.0000000001
 40
0.0
 40
0.0
 40
0.0
 40
0.0
 40
1.0
 40
1.0
 40
1.0
 40
1.0
 10
185.1291275512
 20
194.4023798757
 30
0.0
 10
185.1291275512
 20
194.5025033592
 30
0.0
 10
185.1440408825
 20
194.6022563923
 30
0.0
 10
185.1440408825
 20
194.7023798757
 30
0.0
  0
SPLINE
  5
306
100
AcDbEntity
  8
0
100
AcDbSpline
 62
7
  6
BYLAYER
 70
0
 71
3
 72
8
 73
4
 74
0
 42
0.0000001
 43
0.0000001
 44
0.0000000001
 40
0.0
 40
0.0
 40
0.0
 40
0.0
 40
1.0
 40
1.0
 40
1.0
 40
1.0
 10
220.1142391172
 20
194.7023798757
 30
0.0
 10
220.1142391172
 20
194.602256804
 30
0.0
 10
220.1291275512
 20
194.5025029475
 30
0.0
 10
220.1291275512
 20
194.4023798757
 30
0.0
  0
SPLINE
  5
307
100
AcDbEntity
  8
0
100
AcDbSpline
 62
7
  6
BYLAYER
 70
0
 71
3
 72
11
 73
7
 74
0
 42
0.0000001
 43
0.0000001
 44
0.0000000001
 40
0.0
 40
0.0
 40
0.0
 40
0.0
 40
0.2437917666
 40
0.500000019
 40
0.7562082771
 40
1.0
 40
1.0
 40
1.0
 40
1.0
 10
171.8804407401
 20
194.7023798757
 30
0.0
 10
172.4085154191
 20
194.7023798758
 30
0.0
 10
173.4912011611
 20
194.7364383695
 30
0.0
 10
175.1291286618
 20
194.7655549869
 30
0.0
 10
176.7670560693
 20
194.7364384425
 30
0.0
 10
177.8497417279
 20
194.7023798461
 30
0.0
 10
178.3778163123
 20
194.7023798757
 30
0.0
  0
SPLINE
  5
308
100
AcDbEntity
  8
0
100
AcDbSpline
 62
7
  6
BYLAYER
 70
0
 71
3
 72
12
 73
8
 74
0
 42
0.0000001
 43
0.0000001
 44
0.0000000001
 40
0.0
 40
0.0
 40
0.0
 40
0.0
 40
0.301515829
 40
0.535842545
 40
0.6412507055
 40
0.7494423995
 40
1.0
 40
1.0
 40
1.0
 40
1.0
 10
85.1291275512
 20
291.7023798757
 30
0.0
 10
85.1291275512
 20
291.8510606931
 30
0.0
 10
85.1427084187
 20
292.1160782826
 30
0.0
 10
85.2603859796
 20
292.4223455856
 30
0.0
 10
85.4217791014
 20
292.5781358436
 30
0.0
 10
85.6278927881
 20
292.6836596829
 30
0.0
 10
85.8094223819
 20
292.7023798757
 30
0.0
 10
85.9329751285
 20
292.7023798757
 30
0.0
  0
SPLINE
  5
309
100
AcDbEntity
  8
0
100
AcDbSpline
 62
7
  6
BYLAYER
 70
0
 71
3
 72
11
 73
7
 74
0
 42
0.0000001
 43
0.0000001
 44
0.0000000001
 40
0.0
 40
0.0
 40
0.0
 40
0.0
 40
0.1716093139
 40
0.3864027896
 40
0.6640457791
 40
1.0
 40
1.0
 40
1.0
 40
1.0
 10
238.8812302456
 20
147.102379924
 30
0.0
 10
238.8812302456
 20
146.994095822
 30
0.0
 10
238.7930620923
 20
146.7493955936
 30
0.0
 10
238.4693783132
 20
146.4677754147
 30
0.0
 10
237.989670345
 20
146.2493429694
 30
0.0
 10
237.6087276748
 20
146.1662138852
 30
0.0
 10
237.398841988
 20
146.1364583238
 30
0.0
  0
SPLINE
  5
30A
100
AcDbEntity
  8
0
100
AcDbSpline
 62
7
  6
BYLAYER
 70
0
 71
3
 72
12
 73
8
 74
0
 42
0.0000001
 43
0.0000001
 44
0.0000000001
 40
0.0
 40
0.0
 40
0.0
 40
0.0
 40
0.2505576165
 40
0.3587493037
 40
0.4641574522
 40
0.6984841672
 40
1.0
 40
1.0
 40
1.0
 40
1.0
 10
120.325279974
 20
292.7023798757
 30
0.0
 10
120.4488327267
 20
292.7023798757
 30
0.0
 10
120.6303623259
 20
292.6836597041
 30
0.0
 10
120.836476006
 20
292.5781358513
 30
0.0
 10
120.997869075
 20
292.4223455579
 30
0.0
 10
121.1155466193
 20
292.1160782789
 30
0.0
 10
121.1291275512
 20
291.8510606928
 30
0.0
 10
121.1291275512
 20
291.7023798757
 30
0.0
  0
SPLINE
  5
30B
100
AcDbEntity
  8
0
100
AcDbSpline
 62
7
  6
BYLAYER
 70
0
 71
3
 72
13
 73
9
 74
0
 42
0.0000001
 43
0.0000001
 44
0.0000000001
 40
0.0
 40
0.0
 40
0.0
 40
0.0
 40
0.1362989724
 40
0.2664861012
 40
0.3927988047
 40
0.5168509912
 40
0.7602238437
 40
1.0
 40
1.0
 40
1.0
 40
1.0
 10
237.398841988
 20
148.2045862846
 30
0.0
 10
237.5435371911
 20
148.2633156886
 30
0.0
 10
237.8135858281
 20
148.4141214218
 30
0.0
 10
238.1422604052
 20
148.7273002202
 30
0.0
 10
238.389888487
 20
149.0889785898
 30
0.0
 10
238.6376119993
 20
149.5990805155
 30
0.0
 10
238.8302169647
 20
150.2731122301
 30
0.0
 10
238.8812302456
 20
150.8276648874
 30
0.0
 10
238.8812302456
 20
151.10237985
 30
0.0
  0
SPLINE
  5
30C
100
AcDbEntity
  8
0
100
AcDbSpline
 62
7
  6
BYLAYER
 70
0
 71
3
 72
12
 73
8
 74
0
 42
0.0000001
 43
0.0000001
 44
0.0000000001
 40
0.0
 40
0.0
 40
0.0
 40
0.0
 40
0.301515829
 40
0.535842545
 40
0.6412507055
 40
0.7494423995
 40
1.0
 40
1.0
 40
1.0
 40
1.0
 10
133.1291275512
 20
291.7023798757
 30
0.0
 10
133.1291275512
 20
291.8510606931
 30
0.0
 10
133.1427084187
 20
292.1160782826
 30
0.0
 10
133.2603859796
 20
292.4223455856
 30
0.0
 10
133.4217791014
 20
292.5781358436
 30
0.0
 10
133.6278927881
 20
292.6836596829
 30
0.0
 10
133.8094223819
 20
292.7023798757
 30
0.0
 10
133.9329751285
 20
292.7023798757
 30
0.0
  0
SPLINE
  5
30D
100
AcDbEntity
  8
0
100
AcDbSpline
 62
7
  6
BYLAYER
 70
0
 71
3
 72
12
 73
8
 74
0
 42
0.0000001
 43
0.0000001
 44
0.0000000001
 40
0.0
 40
0.0
 40
0.0
 40
0.0
 40
0.2505576165
 40
0.3587493037
 40
0.4641574522
 40
0.6984841672
 40
1.0
 40
1.0
 40
1.0
 40
1.0
 10
168.325279974
 20
292.7023798757
 30
0.0
 10
168.4488327267
 20
292.7023798757
 30
0.0
 10
168.6303623259
 20
292.6836597041
 30
0.0
 10
168.836476006
 20
292.5781358513
 30
0.0
 10
168.997869075
 20
292.4223455579
 30
0.0
 10
169.1155466193
 20
292.1160782789
 30
0.0
 10
169.1291275512
 20
291.8510606928
 30
0.0
 10
169.1291275512
 20
291.7023798757
 30
0.0
  0
SPLINE
  5
30E
100
AcDbEntity
  8
0
100
AcDbSpline
 62
7
  6
BYLAYER
 70
0
 71
3
 72
12
 73
8
 74
0
 42
0.0000001
 43
0.0000001
 44
0.0000000001
 40
0.0
 40
0.0
 40
0.0
 40
0.0
 40
0.2505769749
 40
0.3587772707
 40
0.4641898695
 40
0.6984952847
 40
1.0
 40
1.0
 40
1.0
 40
1.0
 10
181.9329751285
 20
292.7023798757
 30
0.0
 10
181.8094130348
 20
292.7023798757
 30
0.0
 10
181.6278567285
 20
292.6836441003
 30
0.0
 10
181.4217759591
 20
292.5780443935
 30
0.0
 10
181.2603114098
 20
292.4223421682
 30
0.0
 10
181.1426477863
 20
292.1160490332
 30
0.0
 10
181.1291275512
 20
291.851054964
 30
0.0
 10
181.1291275512
 20
291.7023798757
 30
0.0
  0
SPLINE
  5
30F
100
AcDbEntity
  8
0
100
AcDbSpline
 62
7
  6
BYLAYER
 70
0
 71
3
 72
12
 73
8
 74
0
 42
0.0000001
 43
0.0000001
 44
0.0000000001
 40
0.0
 40
0.0
 40
0.0
 40
0.0
 40
0.2505576165
 40
0.3587493037
 40
0.4641574522
 40
0.6984841672
 40
1.0
 40
1.0
 40
1.0
 40
1.0
 10
216.325279974
 20
292.7023798757
 30
0.0
 10
216.4488327267
 20
292.7023798757
 30
0.0
 10
216.6303623259
 20
292.6836597041
 30
0.0
 10
216.836476006
 20
292.5781358513
 30
0.0
 10
216.997869075
 20
292.4223455579
 30
0.0
 10
217.1155466193
 20
292.1160782789
 30
0.0
 10
217.1291275512
 20
291.8510606928
 30
0.0
 10
217.1291275512
 20
291.7023798757
 30
0.0
  0
SPLINE
  5
310
100
AcDbEntity
  8
0
100
AcDbSpline
 62
7
  6
BYLAYER
 70
0
 71
3
 72
22
 73
18
 74
0
 42
0.0000001
 43
0.0000001
 44
0.0000000001
 40
0.0
 40
0.0
 40
0.0
 40
0.0
 40
0.0020664057
 40
0.0076227222
 40
0.0165505847
 40
0.0287249215
 40
0.0439982822
 40
0.0621511191
 40
0.1061566948
 40
0.1589053718
 40
0.2188457128
 40
0.2845514729
 40
0.3548273389
 40
0.5057056172
 40
0.6659003471
 40
0.8317248153
 40
1.0
 40
1.0
 40
1.0
 40
1.0
 10
78.879847826
 20
194.7023802772
 30
0.0
 10
78.8846844807
 20
194.7023802699
 30
0.0
 10
78.896625933
 20
194.7198954401
 30
0.0
 10
78.9264051915
 20
194.7410147673
 30
0.0
 10
78.9708248433
 20
194.7869047257
 30
0.0
 10
79.03236851
 20
194.8448606208
 30
0.0
 10
79.1086858197
 20
194.9198078469
 30
0.0
 10
79.238182104
 20
195.0464572206
 30
0.0
 10
79.4296719355
 20
195.2354081668
 30
0.0
 10
79.690298809
 20
195.4934167572
 30
0.0
 10
79.9865480417
 20
195.7876856027
 30
0.0
 10
80.3115482886
 20
196.1112063902
 30
0.0
 10
80.7869756491
 20
196.5853219416
 30
0.0
 10
81.4183244898
 20
197.2162853606
 30
0.0
 10
82.2070756251
 20
198.0061248544
 30
0.0
 10
83.024005577
 20
198.8253698556
 30
0.0
 10
83.5757665268
 20
199.3795183363
 30
0.0
 10
83.8535477966
 20
199.6587471982
 30
0.0
  0
SPLINE
  5
311
100
AcDbEntity
  8
0
100
AcDbSpline
 62
7
  6
BYLAYER
 70
0
 71
3
 72
14
 73
10
 74
0
 42
0.0000001
 43
0.0000001
 44
0.0000000001
 40
0.0
 40
0.0
 40
0.0
 40
0.0
 40
0.1180849365
 40
0.223111203
 40
0.3216440736
 40
0.4240034197
 40
0.5396872873
 40
0.6739174324
 40
1.0
 40
1.0
 40
1.0
 40
1.0
 10
217.015870281
 20
194.7023798757
 30
0.0
 10
217.1279698572
 20
194.7023798757
 30
0.0
 10
217.3404836176
 20
194.7169329323
 30
0.0
 10
217.6367890354
 20
194.8048296756
 30
0.0
 10
217.8800180055
 20
194.9734590191
 30
0.0
 10
218.0592948164
 20
195.22069589
 30
0.0
 10
218.1766777884
 20
195.5367346669
 30
0.0
 10
218.2751357784
 20
196.076181398
 30
0.0
 10
218.2808617838
 20
196.5153589445
 30
0.0
 10
218.2781604459
 20
196.824901608
 30
0.0
  0
SPLINE
  5
312
100
AcDbEntity
  8
0
100
AcDbSpline
 62
7
  6
BYLAYER
 70
0
 71
3
 72
14
 73
10
 74
0
 42
0.0000001
 43
0.0000001
 44
0.0000000001
 40
0.0
 40
0.0
 40
0.0
 40
0.0
 40
0.118090721
 40
0.2231326537
 40
0.3216661955
 40
0.4240152189
 40
0.5396791232
 40
0.6739049728
 40
1.0
 40
1.0
 40
1.0
 40
1.0
 10
85.2423848583
 20
194.7023798757
 30
0.0
 10
85.1302846619
 20
194.7023798736
 30
0.0
 10
84.9177631272
 20
194.7169740443
 30
0.0
 10
84.6214487088
 20
194.8048529815
 30
0.0
 10
84.3782228774
 20
194.9734939912
 30
0.0
 10
84.1990713447
 20
195.2207747031
 30
0.0
 10
84.0817789908
 20
195.5367901697
 30
0.0
 10
83.9834038047
 20
196.076207661
 30
0.0
 10
83.9773933298
 20
196.5153602621
 30
0.0
 10
83.9800946535
 20
196.8249013029
 30
0.0
  0
SPLINE
  5
313
100
AcDbEntity
  8
0
100
AcDbSpline
 62
7
  6
BYLAYER
 70
0
 71
3
 72
22
 73
18
 74
0
 42
0.0000001
 43
0.0000001
 44
0.0000000001
 40
0.0
 40
0.0
 40
0.0
 40
0.0
 40
0.1682749185
 40
0.3340992943
 40
0.49429415
 40
0.6451723434
 40
0.7154481705
 40
0.7811539859
 40
0.8410943111
 40
0.8938415848
 40
0.9378447424
 40
0.9559969024
 40
0.971270447
 40
0.9834459505
 40
0.9923753905
 40
0.9979330684
 40
1.0
 40
1.0
 40
1.0
 40
1.0
 10
218.404707306
 20
199.6587471982
 30
0.0
 10
218.68248809
 20
199.3795188245
 30
0.0
 10
219.2342511994
 20
198.8253738608
 30
0.0
 10
220.0511807446
 20
198.0061295014
 30
0.0
 10
220.83992157
 20
197.2162801436
 30
0.0
 10
221.471272804
 20
196.5853193133
 30
0.0
 10
221.9467050895
 20
196.1112090867
 30
0.0
 10
222.2717068377
 20
195.7876899148
 30
0.0
 10
222.5679552847
 20
195.4934249041
 30
0.0
 10
222.8285823808
 20
195.2354293812
 30
0.0
 10
223.0200776425
 20
195.0464989871
 30
0.0
 10
223.1495748902
 20
194.9198604064
 30
0.0
 10
223.2258932249
 20
194.8449119255
 30
0.0
 10
223.2874362168
 20
194.7869458332
 30
0.0
 10
223.3318524679
 20
194.7410374748
 30
0.0
 10
223.3616319719
 20
194.7199085113
 30
0.0
 10
223.373569384
 20
194.7023798757
 30
0.0
 10
223.3784072689
 20
194.7023798757
 30
0.0
  0
SPLINE
  5
314
100
AcDbEntity
  8
0
100
AcDbSpline
 62
7
  6
BYLAYER
 70
0
 71
3
 72
10
 73
6
 74
0
 42
0.0000001
 43
0.0000001
 44
0.0000000001
 40
0.0
 40
0.0
 40
0.0
 40
0.0
 40
0.2633751952
 40
0.5325047005
 40
1.0
 40
1.0
 40
1.0
 40
1.0
 10
181.0709088901
 20
195.1980163633
 30
0.0
 10
181.0704472895
 20
195.1358059775
 30
0.0
 10
181.0463393309
 20
195.009797596
 30
0.0
 10
180.9374629198
 20
194.7968775359
 30
0.0
 10
180.7584530632
 20
194.7023904661
 30
0.0
 10
180.6480255665
 20
194.7023981633
 30
0.0
  0
SPLINE
  5
315
100
AcDbEntity
  8
0
100
AcDbSpline
 62
7
  6
BYLAYER
 70
0
 71
3
 72
13
 73
9
 74
0
 42
0.0000001
 43
0.0000001
 44
0.0000000001
 40
0.0
 40
0.0
 40
0.0
 40
0.0
 40
0.1885353031
 40
0.2806742576
 40
0.3859675575
 40
0.5116261717
 40
0.6582462996
 40
1.0
 40
1.0
 40
1.0
 40
1.0
 10
181.0708827867
 20
195.198016608
 30
0.0
 10
180.8712952225
 20
195.2027830495
 30
0.0
 10
180.5549029935
 20
195.2737554911
 30
0.0
 10
180.2728728543
 20
195.583080011
 30
0.0
 10
180.1323300903
 20
195.8991062172
 30
0.0
 10
180.048214951
 20
196.2915714179
 30
0.0
 10
179.9853802453
 20
196.9394097204
 30
0.0
 10
179.9856141203
 20
197.4573666852
 30
0.0
 10
179.9887721503
 20
197.8192439446
 30
0.0
  0
SPLINE
  5
316
100
AcDbEntity
  8
0
100
AcDbSpline
 62
7
  6
BYLAYER
 70
0
 71
3
 72
10
 73
6
 74
0
 42
0.0000001
 43
0.0000001
 44
0.0000000001
 40
0.0
 40
0.0
 40
0.0
 40
0.0
 40
0.3659498979
 40
0.6728498731
 40
1.0
 40
1.0
 40
1.0
 40
1.0
 10
179.9887654468
 20
197.8192275585
 30
0.0
 10
179.9881684735
 20
197.7501366562
 30
0.0
 10
179.8469978005
 20
197.6621819443
 30
0.0
 10
179.672776612
 20
197.6254219724
 30
0.0
 10
179.5505598943
 20
197.61438357
 30
0.0
 10
179.4887936364
 20
197.6148280971
 30
0.0
  0
SPLINE
  5
317
100
AcDbEntity
  8
0
100
AcDbSpline
 62
7
  6
BYLAYER
 70
0
 71
3
 72
14
 73
10
 74
0
 42
0.0000001
 43
0.0000001
 44
0.0000000001
 40
0.0
 40
0.0
 40
0.0
 40
0.0
 40
0.3501265778
 40
0.4968748972
 40
0.6216433299
 40
0.7259869779
 40
0.8165865359
 40
0.9046496227
 40
1.0
 40
1.0
 40
1.0
 40
1.0
 10
179.4887931331
 20
197.6147602248
 30
0.0
 10
179.4777436353
 20
197.2051716513
 30
0.0
 10
179.4854146011
 20
196.6224710756
 30
0.0
 10
179.5574202164
 20
195.8980594951
 30
0.0
 10
179.6480750152
 20
195.4660533281
 30
0.0
 10
179.7978713549
 20
195.1189444769
 30
0.0
 10
180.0225485661
 20
194.8649642494
 30
0.0
 10
180.3199576128
 20
194.7256757199
 30
0.0
 10
180.5364409524
 20
194.7023798518
 30
0.0
 10
180.6480252654
 20
194.7023798757
 30
0.0
  0
SPLINE
  5
318
100
AcDbEntity
  8
0
100
AcDbSpline
 62
7
  6
BYLAYER
 70
0
 71
3
 72
14
 73
10
 74
0
 42
0.0000001
 43
0.0000001
 44
0.0000000001
 40
0.0
 40
0.0
 40
0.0
 40
0.0
 40
0.0194712315
 40
0.0763333802
 40
0.1685173844
 40
0.2928192927
 40
0.4443333151
 40
0.6178249919
 40
1.0
 40
1.0
 40
1.0
 40
1.0
 10
180.1291275468
 20
213.9023793679
 30
0.0
 10
180.1291561759
 20
213.9056246149
 30
0.0
 10
180.1086657425
 20
213.8997002556
 30
0.0
 10
180.0879108617
 20
213.9061598086
 30
0.0
 10
180.0383168047
 20
213.90310082
 30
0.0
 10
179.9786732006
 20
213.9045769619
 30
0.0
 10
179.9031740875
 20
213.9039519225
 30
0.0
 10
179.7855631406
 20
213.9037137941
 30
0.0
 10
179.6928428103
 20
213.9029877987
 30
0.0
 10
179.6291465848
 20
213.9023793199
 30
0.0
  0
SPLINE
  5
319
100
AcDbEntity
  8
0
100
AcDbSpline
 62
7
  6
BYLAYER
 70
0
 71
3
 72
14
 73
10
 74
0
 42
0.0000001
 43
0.0000001
 44
0.0000000001
 40
0.0
 40
0.0
 40
0.0
 40
0.0
 40
0.3821463118
 40
0.5556218523
 40
0.7071239014
 40
0.8314232264
 40
0.9236190704
 40
0.9805051823
 40
1.0
 40
1.0
 40
1.0
 40
1.0
 10
179.5048442901
 20
199.6587471566
 30
0.0
 10
179.5685359108
 20
199.6581913706
 30
0.0
 10
179.6612461974
 20
199.6574450164
 30
0.0
 10
179.7788513286
 20
199.6571621893
 30
0.0
 10
179.8543346324
 20
199.6565194944
 30
0.0
 10
179.9140059943
 20
199.658021335
 30
0.0
 10
179.963538189
 20
199.6549447941
 30
0.0
 10
179.9844216867
 20
199.6615191433
 30
0.0
 10
180.0047972346
 20
199.6554979923
 30
0.0
 10
180.0048252517
 20
199.6587471606
 30
0.0
  0
SPLINE
  5
31A
100
AcDbEntity
  8
0
100
AcDbSpline
 62
7
  6
BYLAYER
 70
0
 71
3
 72
14
 73
10
 74
0
 42
0.0000001
 43
0.0000001
 44
0.0000000001
 40
0.0
 40
0.0
 40
0.0
 40
0.0
 40
0.0194659035
 40
0.0762718974
 40
0.1683093271
 40
0.2923568886
 40
0.4437914841
 40
0.6175262876
 40
1.0
 40
1.0
 40
1.0
 40
1.0
 10
170.2534300767
 20
199.6587213039
 30
0.0
 10
170.2534448387
 20
199.6554768739
 30
0.0
 10
170.2738242285
 20
199.6615067762
 30
0.0
 10
170.2946431614
 20
199.6549343503
 30
0.0
 10
170.3441033695
 20
199.6580327392
 30
0.0
 10
170.4036907801
 20
199.6565529226
 30
0.0
 10
170.4791665657
 20
199.6571856103
 30
0.0
 10
170.5968566925
 20
199.6573481107
 30
0.0
 10
170.6896662446
 20
199.6580296919
 30
0.0
 10
170.7534112709
 20
199.6586946047
 30
0.0
  0
SPLINE
  5
31B
100
AcDbEntity
  8
0
100
AcDbSpline
 62
7
  6
BYLAYER
 70
0
 71
3
 72
13
 73
9
 74
0
 42
0.0000001
 43
0.0000001
 44
0.0000000001
 40
0.0
 40
0.0
 40
0.0
 40
0.0
 40
0.3417394695
 40
0.488342183
 40
0.6139912282
 40
0.7192987481
 40
0.8114742792
 40
1.0
 40
1.0
 40
1.0
 40
1.0
 10
170.2694824415
 20
197.8193024642
 30
0.0
 10
170.2726403625
 20
197.4574405599
 30
0.0
 10
170.2728918244
 20
196.9395156726
 30
0.0
 10
170.2100067803
 20
196.2917260013
 30
0.0
 10
170.1258727346
 20
195.8992799273
 30
0.0
 10
169.9853030457
 20
195.5832184434
 30
0.0
 10
169.703448363
 20
195.2737656764
 30
0.0
 10
169.3869623864
 20
195.2023480579
 30
0.0
 10
169.1873752154
 20
195.198016608
 30
0.0
  0
SPLINE
  5
31C
100
AcDbEntity
  8
0
100
AcDbSpline
 62
7
  6
BYLAYER
 70
0
 71
3
 72
10
 73
6
 74
0
 42
0.0000001
 43
0.0000001
 44
0.0000000001
 40
0.0
 40
0.0
 40
0.0
 40
0.0
 40
0.2633729229
 40
0.5325014736
 40
1.0
 40
1.0
 40
1.0
 40
1.0
 10
169.1873602104
 20
195.1980164709
 30
0.0
 10
169.1878207615
 20
195.135806918
 30
0.0
 10
169.2119258028
 20
195.0097994649
 30
0.0
 10
169.3207968752
 20
194.7968781524
 30
0.0
 10
169.4998033709
 20
194.7023860486
 30
0.0
 10
169.6102310902
 20
194.7023903853
 30
0.0
  0
SPLINE
  5
31D
100
AcDbEntity
  8
0
100
AcDbSpline
 62
7
  6
BYLAYER
 70
0
 71
3
 72
13
 73
9
 74
0
 42
0.0000001
 43
0.0000001
 44
0.0000000001
 40
0.0
 40
0.0
 40
0.0
 40
0.0
 40
0.0963234993
 40
0.1840735571
 40
0.3769747372
 40
0.5021001503
 40
0.649119045
 40
1.0
 40
1.0
 40
1.0
 40
1.0
 10
169.6102303073
 20
194.7023798757
 30
0.0
 10
169.7226489123
 20
194.7023780424
 30
0.0
 10
169.9392971994
 20
194.7246757948
 30
0.0
 10
170.3481145967
 20
194.9178886285
 30
0.0
 10
170.5908913054
 20
195.3682758186
 30
0.0
 10
170.7012347906
 20
195.8960845916
 30
0.0
 10
170.7733940106
 20
196.6222814305
 30
0.0
 10
170.7726476871
 20
197.2035238219
 30
0.0
 10
170.7694296228
 20
197.6130223329
 30
0.0
  0
SPLINE
  5
31E
100
AcDbEntity
  8
0
100
AcDbSpline
 62
7
  6
BYLAYER
 70
0
 71
3
 72
10
 73
6
 74
0
 42
0.0000001
 43
0.0000001
 44
0.0000000001
 40
0.0
 40
0.0
 40
0.0
 40
0.0
 40
0.4674985419
 40
0.7366270898
 40
1.0
 40
1.0
 40
1.0
 40
1.0
 10
121.6102316506
 20
194.7023903853
 30
0.0
 10
121.4998039204
 20
194.7023860485
 30
0.0
 10
121.3207974095
 20
194.7968781475
 30
0.0
 10
121.2119263064
 20
195.0097994614
 30
0.0
 10
121.1878212519
 20
195.1358069171
 30
0.0
 10
121.1873606957
 20
195.1980164709
 30
0.0
  0
SPLINE
  5
31F
100
AcDbEntity
  8
0
100
AcDbSpline
 62
7
  6
BYLAYER
 70
0
 71
3
 72
10
 73
6
 74
0
 42
0.0000001
 43
0.0000001
 44
0.0000000001
 40
0.0
 40
0.0
 40
0.0
 40
0.0
 40
0.3374750061
 40
0.6341213931
 40
1.0
 40
1.0
 40
1.0
 40
1.0
 10
170.7694150337
 20
197.6148826318
 30
0.0
 10
170.7056872826
 20
197.6144162482
 30
0.0
 10
170.5832040411
 20
197.6244928771
 30
0.0
 10
170.4092953541
 20
197.6637807757
 30
0.0
 10
170.2701090655
 20
197.7501896777
 30
0.0
 10
170.2695085272
 20
197.8192803185
 30
0.0
  0
SPLINE
  5
320
100
AcDbEntity
  8
0
100
AcDbSpline
 62
7
  6
BYLAYER
 70
0
 71
3
 72
14
 73
10
 74
0
 42
0.0000001
 43
0.0000001
 44
0.0000000001
 40
0.0
 40
0.0
 40
0.0
 40
0.0
 40
0.3824765675
 40
0.5562146575
 40
0.7076488639
 40
0.8316934689
 40
0.923728786
 40
0.9805331757
 40
1.0
 40
1.0
 40
1.0
 40
1.0
 10
122.7534111203
 20
199.6587118654
 30
0.0
 10
122.6896654563
 20
199.6580469443
 30
0.0
 10
122.5968547737
 20
199.6573545588
 30
0.0
 10
122.479163344
 20
199.6571803496
 30
0.0
 10
122.4036875574
 20
199.6565486896
 30
0.0
 10
122.3441003553
 20
199.6580288004
 30
0.0
 10
122.2946424976
 20
199.6549460292
 30
0.0
 10
122.2738216784
 20
199.6615077499
 30
0.0
 10
122.2534448082
 20
199.6555027453
 30
0.0
 10
122.2534298496
 20
199.6587473362
 30
0.0
  0
SPLINE
  5
321
100
AcDbEntity
  8
0
100
AcDbSpline
 62
7
  6
BYLAYER
 70
0
 71
3
 72
13
 73
9
 74
0
 42
0.0000001
 43
0.0000001
 44
0.0000000001
 40
0.0
 40
0.0
 40
0.0
 40
0.0
 40
0.3417394695
 40
0.4883421829
 40
0.6139912281
 40
0.719298748
 40
0.8114742791
 40
1.0
 40
1.0
 40
1.0
 40
1.0
 10
122.2694824415
 20
197.8193024642
 30
0.0
 10
122.2726403625
 20
197.4574405596
 30
0.0
 10
122.2728918244
 20
196.9395156719
 30
0.0
 10
122.2100067801
 20
196.2917260002
 30
0.0
 10
122.1258727342
 20
195.8992799261
 30
0.0
 10
121.985303045
 20
195.5832184422
 30
0.0
 10
121.7034483614
 20
195.2737656754
 30
0.0
 10
121.3869623843
 20
195.2023480577
 30
0.0
 10
121.187375213
 20
195.198016608
 30
0.0
  0
SPLINE
  5
322
100
AcDbEntity
  8
0
100
AcDbSpline
 62
7
  6
BYLAYER
 70
0
 71
3
 72
13
 73
9
 74
0
 42
0.0000001
 43
0.0000001
 44
0.0000000001
 40
0.0
 40
0.0
 40
0.0
 40
0.0
 40
0.0963234989
 40
0.184073554
 40
0.3769747266
 40
0.5021001374
 40
0.6491190324
 40
1.0
 40
1.0
 40
1.0
 40
1.0
 10
121.6102300628
 20
194.7023798757
 30
0.0
 10
121.7226486746
 20
194.7023780349
 30
0.0
 10
121.9392969704
 20
194.7246757481
 30
0.0
 10
122.3481144459
 20
194.9178884576
 30
0.0
 10
122.5908912507
 20
195.3682756404
 30
0.0
 10
122.7012347698
 20
195.8960844295
 30
0.0
 10
122.7733940111
 20
196.622281327
 30
0.0
 10
122.7726476872
 20
197.2035237709
 30
0.0
 10
122.7694296226
 20
197.6130223229
 30
0.0
  0
SPLINE
  5
323
100
AcDbEntity
  8
0
100
AcDbSpline
 62
7
  6
BYLAYER
 70
0
 71
3
 72
10
 73
6
 74
0
 42
0.0000001
 43
0.0000001
 44
0.0000000001
 40
0.0
 40
0.0
 40
0.0
 40
0.0
 40
0.3374750061
 40
0.6341213931
 40
1.0
 40
1.0
 40
1.0
 40
1.0
 10
122.7694150335
 20
197.6148826318
 30
0.0
 10
122.7056872824
 20
197.6144162482
 30
0.0
 10
122.5832040409
 20
197.6244928771
 30
0.0
 10
122.409295354
 20
197.6637807758
 30
0.0
 10
122.2701090655
 20
197.7501896778
 30
0.0
 10
122.2695085272
 20
197.8192803185
 30
0.0
  0
SPLINE
  5
324
100
AcDbEntity
  8
0
100
AcDbSpline
 62
7
  6
BYLAYER
 70
0
 71
3
 72
12
 73
8
 74
0
 42
0.0000001
 43
0.0000001
 44
0.0000000001
 40
0.0
 40
0.0
 40
0.0
 40
0.0
 40
0.1084304409
 40
0.1976525593
 40
0.3135174409
 40
0.621715547
 40
1.0
 40
1.0
 40
1.0
 40
1.0
 10
229.8812302411
 20
145.1023798757
 30
0.0
 10
229.8425276826
 20
145.1023502787
 30
0.0
 10
229.7839578602
 20
145.1646168576
 30
0.0
 10
229.7381670792
 20
145.2624926621
 30
0.0
 10
229.680829935
 20
145.4389289936
 30
0.0
 10
229.6386404485
 20
145.7221979324
 30
0.0
 10
229.6223463773
 20
145.9673571033
 30
0.0
 10
229.6224111962
 20
146.1023798757
 30
0.0
  0
SPLINE
  5
325
100
AcDbEntity
  8
0
100
AcDbSpline
 62
7
  6
BYLAYER
 70
0
 71
3
 72
14
 73
10
 74
0
 42
0.0000001
 43
0.0000001
 44
0.0000000001
 40
0.0
 40
0.0
 40
0.0
 40
0.0
 40
0.0194713822
 40
0.0763336341
 40
0.1685176939
 40
0.2928196081
 40
0.4443335935
 40
0.6178251987
 40
1.0
 40
1.0
 40
1.0
 40
1.0
 10
122.1291275557
 20
213.902380379
 30
0.0
 10
122.1290992375
 20
213.8991351042
 30
0.0
 10
122.1495890028
 20
213.9050595303
 30
0.0
 10
122.1703446304
 20
213.8985999422
 30
0.0
 10
122.2199383248
 20
213.9016589441
 30
0.0
 10
122.2795820977
 20
213.9001827897
 30
0.0
 10
122.3550811336
 20
213.9008078183
 30
0.0
 10
122.4726920529
 20
213.9010459229
 30
0.0
 10
122.565412326
 20
213.901771896
 30
0.0
 10
122.629108517
 20
213.9023803562
 30
0.0
  0
SPLINE
  5
326
100
AcDbEntity
  8
0
100
AcDbSpline
 62
7
  6
BYLAYER
 70
0
 71
3
 72
14
 73
10
 74
0
 42
0.0000001
 43
0.0000001
 44
0.0000000001
 40
0.0
 40
0.0
 40
0.0
 40
0.0
 40
0.0194712314
 40
0.0763333802
 40
0.1685173844
 40
0.2928192926
 40
0.444333315
 40
0.6178249919
 40
1.0
 40
1.0
 40
1.0
 40
1.0
 10
132.1291275468
 20
213.9023793679
 30
0.0
 10
132.129156176
 20
213.9056246149
 30
0.0
 10
132.1086657424
 20
213.8997002556
 30
0.0
 10
132.0879108618
 20
213.9061598086
 30
0.0
 10
132.0383168047
 20
213.90310082
 30
0.0
 10
131.9786732006
 20
213.9045769619
 30
0.0
 10
131.9031740875
 20
213.9039519225
 30
0.0
 10
131.7855631406
 20
213.9037137941
 30
0.0
 10
131.6928428103
 20
213.9029877987
 30
0.0
 10
131.6291465848
 20
213.9023793199
 30
0.0
  0
SPLINE
  5
327
100
AcDbEntity
  8
0
100
AcDbSpline
 62
7
  6
BYLAYER
 70
0
 71
3
 72
14
 73
10
 74
0
 42
0.0000001
 43
0.0000001
 44
0.0000000001
 40
0.0
 40
0.0
 40
0.0
 40
0.0
 40
0.0194935977
 40
0.0763790916
 40
0.1685748532
 40
0.2928742694
 40
0.444376629
 40
0.6178528057
 40
1.0
 40
1.0
 40
1.0
 40
1.0
 10
132.0048251536
 20
199.6587359133
 30
0.0
 10
132.0047971408
 20
199.6554869524
 30
0.0
 10
131.9844211338
 20
199.6615207012
 30
0.0
 10
131.9635388109
 20
199.6549406616
 30
0.0
 10
131.9140062396
 20
199.6580238791
 30
0.0
 10
131.8543351296
 20
199.6565202664
 30
0.0
 10
131.7788516617
 20
199.6571628814
 30
0.0
 10
131.6612463991
 20
199.6574433829
 30
0.0
 10
131.5685359454
 20
199.658187534
 30
0.0
 10
131.5048442371
 20
199.6587410834
 30
0.0
  0
SPLINE
  5
328
100
AcDbEntity
  8
0
100
AcDbSpline
 62
7
  6
BYLAYER
 70
0
 71
3
 72
13
 73
9
 74
0
 42
0.0000001
 43
0.0000001
 44
0.0000000001
 40
0.0
 40
0.0
 40
0.0
 40
0.0
 40
0.1885353031
 40
0.2806742576
 40
0.3859675575
 40
0.5116261717
 40
0.6582462996
 40
1.0
 40
1.0
 40
1.0
 40
1.0
 10
133.0708827867
 20
195.198016608
 30
0.0
 10
132.8712952225
 20
195.2027830495
 30
0.0
 10
132.5549029935
 20
195.2737554911
 30
0.0
 10
132.2728728543
 20
195.583080011
 30
0.0
 10
132.1323300903
 20
195.8991062172
 30
0.0
 10
132.048214951
 20
196.2915714179
 30
0.0
 10
131.9853802453
 20
196.9394097204
 30
0.0
 10
131.9856141203
 20
197.4573666852
 30
0.0
 10
131.9887721503
 20
197.8192439446
 30
0.0
  0
SPLINE
  5
329
100
AcDbEntity
  8
0
100
AcDbSpline
 62
7
  6
BYLAYER
 70
0
 71
3
 72
10
 73
6
 74
0
 42
0.0000001
 43
0.0000001
 44
0.0000000001
 40
0.0
 40
0.0
 40
0.0
 40
0.0
 40
0.3659498979
 40
0.6728498731
 40
1.0
 40
1.0
 40
1.0
 40
1.0
 10
131.9887654468
 20
197.8192275585
 30
0.0
 10
131.9881684735
 20
197.7501366563
 30
0.0
 10
131.8469978006
 20
197.6621819443
 30
0.0
 10
131.672776612
 20
197.6254219724
 30
0.0
 10
131.5505598944
 20
197.61438357
 30
0.0
 10
131.4887936365
 20
197.6148280971
 30
0.0
  0
SPLINE
  5
32A
100
AcDbEntity
  8
0
100
AcDbSpline
 62
7
  6
BYLAYER
 70
0
 71
3
 72
14
 73
10
 74
0
 42
0.0000001
 43
0.0000001
 44
0.0000000001
 40
0.0
 40
0.0
 40
0.0
 40
0.0
 40
0.3501265784
 40
0.4968748977
 40
0.6216433301
 40
0.7259869777
 40
0.8165865355
 40
0.9046496226
 40
1.0
 40
1.0
 40
1.0
 40
1.0
 10
131.4887931332
 20
197.6147602224
 30
0.0
 10
131.4777436353
 20
197.2051716463
 30
0.0
 10
131.4854146012
 20
196.6224710672
 30
0.0
 10
131.557420218
 20
195.8980594832
 30
0.0
 10
131.6480750188
 20
195.4660533153
 30
0.0
 10
131.7978713621
 20
195.1189444645
 30
0.0
 10
132.0225485787
 20
194.8649642396
 30
0.0
 10
132.3199576298
 20
194.7256757153
 30
0.0
 10
132.5364409712
 20
194.7023798501
 30
0.0
 10
132.6480252847
 20
194.7023798757
 30
0.0
  0
SPLINE
  5
32B
100
AcDbEntity
  8
0
100
AcDbSpline
 62
7
  6
BYLAYER
 70
0
 71
3
 72
10
 73
6
 74
0
 42
0.0000001
 43
0.0000001
 44
0.0000000001
 40
0.0
 40
0.0
 40
0.0
 40
0.0
 40
0.2633751952
 40
0.5325047005
 40
1.0
 40
1.0
 40
1.0
 40
1.0
 10
133.0709088901
 20
195.1980163633
 30
0.0
 10
133.0704472895
 20
195.1358059775
 30
0.0
 10
133.0463393309
 20
195.009797596
 30
0.0
 10
132.9374629198
 20
194.7968775359
 30
0.0
 10
132.7584530632
 20
194.7023904661
 30
0.0
 10
132.6480255665
 20
194.7023981633
 30
0.0
  0
SPLINE
  5
32C
100
AcDbEntity
  8
0
100
AcDbSpline
 62
7
  6
BYLAYER
 70
0
 71
3
 72
12
 73
8
 74
0
 42
0.0000001
 43
0.0000001
 44
0.0000000001
 40
0.0
 40
0.0
 40
0.0
 40
0.0
 40
0.1155464353
 40
0.2101264205
 40
0.3308283397
 40
0.6376003197
 40
1.0
 40
1.0
 40
1.0
 40
1.0
 10
237.3987133158
 20
145.170515998
 30
0.0
 10
237.4359184699
 20
145.1804903083
 30
0.0
 10
237.474367837
 20
145.2571718104
 30
0.0
 10
237.4899944588
 20
145.3621218014
 30
0.0
 10
237.499355467
 20
145.538095614
 30
0.0
 10
237.4719808802
 20
145.7999927301
 30
0.0
 10
237.4279862121
 20
146.0192214519
 30
0.0
 10
237.3988136961
 20
146.1364571873
 30
0.0
  0
SPLINE
  5
32D
100
AcDbEntity
  8
0
100
AcDbSpline
 62
7
  6
BYLAYER
 70
0
 71
3
 72
9
 73
5
 74
0
 42
0.0000001
 43
0.0000001
 44
0.0000000001
 40
0.0
 40
0.0
 40
0.0
 40
0.0
 40
0.537865856
 40
1.0
 40
1.0
 40
1.0
 40
1.0
 10
237.1400831773
 20
146.1023798757
 30
0.0
 10
237.1680825997
 20
145.977755223
 30
0.0
 10
237.1177346022
 20
145.7354885736
 30
0.0
 10
237.0895957369
 20
145.5020481575
 30
0.0
 10
237.0642411352
 20
145.3952704942
 30
0.0
  0
SPLINE
  5
32E
100
AcDbEntity
  8
0
100
AcDbSpline
 62
7
  6
BYLAYER
 70
0
 71
3
 72
9
 73
5
 74
0
 42
0.0000001
 43
0.0000001
 44
0.0000000001
 40
0.0
 40
0.0
 40
0.0
 40
0.0
 40
0.6504885377
 40
1.0
 40
1.0
 40
1.0
 40
1.0
 10
237.0642411352
 20
145.3952704942
 30
0.0
 10
237.0463391161
 20
145.3198784296
 30
0.0
 10
237.0159362963
 20
145.2113526221
 30
0.0
 10
236.922879013
 20
145.1023796719
 30
0.0
 10
236.881244045
 20
145.1023798757
 30
0.0
  0
SPLINE
  5
32F
100
AcDbEntity
  8
0
100
AcDbSpline
 62
7
  6
BYLAYER
 70
0
 71
3
 72
12
 73
8
 74
0
 42
0.0000001
 43
0.0000001
 44
0.0000000001
 40
0.0
 40
0.0
 40
0.0
 40
0.0
 40
0.1105224204
 40
0.2076508464
 40
0.3346828895
 40
0.6558233896
 40
1.0
 40
1.0
 40
1.0
 40
1.0
 10
236.8812295308
 20
149.1023777231
 30
0.0
 10
236.8417806012
 20
149.1023777364
 30
0.0
 10
236.7808418787
 20
149.0361806255
 30
0.0
 10
236.7341052512
 20
148.930940127
 30
0.0
 10
236.6752577743
 20
148.742811168
 30
0.0
 10
236.6340227242
 20
148.4629933451
 30
0.0
 10
236.6224108341
 20
148.2252273383
 30
0.0
 10
236.6224106938
 20
148.1023798757
 30
0.0
  0
SPLINE
  5
330
100
AcDbEntity
  8
0
100
AcDbSpline
 62
7
  6
BYLAYER
 70
0
 71
3
 72
12
 73
8
 74
0
 42
0.0000001
 43
0.0000001
 44
0.0000000001
 40
0.0
 40
0.0
 40
0.0
 40
0.0
 40
0.3531380396
 40
0.6725134363
 40
0.7969075247
 40
0.891595262
 40
1.0
 40
1.0
 40
1.0
 40
1.0
 10
237.3988797026
 20
148.2046044791
 30
0.0
 10
237.3703139099
 20
148.3188637754
 30
0.0
 10
237.3258131222
 20
148.5392144731
 30
0.0
 10
237.2981304218
 20
148.8035828895
 30
0.0
 10
237.3075148344
 20
148.9851444558
 30
0.0
 10
237.3250666258
 20
149.0891123289
 30
0.0
 10
237.3639474985
 20
149.1611843152
 30
0.0
 10
237.3988698206
 20
149.1705421437
 30
0.0
  0
SPLINE
  5
331
100
AcDbEntity
  8
0
100
AcDbSpline
 62
7
  6
BYLAYER
 70
0
 71
3
 72
12
 73
8
 74
0
 42
0.0000001
 43
0.0000001
 44
0.0000000001
 40
0.0
 40
0.0
 40
0.0
 40
0.0
 40
0.3579671534
 40
0.6655609442
 40
0.7873116287
 40
0.8833081054
 40
1.0
 40
1.0
 40
1.0
 40
1.0
 10
229.6224112005
 20
148.1023798757
 30
0.0
 10
229.6224112005
 20
148.2301048886
 30
0.0
 10
229.6343179452
 20
148.4679874063
 30
0.0
 10
229.6765849093
 20
148.7455274104
 30
0.0
 10
229.732574165
 20
148.9270158918
 30
0.0
 10
229.778557726
 20
149.0320453367
 30
0.0
 10
229.8395938218
 20
149.1023798772
 30
0.0
 10
229.8812302501
 20
149.1023798757
 30
0.0
  0
SPLINE
  5
332
100
AcDbEntity
  8
0
100
AcDbSpline
 62
7
  6
BYLAYER
 70
0
 71
3
 72
14
 73
10
 74
0
 42
0.0000001
 43
0.0000001
 44
0.0000000001
 40
0.0
 40
0.0
 40
0.0
 40
0.0
 40
0.0194713822
 40
0.0763336341
 40
0.1685176939
 40
0.2928196081
 40
0.4443335935
 40
0.6178251987
 40
1.0
 40
1.0
 40
1.0
 40
1.0
 10
170.1291275557
 20
213.902380379
 30
0.0
 10
170.1290992375
 20
213.8991351042
 30
0.0
 10
170.1495890028
 20
213.9050595303
 30
0.0
 10
170.1703446304
 20
213.8985999422
 30
0.0
 10
170.2199383248
 20
213.9016589441
 30
0.0
 10
170.2795820977
 20
213.9001827897
 30
0.0
 10
170.3550811336
 20
213.9008078183
 30
0.0
 10
170.4726920529
 20
213.9010459229
 30
0.0
 10
170.565412326
 20
213.901771896
 30
0.0
 10
170.629108517
 20
213.9023803562
 30
0.0
  0
ELLIPSE
  5
333
100
AcDbEntity
  8
0
100
AcDbEllipse
 62
7
  6
BYLAYER
 10
157.1312302456
 20
73.9023798757
 30
0.0
 11
0.0
 21
1.5
 31
0.0
 40
1.0
 41
-3.1415926536
 42
-1.5707963268
  0
ELLIPSE
  5
334
100
AcDbEntity
  8
0
100
AcDbEllipse
 62
7
  6
BYLAYER
 10
157.1312302456
 20
74.9023798757
 30
0.0
 11
-0.0
 21
1.5
 31
0.0
 40
1.0
 41
-1.5707963268
 42
0.0
  0
ELLIPSE
  5
335
100
AcDbEntity
  8
0
100
AcDbEllipse
 62
7
  6
BYLAYER
 10
147.6312302456
 20
73.9023798757
 30
0.0
 11
-0.0
 21
1.5
 31
0.0
 40
1.0
 41
1.5707963268
 42
3.1415926536
  0
ELLIPSE
  5
336
100
AcDbEntity
  8
0
100
AcDbEllipse
 62
7
  6
BYLAYER
 10
147.6312302456
 20
74.9023798757
 30
0.0
 11
-0.0
 21
1.5
 31
0.0
 40
1.0
 41
-0.0
 42
1.5707963268
  0
ENDSEC
  0
SECTION
  2
OBJECTS
  0
DICTIONARY
  5
C
100
AcDbDictionary
280
0
281
1
  3
ACAD_GROUP
350
D
  3
ACAD_MLINESTYLE
350
17
  3
ACAD_LAYOUT
350
1A
  3
ACAD_PLOTSETTINGS
350
19
  3
ACAD_PLOTSTYLENAME
350
E
  0
DICTIONARY
  5
D
102
{ACAD_REACTORS
330
C
102
}
100
AcDbDictionary
280
0
281
1
  0
ACDBDICTIONARYWDFLT
  5
E
102
{ACAD_REACTORS
330
C
102
}
100
AcDbDictionary
281
1
  3
Normal
350
F
100
AcDbDictionaryWithDefault
340
F
  0
DICTIONARY
  5
17
102
{ACAD_REACTORS
330
C
102
}
100
AcDbDictionary
280
0
281
1
  3
Standard
350
18
  0
DICTIONARY
  5
19
102
{ACAD_REACTORS
330
C
102
}
100
AcDbDictionary
281
1
  0
DICTIONARY
  5
1A
102
{ACAD_REACTORS
330
C
102
}
100
AcDbDictionary
281
1
  3
Model
350
337
  3
Layout1
350
338
  0
ACDBPLACEHOLDER
  5
F
102
{ACAD_REACTORS
330
E
102
}
  0
MLINESTYLE
  5
18
102
{ACAD_REACTORS
330
17
102
}
100
AcDbMlineStyle
  2
STANDARD
 70
0
  3

 62
256
 51
90.0
 52
90.0
 71
2
 49
0.5
 62
256
  6
BYLAYER
 49
-0.5
 62
256
  6
BYLAYER
  0
LAYOUT
  5
337
102
{ACAD_REACTORS
330
1A
102
}
100
AcDbPlotSettings
  1

  2
none_device
  4

  6

 40
0.0
 41
0.0
 42
0.0
 43
0.0
 44
210.0
 45
297.0
 46
0.0
 47
0.0
 48
0.0
 49
0.0
140
0.0
141
0.0
142
1.0
143
1.0
 70
1024
 72
1
 73
0
 74
0
  7

 75
0
147
1.0
148
0.0
149
0.0
100
AcDbLayout
  1
Model
 70
0
 71
0
 10
0.0
 20
0.0
 11
210.0
 21
297.0
 12
0.0
 22
0.0
 32
0.0
 14
0.0
 24
0.0
 34
0.0
 15
0.0
 25
0.0
 35
0.0
146
0.0
 13
0.0
 23
0.0
 33
0.0
 16
1.0
 26
0.0
 36
0.0
 17
0.0
 27
1.0
 37
0.0
 76
0
330
210
345
0
346
0
  0
LAYOUT
  5
338
102
{ACAD_REACTORS
330
1A
102
}
100
AcDbPlotSettings
  1

  2
none_device
  4

  6

 40
0.0
 41
0.0
 42
0.0
 43
0.0
 44
210.0
 45
297.0
 46
0.0
 47
0.0
 48
0.0
 49
0.0
140
0.0
141
0.0
142
1.0
143
1.0
 70
0
 72
1
 73
0
 74
0
  7

 75
0
147
1.0
148
0.0
149
0.0
100
AcDbLayout
  1
Layout1
 70
0
 71
1
 10
0.0
 20
0.0
 11
210.0
 21
297.0
 12
0.0
 22
0.0
 32
0.0
 14
0.0
 24
0.0
 34
0.0
 15
0.0
 25
0.0
 35
0.0
146
0.0
 13
0.0
 23
0.0
 33
0.0
 16
1.0
 26
0.0
 36
0.0
 17
0.0
 27
1.0
 37
0.0
 76
0
330
211
345
0
346
0
  0
ENDSEC
  0
EOF
