999
DXF file: C:\Users\sesa63760\Dev\_Creo\CAD\MCADID0005868_3D-CAD\mcadid0005868_3d-simplified_6.dxf
999
Pro/ENGINEER 2019471 by Parametric Technology Corporation
  0
SECTION
  2
HEADER
  9
$ACADVER
  1
AC1024
  9
$DWGCODEPAGE
  3
ANSI_1252
  9
$EXTMAX
 10
49.7332274394
 20
70.3369930929
 30
0.0
  9
$EXTMIN
 10
0.0
 20
0.0
 30
0.0
  9
$LIMMIN
 10
0.0
 20
0.0
  9
$LIMMAX
 10
49.7332274394
 20
70.3369930929
  9
$VIEWCTR
 10
24.8666137197
 20
35.1684965464
  9
$VIEWSIZE
 40
70.3369930929
  9
$CLAYER
  8
0
  9
$LTSCALE
 40
4.5849299201
  9
$CELTYPE
  6
BYLAYER
  9
$DIMSCALE
 40
1.0
  9
$DIMASZ
 40
0.5920622314
  9
$DIMEXO
 40
1.0
  9
$DIMDLI
 40
3.167769763
  9
$DIMEXE
 40
1.0
  9
$DIMCEN
 40
0.7502612597
  9
$DIMLFAC
 40
1.0
  9
$DIMBLK
  1
_FILLED
  9
$DIMALT
 70
0
  9
$DIMALTF
 40
0.0393700787
  9
$DIMTXT
 40
0.828887124
  9
$DIMTOL
 70
1
  9
$DIMLIM
 70
0
  9
$DIMTFAC
 40
1.0
  9
$DIMTP
 40
0.01
  9
$DIMTM
 40
0.01
  9
$DIMGAP
 40
0.625
  9
$DIMDSEP
 70
46
  9
$AUNITS
 70
0
  9
$PDMODE
 70
3
  9
$PDSIZE
 40
0.3125
  9
$HANDSEED
  5
242
  9
$TILEMODE
 70
1
  9
$MEASUREMENT
 70
1
  9
$INSUNITS
 70
4
  0
ENDSEC
  0
SECTION
  2
CLASSES
  0
CLASS
  1
ACDBDICTIONARYWDFLT
  2
AcDbDictionaryWithDefault
  3
AutoCAD 2000
 90
0
 91
1
280
0
281
0
  0
CLASS
  1
ACDBPLACEHOLDER
  2
AcDbPlaceHolder
  3
AutoCAD 2000
 90
0
 91
1
280
0
281
0
  0
CLASS
  1
LAYOUT
  2
AcDbLayout
  3
AutoCAD 2000
 90
0
 91
0
280
0
281
0
  0
ENDSEC
  0
SECTION
  2
TABLES
  0
TABLE
  2
VPORT
  5
8
100
AcDbSymbolTable
 70
2
  0
VPORT
  5
1F4
100
AcDbSymbolTableRecord
100
AcDbViewportTableRecord
  2
*ACTIVE
 70
0
 10
0.0
 20
0.0
 11
1.0
 21
1.0
 12
24.8666137197
 22
35.1684965464
 13
0.0
 23
0.0
 14
1.0
 24
1.0
 15
0.0
 25
0.0
 16
0.0
 26
0.0
 36
1.0
 17
0.0
 27
0.0
 37
0.0
 40
70.3369930929
 41
0.7070707071
 42
50.0
 43
0.0
 44
0.0
 50
0.0
 51
0.0
 71
0
 72
100
 73
1
 74
1
 75
0
 76
0
 77
0
 78
0
  0
ENDTAB
  0
TABLE
  2
LTYPE
  5
5
100
AcDbSymbolTable
 70
6
  0
LTYPE
  5
14
100
AcDbSymbolTableRecord
100
AcDbLinetypeTableRecord
  2
BYBLOCK
 70
0
  3

 72
65
 73
0
 40
0.0
  0
LTYPE
  5
15
100
AcDbSymbolTableRecord
100
AcDbLinetypeTableRecord
  2
BYLAYER
 70
0
  3

 72
65
 73
0
 40
0.0
  0
LTYPE
  5
16
100
AcDbSymbolTableRecord
100
AcDbLinetypeTableRecord
  2
CONTINUOUS
 70
64
  3
Solid line
 72
65
 73
0
 40
0.0
  0
LTYPE
  5
1F5
100
AcDbSymbolTableRecord
100
AcDbLinetypeTableRecord
  2
CENTER
 70
64
  3
____ _ ____ _ ____ _ ____ _ ____ _ ____ _ ____
 72
65
 73
4
 40
0.6
 49
0.375
 74
0
 49
-0.075
 74
0
 49
0.075
 74
0
 49
-0.075
 74
0
  0
LTYPE
  5
1F6
100
AcDbSymbolTableRecord
100
AcDbLinetypeTableRecord
  2
HIDDEN
 70
64
  3
- - - - - - - - - - - - - - - - - - - -
 72
65
 73
2
 40
0.2
 49
0.1
 74
0
 49
-0.1
 74
0
  0
LTYPE
  5
1F7
100
AcDbSymbolTableRecord
100
AcDbLinetypeTableRecord
  2
PHANTOM
 70
64
  3
_____ _ _ _____ _ _ _____ _ _ _____
 72
65
 73
6
 40
0.8
 49
0.45
 74
0
 49
-0.05
 74
0
 49
0.1
 74
0
 49
-0.05
 74
0
 49
0.1
 74
0
 49
-0.05
 74
0
  0
LTYPE
  5
1F8
100
AcDbSymbolTableRecord
100
AcDbLinetypeTableRecord
  2
DOT
 70
64
  3
. . . . . . . . . . . . . . . . . . . .
 72
65
 73
2
 40
0.2
 49
0.1
 74
0
 49
-0.1
 74
0
  0
LTYPE
  5
1F9
100
AcDbSymbolTableRecord
100
AcDbLinetypeTableRecord
  2
DASHED
 70
64
  3
- - - - - - - - - - - - - - - - - - - -
 72
65
 73
2
 40
0.2
 49
0.1
 74
0
 49
-0.1
 74
0
  0
ENDTAB
  0
TABLE
  2
LAYER
  5
2
100
AcDbSymbolTable
 70
36
  0
LAYER
  5
10
100
AcDbSymbolTableRecord
100
AcDbLayerTableRecord
  2
0
 70
0
 62
7
  6
CONTINUOUS
370
-3
390
F
  0
LAYER
  5
1FA
100
AcDbSymbolTableRecord
100
AcDbLayerTableRecord
  2
DEFAULT_1
 70
0
 62
7
  6
CENTER
370
-3
390
F
  0
LAYER
  5
1FB
100
AcDbSymbolTableRecord
100
AcDbLayerTableRecord
  2
DEFAULT_2
 70
0
 62
7
  6
HIDDEN
370
-3
390
F
  0
LAYER
  5
1FC
100
AcDbSymbolTableRecord
100
AcDbLayerTableRecord
  2
DEFAULT_3
 70
0
 62
7
  6
PHANTOM
370
-3
390
F
  0
LAYER
  5
1FD
100
AcDbSymbolTableRecord
100
AcDbLayerTableRecord
  2
00_COMPONENTS
 70
0
 62
7
  6
CONTINUOUS
370
-3
390
F
  0
LAYER
  5
1FE
100
AcDbSymbolTableRecord
100
AcDbLayerTableRecord
  2
01_1_DEFAULT_DATUMS
 70
0
 62
7
  6
CONTINUOUS
370
-3
390
F
  0
LAYER
  5
1FF
100
AcDbSymbolTableRecord
100
AcDbLayerTableRecord
  2
01_PLANES
 70
0
 62
7
  6
CONTINUOUS
370
-3
390
F
  0
LAYER
  5
200
100
AcDbSymbolTableRecord
100
AcDbLayerTableRecord
  2
02_COORD_SYS
 70
0
 62
7
  6
CONTINUOUS
370
-3
390
F
  0
LAYER
  5
201
100
AcDbSymbolTableRecord
100
AcDbLayerTableRecord
  2
03_AXES
 70
0
 62
7
  6
CONTINUOUS
370
-3
390
F
  0
LAYER
  5
202
100
AcDbSymbolTableRecord
100
AcDbLayerTableRecord
  2
04_POINTS
 70
0
 62
7
  6
CONTINUOUS
370
-3
390
F
  0
LAYER
  5
203
100
AcDbSymbolTableRecord
100
AcDbLayerTableRecord
  2
05_CURVES
 70
0
 62
7
  6
CONTINUOUS
370
-3
390
F
  0
LAYER
  5
204
100
AcDbSymbolTableRecord
100
AcDbLayerTableRecord
  2
06_SURFS
 70
0
 62
7
  6
CONTINUOUS
370
-3
390
F
  0
LAYER
  5
205
100
AcDbSymbolTableRecord
100
AcDbLayerTableRecord
  2
07_COSMETICS
 70
0
 62
7
  6
CONTINUOUS
370
-3
390
F
  0
LAYER
  5
206
100
AcDbSymbolTableRecord
100
AcDbLayerTableRecord
  2
10_NOTES
 70
0
 62
7
  6
CONTINUOUS
370
-3
390
F
  0
LAYER
  5
207
100
AcDbSymbolTableRecord
100
AcDbLayerTableRecord
  2
11_NOTES_PUB
 70
0
 62
7
  6
CONTINUOUS
370
-3
390
F
  0
LAYER
  5
208
100
AcDbSymbolTableRecord
100
AcDbLayerTableRecord
  2
13_REF_GTOL
 70
0
 62
7
  6
CONTINUOUS
370
-3
390
F
  0
LAYER
  5
209
100
AcDbSymbolTableRecord
100
AcDbLayerTableRecord
  2
16_MISC
 70
0
 62
7
  6
CONTINUOUS
370
-3
390
F
  0
LAYER
  5
20A
100
AcDbSymbolTableRecord
100
AcDbLayerTableRecord
  2
17_NO_PRINT
 70
0
 62
7
  6
CONTINUOUS
370
-3
390
F
  0
LAYER
  5
20B
100
AcDbSymbolTableRecord
100
AcDbLayerTableRecord
  2
18_DATUM_CAMS_JOINTS
 70
0
 62
7
  6
CONTINUOUS
370
-3
390
F
  0
LAYER
  5
20C
100
AcDbSymbolTableRecord
100
AcDbLayerTableRecord
  2
19_DATUM_FUNCTIONAL
 70
0
 62
7
  6
CONTINUOUS
370
-3
390
F
  0
LAYER
  5
20D
100
AcDbSymbolTableRecord
100
AcDbLayerTableRecord
  2
20_DATUM_KINEMATIC_SCHEME
 70
0
 62
7
  6
CONTINUOUS
370
-3
390
F
  0
ENDTAB
  0
TABLE
  2
STYLE
  5
3
100
AcDbSymbolTable
 70
1
  0
STYLE
  5
11
100
AcDbSymbolTableRecord
100
AcDbTextStyleTableRecord
  2
STANDARD
 70
0
 40
0.0
 41
1.0
 50
0.0
 71
0
 42
0.2
  3
ARIAL.TTF
  4

  0
STYLE
  5
20E
100
AcDbSymbolTableRecord
100
AcDbTextStyleTableRecord
  2
TEXTSTYLE_1
 70
0
 40
0.0
 41
0.8
 50
0.0
 71
0
 42
0.2
  3
gdt
  4

  0
ENDTAB
  0
TABLE
  2
VIEW
  5
6
100
AcDbSymbolTable
 70
0
  0
ENDTAB
  0
TABLE
  2
UCS
  5
7
100
AcDbSymbolTable
 70
0
  0
ENDTAB
  0
TABLE
  2
APPID
  5
9
100
AcDbSymbolTable
 70
1
  0
APPID
  5
20F
100
AcDbSymbolTableRecord
100
AcDbRegAppTableRecord
  2
ACAD
 70
0
  0
ENDTAB
  0
TABLE
  2
BLOCK_RECORD
  5
1
100
AcDbSymbolTable
 70
0
  0
BLOCK_RECORD
  5
210
100
AcDbSymbolTableRecord
100
AcDbBlockTableRecord
  2
*Model_Space
  0
BLOCK_RECORD
  5
211
100
AcDbSymbolTableRecord
100
AcDbBlockTableRecord
  2
*Paper_Space
  0
BLOCK_RECORD
  5
212
100
AcDbSymbolTableRecord
100
AcDbBlockTableRecord
  2
_FILLED
  0
ENDTAB
  0
TABLE
  2
DIMSTYLE
  5
A
100
AcDbSymbolTable
 70
1
100
AcDbDimStyleTable
 71
0
  0
DIMSTYLE
105
213
100
AcDbSymbolTableRecord
100
AcDbDimStyleTableRecord
  2
STANDARD
 70
0
  3

  4

 40
1.0
 41
0.5920622314
 42
1.0
 43
0.38
 44
1.0
 45
0.0
 46
0.0
 47
0.01
 48
0.01
140
0.828887124
141
0.09
142
0.0
143
25.4
144
1.0
145
0.0
146
1.0
147
0.625
 71
1
 72
0
 73
0
 74
0
 75
0
 76
0
 77
1
 78
8
 79
2
170
0
171
1
172
0
173
0
174
0
175
0
176
0
177
0
178
0
270
2
179
2
271
2
272
2
273
2
274
2
275
0
280
0
281
0
282
0
283
1
284
8
285
0
286
0
287
3
288
0
340
11
278
46
341
212
342
212
343
212
344
212
  0
ENDTAB
  0
ENDSEC
  0
SECTION
  2
BLOCKS
  0
BLOCK
  5
20
100
AcDbEntity
  8
0
100
AcDbBlockBegin
  2
*Model_Space
 70
0
 10
0.0
 20
0.0
 30
0.0
  3
*Model_Space
  1

  0
ENDBLK
  5
21
100
AcDbEntity
  8
0
100
AcDbBlockEnd
  0
BLOCK
  5
1C
100
AcDbEntity
  8
0
100
AcDbBlockBegin
  2
*Paper_Space
 70
0
 10
0.0
 20
0.0
 30
0.0
  3
*Paper_Space
  1

  0
ENDBLK
  5
1D
100
AcDbEntity
  8
0
100
AcDbBlockEnd
  0
BLOCK
  5
214
100
AcDbEntity
  8
0
100
AcDbBlockBegin
  2
_FILLED
 70
64
 10
0.0
 20
0.0
  3
_FILLED
  1

  0
SOLID
  5
215
100
AcDbEntity
  8
0
  6
BYBLOCK
 62
0
100
AcDbTrace
 10
0.0
 20
0.0
 11
-1.0
 21
0.25
 12
-1.0
 22
-0.25
 13
-1.0
 23
-0.25
  0
ENDBLK
  5
216
100
AcDbEntity
  8
0
  6
BYBLOCK
 62
0
100
AcDbBlockEnd
  0
ENDSEC
  0
SECTION
  2
ENTITIES
  0
LINE
  5
217
100
AcDbEntity
  8
0
100
AcDbLine
 62
7
  6
BYLAYER
 10
19.6970726738
 20
31.1257972131
 11
19.6970726738
 21
62.1257972131
  0
LINE
  5
218
100
AcDbEntity
  8
0
100
AcDbLine
 62
7
  6
BYLAYER
 10
21.2970726738
 20
62.7257972131
 11
21.2970726738
 21
62.1257972131
  0
LINE
  5
219
100
AcDbEntity
  8
0
100
AcDbLine
 62
7
  6
BYLAYER
 10
23.2970726738
 20
62.1257972131
 11
23.3495658719
 21
62.7257972131
  0
LINE
  5
21A
100
AcDbEntity
  8
0
100
AcDbLine
 62
7
  6
BYLAYER
 10
30.8970726738
 20
31.1257972131
 11
27.1470726738
 21
31.1257972131
  0
LINE
  5
21B
100
AcDbEntity
  8
0
100
AcDbLine
 62
7
  6
BYLAYER
 10
23.4470726738
 20
31.1257972131
 11
19.6970726738
 21
31.1257972131
  0
LINE
  5
21C
100
AcDbEntity
  8
0
100
AcDbLine
 62
7
  6
BYLAYER
 10
22.0970726738
 20
34.6257972131
 11
22.0970726738
 21
33.2822943289
  0
LINE
  5
21D
100
AcDbEntity
  8
0
100
AcDbLine
 62
7
  6
BYLAYER
 10
22.4970726738
 20
62.1257972131
 11
22.4970726738
 21
62.7257972131
  0
LINE
  5
21E
100
AcDbEntity
  8
0
100
AcDbLine
 62
7
  6
BYLAYER
 10
23.0970726738
 20
62.7257972131
 11
23.0970726738
 21
64.5257972131
  0
LINE
  5
21F
100
AcDbEntity
  8
0
100
AcDbLine
 62
7
  6
BYLAYER
 10
23.4470726738
 20
33.2822943289
 11
23.4470726738
 21
7.119343425
  0
LINE
  5
220
100
AcDbEntity
  8
0
100
AcDbLine
 62
7
  6
BYLAYER
 10
23.8405013573
 20
63.0257972131
 11
23.8405013573
 21
62.7257972131
  0
LINE
  5
221
100
AcDbEntity
  8
0
100
AcDbLine
 62
7
  6
BYLAYER
 10
25.1470726738
 20
64.5257972131
 11
25.1470726738
 21
63.0257972131
  0
LINE
  5
222
100
AcDbEntity
  8
0
100
AcDbLine
 62
7
  6
BYLAYER
 10
25.4470726738
 20
63.0257972131
 11
25.4470726738
 21
64.5257972131
  0
LINE
  5
223
100
AcDbEntity
  8
0
100
AcDbLine
 62
7
  6
BYLAYER
 10
26.7536439902
 20
62.7257972131
 11
26.7536439902
 21
63.0257972131
  0
LINE
  5
224
100
AcDbEntity
  8
0
100
AcDbLine
 62
7
  6
BYLAYER
 10
27.1470726738
 20
33.2822943289
 11
27.1470726738
 21
7.119343425
  0
LINE
  5
225
100
AcDbEntity
  8
0
100
AcDbLine
 62
7
  6
BYLAYER
 10
27.4970726738
 20
64.5257972131
 11
27.4970726738
 21
62.7257972131
  0
LINE
  5
226
100
AcDbEntity
  8
0
100
AcDbLine
 62
7
  6
BYLAYER
 10
28.0970726738
 20
62.1257972131
 11
28.0970726738
 21
62.7257972131
  0
LINE
  5
227
100
AcDbEntity
  8
0
100
AcDbLine
 62
7
  6
BYLAYER
 10
28.4970726738
 20
34.6257972131
 11
28.4970726738
 21
33.2822943289
  0
LINE
  5
228
100
AcDbEntity
  8
0
100
AcDbLine
 62
7
  6
BYLAYER
 10
29.2970726738
 20
62.1257972131
 11
29.2970726738
 21
62.7257972131
  0
LINE
  5
229
100
AcDbEntity
  8
0
100
AcDbLine
 62
7
  6
BYLAYER
 10
30.8970726738
 20
38.1257972131
 11
19.6970726738
 21
38.1257972131
  0
LINE
  5
22A
100
AcDbEntity
  8
0
100
AcDbLine
 62
7
  6
BYLAYER
 10
27.2970726738
 20
62.1257972131
 11
27.2445794756
 21
62.7257972131
  0
LINE
  5
22B
100
AcDbEntity
  8
0
100
AcDbLine
 62
7
  6
BYLAYER
 10
30.8970726738
 20
62.1257972131
 11
30.8970726738
 21
31.1257972131
  0
LINE
  5
22C
100
AcDbEntity
  8
0
100
AcDbLine
 62
7
  6
BYLAYER
 10
30.8970726738
 20
62.1257972131
 11
19.6970726738
 21
62.1257972131
  0
LINE
  5
22D
100
AcDbEntity
  8
0
100
AcDbLine
 62
7
  6
BYLAYER
 10
21.2970726738
 20
62.7257972131
 11
29.2970726738
 21
62.7257972131
  0
LINE
  5
22E
100
AcDbEntity
  8
0
100
AcDbLine
 62
7
  6
BYLAYER
 10
23.8405013573
 20
63.0257972131
 11
26.7536439902
 21
63.0257972131
  0
LINE
  5
22F
100
AcDbEntity
  8
0
100
AcDbLine
 62
7
  6
BYLAYER
 10
25.4470726738
 20
64.4257972131
 11
25.1470726738
 21
64.4257972131
  0
LINE
  5
230
100
AcDbEntity
  8
0
100
AcDbLine
 62
7
  6
BYLAYER
 10
27.4970726738
 20
64.5257972131
 11
25.4470726738
 21
64.5257972131
  0
LINE
  5
231
100
AcDbEntity
  8
0
100
AcDbLine
 62
7
  6
BYLAYER
 10
25.1470726738
 20
64.5257972131
 11
23.0970726738
 21
64.5257972131
  0
ARC
  5
232
100
AcDbEntity
  8
0
100
AcDbCircle
 62
7
  6
BYLAYER
 10
27.4970726738
 20
62.7257972131
 40
1.8
100
AcDbArc
 50
0.0
 51
90.0
  0
ARC
  5
233
100
AcDbEntity
  8
0
100
AcDbCircle
 62
7
  6
BYLAYER
 10
23.0970726738
 20
62.7257972131
 40
1.8
100
AcDbArc
 50
90.0
 51
180.0
  0
SPLINE
  5
234
100
AcDbEntity
  8
0
100
AcDbSpline
 62
7
  6
BYLAYER
 70
0
 71
3
 72
15
 73
11
 74
0
 42
0.0000001
 43
0.0000001
 44
0.0000000001
 40
0.0
 40
0.0
 40
0.0
 40
0.0
 40
0.1032840392
 40
0.210318797
 40
0.3239558162
 40
0.4456885399
 40
0.5756260988
 40
0.7126654295
 40
0.8550192492
 40
1.0
 40
1.0
 40
1.0
 40
1.0
 10
23.4470834687
 20
7.1193434255
 30
0.0
 10
23.4470860902
 20
7.0334575218
 30
0.0
 10
23.4720162551
 20
6.8576762931
 30
0.0
 10
23.5810968284
 20
6.608248521
 30
0.0
 10
23.756021874
 20
6.3804591066
 30
0.0
 10
23.9889905931
 20
6.1824845309
 30
0.0
 10
24.270806753
 20
6.0209485163
 30
0.0
 10
24.5909026847
 20
5.9012197897
 30
0.0
 10
24.9372451334
 20
5.8277343104
 30
0.0
 10
25.176513845
 20
5.8111958798
 30
0.0
 10
25.2970726738
 20
5.8111958798
 30
0.0
  0
SPLINE
  5
235
100
AcDbEntity
  8
0
100
AcDbSpline
 62
7
  6
BYLAYER
 70
0
 71
3
 72
14
 73
10
 74
0
 42
0.0000001
 43
0.0000001
 44
0.0000000001
 40
0.0
 40
0.0
 40
0.0
 40
0.0
 40
0.1126443002
 40
0.2267978742
 40
0.3438386173
 40
0.4648841462
 40
0.5907540168
 40
0.7219098522
 40
1.0
 40
1.0
 40
1.0
 40
1.0
 10
22.0970829924
 20
33.2822943286
 30
0.0
 10
22.0970841536
 20
33.1938856124
 30
0.0
 10
22.1119959653
 20
33.0155460643
 30
0.0
 10
22.1783311329
 20
32.7528147654
 30
0.0
 10
22.287786525
 20
32.4977519778
 30
0.0
 10
22.4384157067
 20
32.2539157162
 30
0.0
 10
22.6281643344
 20
32.0246124632
 30
0.0
 10
22.9351653018
 20
31.7368117911
 30
0.0
 10
23.2074669732
 20
31.5601744753
 30
0.0
 10
23.4011150526
 20
31.4594905146
 30
0.0
  0
SPLINE
  5
236
100
AcDbEntity
  8
0
100
AcDbSpline
 62
7
  6
BYLAYER
 70
0
 71
3
 72
15
 73
11
 74
0
 42
0.0000001
 43
0.0000001
 44
0.0000000001
 40
0.0
 40
0.0
 40
0.0
 40
0.0
 40
0.1449834227
 40
0.2873338779
 40
0.4243693345
 40
0.5543036909
 40
0.6760353237
 40
0.7896744752
 40
0.896712647
 40
1.0
 40
1.0
 40
1.0
 40
1.0
 10
25.2970726738
 20
5.8111958798
 30
0.0
 10
25.4176337714
 20
5.8111958798
 30
0.0
 10
25.6569019979
 20
5.8277341516
 30
0.0
 10
26.0032410061
 20
5.9012184455
 30
0.0
 10
26.323328499
 20
6.020944857
 30
0.0
 10
26.6051409242
 20
6.1824733619
 30
0.0
 10
26.8381125139
 20
6.3804418031
 30
0.0
 10
27.0130421694
 20
6.6082338352
 30
0.0
 10
27.122122088
 20
6.8576682532
 30
0.0
 10
27.1470645004
 20
7.0334547317
 30
0.0
 10
27.1470618789
 20
7.1193434244
 30
0.0
  0
SPLINE
  5
237
100
AcDbEntity
  8
0
100
AcDbSpline
 62
7
  6
BYLAYER
 70
0
 71
3
 72
14
 73
10
 74
0
 42
0.0000001
 43
0.0000001
 44
0.0000000001
 40
0.0
 40
0.0
 40
0.0
 40
0.0
 40
0.2780882991
 40
0.4092449151
 40
0.5351162352
 40
0.6561628822
 40
0.7732041367
 40
0.8873572354
 40
1.0
 40
1.0
 40
1.0
 40
1.0
 10
27.1927459047
 20
31.4593400877
 30
0.0
 10
27.3864284944
 20
31.5600192304
 30
0.0
 10
27.6587848848
 20
31.7366533793
 30
0.0
 10
27.9658485827
 20
32.0244715014
 30
0.0
 10
28.1556462904
 20
32.2537907315
 30
0.0
 10
28.3063088383
 20
32.49765548
 30
0.0
 10
28.4157956811
 20
32.7527473728
 30
0.0
 10
28.4821439699
 20
33.0155124636
 30
0.0
 10
28.4970635166
 20
33.1938747277
 30
0.0
 10
28.4970623552
 20
33.2822943291
 30
0.0
  0
SPLINE
  5
238
100
AcDbEntity
  8
0
100
AcDbSpline
 62
7
  6
BYLAYER
 70
0
 71
3
 72
17
 73
13
 74
0
 42
0.0000001
 43
0.0000001
 44
0.0000000001
 40
0.0
 40
0.0
 40
0.0
 40
0.0
 40
0.0514974067
 40
0.1034833067
 40
0.156415257
 40
0.2106910937
 40
0.324281969
 40
0.4459568786
 40
0.5758259295
 40
0.7128146376
 40
0.8550533252
 40
1.0
 40
1.0
 40
1.0
 40
1.0
 10
28.4970623552
 20
33.2822943291
 30
0.0
 10
28.4970613818
 20
33.3564007129
 30
0.0
 10
28.4866191988
 20
33.505516498
 30
0.0
 10
28.4401020172
 20
33.7264182345
 30
0.0
 10
28.3630297614
 20
33.9428754981
 30
0.0
 10
28.2187857573
 20
34.2268162775
 30
0.0
 10
27.9626041562
 20
34.5604931867
 30
0.0
 10
27.5596766926
 20
34.9027828746
 30
0.0
 10
27.0722021182
 20
35.1822660106
 30
0.0
 10
26.5185721828
 20
35.3892931666
 30
0.0
 10
25.9195111611
 20
35.5164865827
 30
0.0
 10
25.5056554858
 20
35.5450360287
 30
0.0
 10
25.2970726738
 20
35.5450360287
 30
0.0
  0
SPLINE
  5
239
100
AcDbEntity
  8
0
100
AcDbSpline
 62
7
  6
BYLAYER
 70
0
 71
3
 72
17
 73
13
 74
0
 42
0.0000001
 43
0.0000001
 44
0.0000000001
 40
0.0
 40
0.0
 40
0.0
 40
0.0
 40
0.144946554
 40
0.2871819806
 40
0.424168874
 40
0.5540362905
 40
0.6757116854
 40
0.7893046835
 40
0.8435819823
 40
0.8965150029
 40
0.9485019275
 40
1.0
 40
1.0
 40
1.0
 40
1.0
 10
25.2970726738
 20
35.5450360287
 30
0.0
 10
25.0884899937
 20
35.5450360287
 30
0.0
 10
24.6746389779
 20
35.5164879386
 30
0.0
 10
24.0755853605
 20
35.3892961389
 30
0.0
 10
23.5219625087
 20
35.1822774026
 30
0.0
 10
23.0344902171
 20
34.9027990136
 30
0.0
 10
22.6315577096
 20
34.5605123079
 30
0.0
 10
22.3753725765
 20
34.226831386
 30
0.0
 10
22.2311175285
 20
33.9428883796
 30
0.0
 10
22.1540470457
 20
33.726424836
 30
0.0
 10
22.1075259288
 20
33.5055201855
 30
0.0
 10
22.097082019
 20
33.3564016853
 30
0.0
 10
22.0970829924
 20
33.2822943286
 30
0.0
  0
SPLINE
  5
23A
100
AcDbEntity
  8
0
100
AcDbSpline
 62
7
  6
BYLAYER
 70
0
 71
3
 72
15
 73
11
 74
0
 42
0.0000001
 43
0.0000001
 44
0.0000000001
 40
0.0
 40
0.0
 40
0.0
 40
0.0
 40
0.1032840392
 40
0.210318797
 40
0.3239558162
 40
0.4456885399
 40
0.5756260988
 40
0.7126654295
 40
0.8550192492
 40
1.0
 40
1.0
 40
1.0
 40
1.0
 10
27.1470618789
 20
7.1193434244
 30
0.0
 10
27.1470592574
 20
7.2052293281
 30
0.0
 10
27.1221290925
 20
7.3810105568
 30
0.0
 10
27.0130485191
 20
7.6304383289
 30
0.0
 10
26.8381234735
 20
7.8582277434
 30
0.0
 10
26.6051547544
 20
8.056202319
 30
0.0
 10
26.3233385945
 20
8.2177383336
 30
0.0
 10
26.0032426628
 20
8.3374670603
 30
0.0
 10
25.6569002141
 20
8.4109525396
 30
0.0
 10
25.4176315025
 20
8.4274909702
 30
0.0
 10
25.2970726738
 20
8.4274909702
 30
0.0
  0
SPLINE
  5
23B
100
AcDbEntity
  8
0
100
AcDbSpline
 62
7
  6
BYLAYER
 70
0
 71
3
 72
17
 73
13
 74
0
 42
0.0000001
 43
0.0000001
 44
0.0000000001
 40
0.0
 40
0.0
 40
0.0
 40
0.0
 40
0.0514974067
 40
0.1034833067
 40
0.156415257
 40
0.2106910937
 40
0.324281969
 40
0.4459568786
 40
0.5758259295
 40
0.7128146376
 40
0.8550533252
 40
1.0
 40
1.0
 40
1.0
 40
1.0
 10
22.0970829924
 20
34.6257972134
 30
0.0
 10
22.0970839658
 20
34.6999035971
 30
0.0
 10
22.1075261487
 20
34.8490193822
 30
0.0
 10
22.1540433304
 20
35.0699211188
 30
0.0
 10
22.2311155861
 20
35.2863783824
 30
0.0
 10
22.3753595903
 20
35.5703191618
 30
0.0
 10
22.6315411914
 20
35.903996071
 30
0.0
 10
23.0344686549
 20
36.2462857589
 30
0.0
 10
23.5219432294
 20
36.5257688949
 30
0.0
 10
24.0755731647
 20
36.7327960509
 30
0.0
 10
24.6746341864
 20
36.8599894669
 30
0.0
 10
25.0884898618
 20
36.8885389129
 30
0.0
 10
25.2970726738
 20
36.8885389129
 30
0.0
  0
SPLINE
  5
23C
100
AcDbEntity
  8
0
100
AcDbSpline
 62
7
  6
BYLAYER
 70
0
 71
3
 72
17
 73
13
 74
0
 42
0.0000001
 43
0.0000001
 44
0.0000000001
 40
0.0
 40
0.0
 40
0.0
 40
0.0
 40
0.144946554
 40
0.2871819806
 40
0.424168874
 40
0.5540362905
 40
0.6757116854
 40
0.7893046835
 40
0.8435819823
 40
0.8965150029
 40
0.9485019275
 40
1.0
 40
1.0
 40
1.0
 40
1.0
 10
25.2970726738
 20
36.8885389129
 30
0.0
 10
25.5056553538
 20
36.8885389129
 30
0.0
 10
25.9195063696
 20
36.8599908229
 30
0.0
 10
26.5185599871
 20
36.7327990231
 30
0.0
 10
27.0721828389
 20
36.5257802869
 30
0.0
 10
27.5596551304
 20
36.2463018979
 30
0.0
 10
27.9625876379
 20
35.9040151921
 30
0.0
 10
28.2187727711
 20
35.5703342702
 30
0.0
 10
28.363027819
 20
35.2863912638
 30
0.0
 10
28.4400983019
 20
35.0699277202
 30
0.0
 10
28.4866194187
 20
34.8490230698
 30
0.0
 10
28.4970633286
 20
34.6999045695
 30
0.0
 10
28.4970623552
 20
34.6257972128
 30
0.0
  0
SPLINE
  5
23D
100
AcDbEntity
  8
0
100
AcDbSpline
 62
7
  6
BYLAYER
 70
0
 71
3
 72
15
 73
11
 74
0
 42
0.0000001
 43
0.0000001
 44
0.0000000001
 40
0.0
 40
0.0
 40
0.0
 40
0.0
 40
0.1032840392
 40
0.210318797
 40
0.3239558162
 40
0.4456885399
 40
0.5756260988
 40
0.7126654295
 40
0.8550192492
 40
1.0
 40
1.0
 40
1.0
 40
1.0
 10
23.4470834687
 20
33.2822943283
 30
0.0
 10
23.4470860902
 20
33.368180232
 30
0.0
 10
23.4720162551
 20
33.5439614607
 30
0.0
 10
23.5810968284
 20
33.7933892328
 30
0.0
 10
23.756021874
 20
34.0211786473
 30
0.0
 10
23.9889905931
 20
34.2191532229
 30
0.0
 10
24.270806753
 20
34.3806892375
 30
0.0
 10
24.5909026847
 20
34.5004179642
 30
0.0
 10
24.9372451334
 20
34.5739034435
 30
0.0
 10
25.176513845
 20
34.5904418741
 30
0.0
 10
25.2970726738
 20
34.5904418741
 30
0.0
  0
SPLINE
  5
23E
100
AcDbEntity
  8
0
100
AcDbSpline
 62
7
  6
BYLAYER
 70
0
 71
3
 72
15
 73
11
 74
0
 42
0.0000001
 43
0.0000001
 44
0.0000000001
 40
0.0
 40
0.0
 40
0.0
 40
0.0
 40
0.1449834227
 40
0.2873338779
 40
0.4243693345
 40
0.5543036909
 40
0.6760353237
 40
0.7896744752
 40
0.896712647
 40
1.0
 40
1.0
 40
1.0
 40
1.0
 10
25.2970726738
 20
8.4274909702
 30
0.0
 10
25.1765115761
 20
8.4274909702
 30
0.0
 10
24.9372433496
 20
8.4109526984
 30
0.0
 10
24.5909043414
 20
8.3374684044
 30
0.0
 10
24.2708168485
 20
8.2177419929
 30
0.0
 10
23.9890044233
 20
8.056213488
 30
0.0
 10
23.7560328337
 20
7.8582450468
 30
0.0
 10
23.5811031781
 20
7.6304530147
 30
0.0
 10
23.4720232595
 20
7.3810185968
 30
0.0
 10
23.4470808471
 20
7.2052321182
 30
0.0
 10
23.4470834687
 20
7.1193434255
 30
0.0
  0
SPLINE
  5
23F
100
AcDbEntity
  8
0
100
AcDbSpline
 62
7
  6
BYLAYER
 70
0
 71
3
 72
15
 73
11
 74
0
 42
0.0000001
 43
0.0000001
 44
0.0000000001
 40
0.0
 40
0.0
 40
0.0
 40
0.0
 40
0.1449834227
 40
0.2873338779
 40
0.4243693345
 40
0.5543036909
 40
0.6760353237
 40
0.7896744752
 40
0.896712647
 40
1.0
 40
1.0
 40
1.0
 40
1.0
 10
25.2970726738
 20
34.5904418741
 30
0.0
 10
25.4176337714
 20
34.5904418741
 30
0.0
 10
25.6569019979
 20
34.5739036023
 30
0.0
 10
26.0032410061
 20
34.5004193083
 30
0.0
 10
26.323328499
 20
34.3806928968
 30
0.0
 10
26.6051409242
 20
34.2191643919
 30
0.0
 10
26.8381125139
 20
34.0211959507
 30
0.0
 10
27.0130421694
 20
33.7934039186
 30
0.0
 10
27.122122088
 20
33.5439695007
 30
0.0
 10
27.1470645004
 20
33.3681830221
 30
0.0
 10
27.1470618789
 20
33.2822943294
 30
0.0
  0
ENDSEC
  0
SECTION
  2
OBJECTS
  0
DICTIONARY
  5
C
100
AcDbDictionary
280
0
281
1
  3
ACAD_GROUP
350
D
  3
ACAD_MLINESTYLE
350
17
  3
ACAD_LAYOUT
350
1A
  3
ACAD_PLOTSETTINGS
350
19
  3
ACAD_PLOTSTYLENAME
350
E
  0
DICTIONARY
  5
D
102
{ACAD_REACTORS
330
C
102
}
100
AcDbDictionary
280
0
281
1
  0
ACDBDICTIONARYWDFLT
  5
E
102
{ACAD_REACTORS
330
C
102
}
100
AcDbDictionary
281
1
  3
Normal
350
F
100
AcDbDictionaryWithDefault
340
F
  0
DICTIONARY
  5
17
102
{ACAD_REACTORS
330
C
102
}
100
AcDbDictionary
280
0
281
1
  3
Standard
350
18
  0
DICTIONARY
  5
19
102
{ACAD_REACTORS
330
C
102
}
100
AcDbDictionary
281
1
  0
DICTIONARY
  5
1A
102
{ACAD_REACTORS
330
C
102
}
100
AcDbDictionary
281
1
  3
Model
350
240
  3
Layout1
350
241
  0
ACDBPLACEHOLDER
  5
F
102
{ACAD_REACTORS
330
E
102
}
  0
MLINESTYLE
  5
18
102
{ACAD_REACTORS
330
17
102
}
100
AcDbMlineStyle
  2
STANDARD
 70
0
  3

 62
256
 51
90.0
 52
90.0
 71
2
 49
0.5
 62
256
  6
BYLAYER
 49
-0.5
 62
256
  6
BYLAYER
  0
LAYOUT
  5
240
102
{ACAD_REACTORS
330
1A
102
}
100
AcDbPlotSettings
  1

  2
none_device
  4

  6

 40
0.0
 41
0.0
 42
0.0
 43
0.0
 44
210.0
 45
297.0
 46
0.0
 47
0.0
 48
0.0
 49
0.0
140
0.0
141
0.0
142
1.0
143
1.0
 70
1024
 72
1
 73
0
 74
0
  7

 75
0
147
1.0
148
0.0
149
0.0
100
AcDbLayout
  1
Model
 70
0
 71
0
 10
0.0
 20
0.0
 11
210.0
 21
297.0
 12
0.0
 22
0.0
 32
0.0
 14
0.0
 24
0.0
 34
0.0
 15
0.0
 25
0.0
 35
0.0
146
0.0
 13
0.0
 23
0.0
 33
0.0
 16
1.0
 26
0.0
 36
0.0
 17
0.0
 27
1.0
 37
0.0
 76
0
330
210
345
0
346
0
  0
LAYOUT
  5
241
102
{ACAD_REACTORS
330
1A
102
}
100
AcDbPlotSettings
  1

  2
none_device
  4

  6

 40
0.0
 41
0.0
 42
0.0
 43
0.0
 44
210.0
 45
297.0
 46
0.0
 47
0.0
 48
0.0
 49
0.0
140
0.0
141
0.0
142
1.0
143
1.0
 70
0
 72
1
 73
0
 74
0
  7

 75
0
147
1.0
148
0.0
149
0.0
100
AcDbLayout
  1
Layout1
 70
0
 71
1
 10
0.0
 20
0.0
 11
210.0
 21
297.0
 12
0.0
 22
0.0
 32
0.0
 14
0.0
 24
0.0
 34
0.0
 15
0.0
 25
0.0
 35
0.0
146
0.0
 13
0.0
 23
0.0
 33
0.0
 16
1.0
 26
0.0
 36
0.0
 17
0.0
 27
1.0
 37
0.0
 76
0
330
211
345
0
346
0
  0
ENDSEC
  0
EOF
