999
DXF file: C:\Users\sesa63760\Dev\_Creo\CAD\MCADID0003843_3D-CAD\drw0001_4.dxf
999
Pro/ENGINEER 2019471 by Parametric Technology Corporation
  0
SECTION
  2
HEADER
  9
$ACADVER
  1
AC1024
  9
$DWGCODEPAGE
  3
ANSI_1252
  9
$EXTMAX
 10
34.0115190774
 20
48.1020055524
 30
0.0
  9
$EXTMIN
 10
0.0
 20
0.0
 30
0.0
  9
$LIMMIN
 10
0.0
 20
0.0
  9
$LIMMAX
 10
34.0115190774
 20
48.1020055524
  9
$VIEWCTR
 10
17.0057595387
 20
24.0510027762
  9
$VIEWSIZE
 40
48.1020055524
  9
$CLAYER
  8
0
  9
$LTSCALE
 40
3.1355381397
  9
$CELTYPE
  6
BYLAYER
  9
$DIMSCALE
 40
1.0
  9
$DIMASZ
 40
0.4048990366
  9
$DIMEXO
 40
1.0
  9
$DIMDLI
 40
2.1663718056
  9
$DIMEXE
 40
1.0
  9
$DIMCEN
 40
0.5130880592
  9
$DIMLFAC
 40
1.0
  9
$DIMBLK
  1
_FILLED
  9
$DIMALT
 70
0
  9
$DIMALTF
 40
0.0393700787
  9
$DIMTXT
 40
0.5668586513
  9
$DIMTOL
 70
1
  9
$DIMLIM
 70
0
  9
$DIMTFAC
 40
1.0
  9
$DIMTP
 40
0.01
  9
$DIMTM
 40
0.01
  9
$DIMGAP
 40
0.625
  9
$DIMDSEP
 70
46
  9
$AUNITS
 70
0
  9
$PDMODE
 70
3
  9
$PDSIZE
 40
0.3125
  9
$HANDSEED
  5
233
  9
$TILEMODE
 70
1
  9
$MEASUREMENT
 70
1
  9
$INSUNITS
 70
4
  0
ENDSEC
  0
SECTION
  2
CLASSES
  0
CLASS
  1
ACDBDICTIONARYWDFLT
  2
AcDbDictionaryWithDefault
  3
AutoCAD 2000
 90
0
 91
1
280
0
281
0
  0
CLASS
  1
ACDBPLACEHOLDER
  2
AcDbPlaceHolder
  3
AutoCAD 2000
 90
0
 91
1
280
0
281
0
  0
CLASS
  1
LAYOUT
  2
AcDbLayout
  3
AutoCAD 2000
 90
0
 91
0
280
0
281
0
  0
ENDSEC
  0
SECTION
  2
TABLES
  0
TABLE
  2
VPORT
  5
8
100
AcDbSymbolTable
 70
2
  0
VPORT
  5
1F4
100
AcDbSymbolTableRecord
100
AcDbViewportTableRecord
  2
*ACTIVE
 70
0
 10
0.0
 20
0.0
 11
1.0
 21
1.0
 12
17.0057595387
 22
24.0510027762
 13
0.0
 23
0.0
 14
1.0
 24
1.0
 15
0.0
 25
0.0
 16
0.0
 26
0.0
 36
1.0
 17
0.0
 27
0.0
 37
0.0
 40
48.1020055524
 41
0.7070707071
 42
50.0
 43
0.0
 44
0.0
 50
0.0
 51
0.0
 71
0
 72
100
 73
1
 74
1
 75
0
 76
0
 77
0
 78
0
  0
ENDTAB
  0
TABLE
  2
LTYPE
  5
5
100
AcDbSymbolTable
 70
6
  0
LTYPE
  5
14
100
AcDbSymbolTableRecord
100
AcDbLinetypeTableRecord
  2
BYBLOCK
 70
0
  3

 72
65
 73
0
 40
0.0
  0
LTYPE
  5
15
100
AcDbSymbolTableRecord
100
AcDbLinetypeTableRecord
  2
BYLAYER
 70
0
  3

 72
65
 73
0
 40
0.0
  0
LTYPE
  5
16
100
AcDbSymbolTableRecord
100
AcDbLinetypeTableRecord
  2
CONTINUOUS
 70
64
  3
Solid line
 72
65
 73
0
 40
0.0
  0
LTYPE
  5
1F5
100
AcDbSymbolTableRecord
100
AcDbLinetypeTableRecord
  2
CENTER
 70
64
  3
____ _ ____ _ ____ _ ____ _ ____ _ ____ _ ____
 72
65
 73
4
 40
0.6
 49
0.375
 74
0
 49
-0.075
 74
0
 49
0.075
 74
0
 49
-0.075
 74
0
  0
LTYPE
  5
1F6
100
AcDbSymbolTableRecord
100
AcDbLinetypeTableRecord
  2
HIDDEN
 70
64
  3
- - - - - - - - - - - - - - - - - - - -
 72
65
 73
2
 40
0.2
 49
0.1
 74
0
 49
-0.1
 74
0
  0
LTYPE
  5
1F7
100
AcDbSymbolTableRecord
100
AcDbLinetypeTableRecord
  2
PHANTOM
 70
64
  3
_____ _ _ _____ _ _ _____ _ _ _____
 72
65
 73
6
 40
0.8
 49
0.45
 74
0
 49
-0.05
 74
0
 49
0.1
 74
0
 49
-0.05
 74
0
 49
0.1
 74
0
 49
-0.05
 74
0
  0
LTYPE
  5
1F8
100
AcDbSymbolTableRecord
100
AcDbLinetypeTableRecord
  2
DOT
 70
64
  3
. . . . . . . . . . . . . . . . . . . .
 72
65
 73
2
 40
0.2
 49
0.1
 74
0
 49
-0.1
 74
0
  0
LTYPE
  5
1F9
100
AcDbSymbolTableRecord
100
AcDbLinetypeTableRecord
  2
DASHED
 70
64
  3
- - - - - - - - - - - - - - - - - - - -
 72
65
 73
2
 40
0.2
 49
0.1
 74
0
 49
-0.1
 74
0
  0
ENDTAB
  0
TABLE
  2
LAYER
  5
2
100
AcDbSymbolTable
 70
36
  0
LAYER
  5
10
100
AcDbSymbolTableRecord
100
AcDbLayerTableRecord
  2
0
 70
0
 62
7
  6
CONTINUOUS
370
-3
390
F
  0
LAYER
  5
1FA
100
AcDbSymbolTableRecord
100
AcDbLayerTableRecord
  2
DEFAULT_1
 70
0
 62
7
  6
CENTER
370
-3
390
F
  0
LAYER
  5
1FB
100
AcDbSymbolTableRecord
100
AcDbLayerTableRecord
  2
DEFAULT_2
 70
0
 62
7
  6
HIDDEN
370
-3
390
F
  0
LAYER
  5
1FC
100
AcDbSymbolTableRecord
100
AcDbLayerTableRecord
  2
DEFAULT_3
 70
0
 62
7
  6
PHANTOM
370
-3
390
F
  0
LAYER
  5
1FD
100
AcDbSymbolTableRecord
100
AcDbLayerTableRecord
  2
00_COMPONENTS
 70
0
 62
7
  6
CONTINUOUS
370
-3
390
F
  0
LAYER
  5
1FE
100
AcDbSymbolTableRecord
100
AcDbLayerTableRecord
  2
01_1_DEFAULT_DATUMS
 70
0
 62
7
  6
CONTINUOUS
370
-3
390
F
  0
LAYER
  5
1FF
100
AcDbSymbolTableRecord
100
AcDbLayerTableRecord
  2
01_PLANES
 70
0
 62
7
  6
CONTINUOUS
370
-3
390
F
  0
LAYER
  5
200
100
AcDbSymbolTableRecord
100
AcDbLayerTableRecord
  2
02_COORD_SYS
 70
0
 62
7
  6
CONTINUOUS
370
-3
390
F
  0
LAYER
  5
201
100
AcDbSymbolTableRecord
100
AcDbLayerTableRecord
  2
03_AXES
 70
0
 62
7
  6
CONTINUOUS
370
-3
390
F
  0
LAYER
  5
202
100
AcDbSymbolTableRecord
100
AcDbLayerTableRecord
  2
04_POINTS
 70
0
 62
7
  6
CONTINUOUS
370
-3
390
F
  0
LAYER
  5
203
100
AcDbSymbolTableRecord
100
AcDbLayerTableRecord
  2
05_CURVES
 70
0
 62
7
  6
CONTINUOUS
370
-3
390
F
  0
LAYER
  5
204
100
AcDbSymbolTableRecord
100
AcDbLayerTableRecord
  2
06_SURFS
 70
0
 62
7
  6
CONTINUOUS
370
-3
390
F
  0
LAYER
  5
205
100
AcDbSymbolTableRecord
100
AcDbLayerTableRecord
  2
07_COSMETICS
 70
0
 62
7
  6
CONTINUOUS
370
-3
390
F
  0
LAYER
  5
206
100
AcDbSymbolTableRecord
100
AcDbLayerTableRecord
  2
10_NOTES
 70
0
 62
7
  6
CONTINUOUS
370
-3
390
F
  0
LAYER
  5
207
100
AcDbSymbolTableRecord
100
AcDbLayerTableRecord
  2
11_NOTES_PUB
 70
0
 62
7
  6
CONTINUOUS
370
-3
390
F
  0
LAYER
  5
208
100
AcDbSymbolTableRecord
100
AcDbLayerTableRecord
  2
13_REF_GTOL
 70
0
 62
7
  6
CONTINUOUS
370
-3
390
F
  0
LAYER
  5
209
100
AcDbSymbolTableRecord
100
AcDbLayerTableRecord
  2
16_MISC
 70
0
 62
7
  6
CONTINUOUS
370
-3
390
F
  0
LAYER
  5
20A
100
AcDbSymbolTableRecord
100
AcDbLayerTableRecord
  2
17_NO_PRINT
 70
0
 62
7
  6
CONTINUOUS
370
-3
390
F
  0
LAYER
  5
20B
100
AcDbSymbolTableRecord
100
AcDbLayerTableRecord
  2
18_DATUM_CAMS_JOINTS
 70
0
 62
7
  6
CONTINUOUS
370
-3
390
F
  0
LAYER
  5
20C
100
AcDbSymbolTableRecord
100
AcDbLayerTableRecord
  2
19_DATUM_FUNCTIONAL
 70
0
 62
7
  6
CONTINUOUS
370
-3
390
F
  0
LAYER
  5
20D
100
AcDbSymbolTableRecord
100
AcDbLayerTableRecord
  2
20_DATUM_KINEMATIC_SCHEME
 70
0
 62
7
  6
CONTINUOUS
370
-3
390
F
  0
ENDTAB
  0
TABLE
  2
STYLE
  5
3
100
AcDbSymbolTable
 70
1
  0
STYLE
  5
11
100
AcDbSymbolTableRecord
100
AcDbTextStyleTableRecord
  2
STANDARD
 70
0
 40
0.0
 41
1.0
 50
0.0
 71
0
 42
0.2
  3
ARIAL.TTF
  4

  0
STYLE
  5
20E
100
AcDbSymbolTableRecord
100
AcDbTextStyleTableRecord
  2
TEXTSTYLE_1
 70
0
 40
0.0
 41
0.8
 50
0.0
 71
0
 42
0.2
  3
gdt
  4

  0
ENDTAB
  0
TABLE
  2
VIEW
  5
6
100
AcDbSymbolTable
 70
0
  0
ENDTAB
  0
TABLE
  2
UCS
  5
7
100
AcDbSymbolTable
 70
0
  0
ENDTAB
  0
TABLE
  2
APPID
  5
9
100
AcDbSymbolTable
 70
1
  0
APPID
  5
20F
100
AcDbSymbolTableRecord
100
AcDbRegAppTableRecord
  2
ACAD
 70
0
  0
ENDTAB
  0
TABLE
  2
BLOCK_RECORD
  5
1
100
AcDbSymbolTable
 70
0
  0
BLOCK_RECORD
  5
210
100
AcDbSymbolTableRecord
100
AcDbBlockTableRecord
  2
*Model_Space
  0
BLOCK_RECORD
  5
211
100
AcDbSymbolTableRecord
100
AcDbBlockTableRecord
  2
*Paper_Space
  0
BLOCK_RECORD
  5
212
100
AcDbSymbolTableRecord
100
AcDbBlockTableRecord
  2
_FILLED
  0
ENDTAB
  0
TABLE
  2
DIMSTYLE
  5
A
100
AcDbSymbolTable
 70
1
100
AcDbDimStyleTable
 71
0
  0
DIMSTYLE
105
213
100
AcDbSymbolTableRecord
100
AcDbDimStyleTableRecord
  2
STANDARD
 70
0
  3

  4

 40
1.0
 41
0.4048990366
 42
1.0
 43
0.38
 44
1.0
 45
0.0
 46
0.0
 47
0.01
 48
0.01
140
0.5668586513
141
0.09
142
0.0
143
25.4
144
1.0
145
0.0
146
1.0
147
0.625
 71
1
 72
0
 73
0
 74
0
 75
0
 76
0
 77
1
 78
8
 79
2
170
0
171
1
172
0
173
0
174
0
175
0
176
0
177
0
178
0
270
2
179
2
271
2
272
2
273
2
274
2
275
0
280
0
281
0
282
0
283
1
284
8
285
0
286
0
287
3
288
0
340
11
278
46
341
212
342
212
343
212
344
212
  0
ENDTAB
  0
ENDSEC
  0
SECTION
  2
BLOCKS
  0
BLOCK
  5
20
100
AcDbEntity
  8
0
100
AcDbBlockBegin
  2
*Model_Space
 70
0
 10
0.0
 20
0.0
 30
0.0
  3
*Model_Space
  1

  0
ENDBLK
  5
21
100
AcDbEntity
  8
0
100
AcDbBlockEnd
  0
BLOCK
  5
1C
100
AcDbEntity
  8
0
100
AcDbBlockBegin
  2
*Paper_Space
 70
0
 10
0.0
 20
0.0
 30
0.0
  3
*Paper_Space
  1

  0
ENDBLK
  5
1D
100
AcDbEntity
  8
0
100
AcDbBlockEnd
  0
BLOCK
  5
214
100
AcDbEntity
  8
0
100
AcDbBlockBegin
  2
_FILLED
 70
64
 10
0.0
 20
0.0
  3
_FILLED
  1

  0
SOLID
  5
215
100
AcDbEntity
  8
0
  6
BYBLOCK
 62
0
100
AcDbTrace
 10
0.0
 20
0.0
 11
-1.0
 21
0.25
 12
-1.0
 22
-0.25
 13
-1.0
 23
-0.25
  0
ENDBLK
  5
216
100
AcDbEntity
  8
0
  6
BYBLOCK
 62
0
100
AcDbBlockEnd
  0
ENDSEC
  0
SECTION
  2
ENTITIES
  0
LINE
  5
217
100
AcDbEntity
  8
0
100
AcDbLine
 62
7
  6
BYLAYER
 10
15.3884111542
 20
20.8461554154
 11
30.3884111542
 21
20.8461554154
  0
LINE
  5
218
100
AcDbEntity
  8
0
100
AcDbLine
 62
7
  6
BYLAYER
 10
15.3884111542
 20
25.0461554154
 11
30.3884111542
 21
25.0461554154
  0
CIRCLE
  5
219
100
AcDbEntity
  8
0
100
AcDbCircle
 62
7
  6
BYLAYER
 10
9.757271816
 20
23.9038118167
 40
1.8126275112
  0
CIRCLE
  5
21A
100
AcDbEntity
  8
0
100
AcDbCircle
 62
7
  6
BYLAYER
 10
9.757271816
 20
23.9038118167
 40
1.6168314273
  0
CIRCLE
  5
21B
100
AcDbEntity
  8
0
100
AcDbCircle
 62
7
  6
BYLAYER
 10
9.757271816
 20
23.9038118167
 40
1.4331685727
  0
CIRCLE
  5
21C
100
AcDbEntity
  8
0
100
AcDbCircle
 62
7
  6
BYLAYER
 10
9.757271816
 20
23.9038118167
 40
1.2373724888
  0
CIRCLE
  5
21D
100
AcDbEntity
  8
0
100
AcDbCircle
 62
7
  6
BYLAYER
 10
9.757271816
 20
23.9038118167
 40
1.2
  0
CIRCLE
  5
21E
100
AcDbEntity
  8
0
100
AcDbCircle
 62
7
  6
BYLAYER
 10
9.757271816
 20
23.9038118167
 40
1.0
  0
CIRCLE
  5
21F
100
AcDbEntity
  8
0
100
AcDbCircle
 62
7
  6
BYLAYER
 10
9.757271816
 20
23.9038118167
 40
0.8
  0
ARC
  5
220
100
AcDbEntity
  8
0
100
AcDbCircle
 62
7
  6
BYLAYER
 10
15.3884111542
 20
22.9461554154
 40
3.1309970977
100
AcDbArc
 50
42.6026256856
 51
320.0663520515
  0
ARC
  5
221
100
AcDbEntity
  8
0
100
AcDbCircle
 62
7
  6
BYLAYER
 10
15.3884111542
 20
22.9461554154
 40
2.9319900703
100
AcDbArc
 50
43.8627904924
 51
316.2073136862
  0
ARC
  5
222
100
AcDbEntity
  8
0
100
AcDbCircle
 62
7
  6
BYLAYER
 10
15.3884111542
 20
22.9461554154
 40
2.7782472839
100
AcDbArc
 50
47.4210926981
 51
312.5789073019
  0
ARC
  5
223
100
AcDbEntity
  8
0
100
AcDbCircle
 62
7
  6
BYLAYER
 10
15.3884111542
 20
22.9461554154
 40
2.156626959
100
AcDbArc
 50
82.2387927389
 51
277.7612072611
  0
ARC
  5
224
100
AcDbEntity
  8
0
100
AcDbCircle
 62
7
  6
BYLAYER
 10
15.3884111542
 20
22.9461554154
 40
2.1
100
AcDbArc
 50
90.0
 51
270.0
  0
ARC
  5
225
100
AcDbEntity
  8
0
100
AcDbCircle
 62
7
  6
BYLAYER
 10
12.757271816
 20
23.9038118167
 40
9.0
100
AcDbArc
 50
10.4558809074
 51
338.6315166227
  0
ARC
  5
226
100
AcDbEntity
  8
0
100
AcDbCircle
 62
7
  6
BYLAYER
 10
12.757271816
 20
23.9038118167
 40
8.35
100
AcDbArc
 50
10.815877681
 51
337.275377687
  0
ARC
  5
227
100
AcDbEntity
  8
0
100
AcDbCircle
 62
7
  6
BYLAYER
 10
12.757271816
 20
23.9038118167
 40
8.3
100
AcDbArc
 50
7.9135519629
 51
338.278906989
  0
ARC
  5
228
100
AcDbEntity
  8
0
100
AcDbCircle
 62
7
  6
BYLAYER
 10
12.757271816
 20
23.9038118167
 40
8.2883222281
100
AcDbArc
 50
7.9247002515
 51
338.2478357217
  0
ARC
  5
229
100
AcDbEntity
  8
0
100
AcDbCircle
 62
7
  6
BYLAYER
 10
12.757271816
 20
23.9038118167
 40
7.8363652013
100
AcDbArc
 50
8.396924557
 51
336.959793802
  0
ARC
  5
22A
100
AcDbEntity
  8
0
100
AcDbCircle
 62
7
  6
BYLAYER
 10
12.757271816
 20
23.9038118167
 40
7.3480429233
100
AcDbArc
 50
8.980910335
 51
335.3893363479
  0
SPLINE
  5
22B
100
AcDbEntity
  8
0
100
AcDbSpline
 62
7
  6
BYLAYER
 70
0
 71
3
 72
22
 73
18
 74
0
 42
0.0000001
 43
0.0000001
 44
0.0000000001
 40
0.0
 40
0.0
 40
0.0
 40
0.0
 40
0.0150499234
 40
0.0303688684
 40
0.0627408015
 40
0.0988367737
 40
0.1397479711
 40
0.1860619815
 40
0.23802177
 40
0.2956040347
 40
0.3586094604
 40
0.426702385
 40
0.4994428054
 40
0.5763053663
 40
0.6566821453
 40
0.8253976805
 40
1.0
 40
1.0
 40
1.0
 40
1.0
 10
30.388411153
 20
20.8461711095
 30
0.0
 10
30.4001886782
 20
20.8461710292
 30
0.0
 10
30.4239894318
 20
20.8478921864
 30
0.0
 10
30.4721074317
 20
20.8583406508
 30
0.0
 10
30.5326463624
 20
20.8854360934
 30
0.0
 10
30.601495286
 20
20.9371652365
 30
0.0
 10
30.667744128
 20
21.0078567752
 30
0.0
 10
30.7310873698
 20
21.0967712608
 30
0.0
 10
30.7910680285
 20
21.2031779794
 30
0.0
 10
30.8472195933
 20
21.3261231696
 30
0.0
 10
30.8990120829
 20
21.4645050187
 30
0.0
 10
30.9459671519
 20
21.6170391046
 30
0.0
 10
30.9876285591
 20
21.7822960061
 30
0.0
 10
31.0235888695
 20
21.9586996676
 30
0.0
 10
31.0641347661
 20
22.210599111
 30
0.0
 10
31.0977440227
 20
22.5407702696
 30
0.0
 10
31.1066534552
 20
22.8095179615
 30
0.0
 10
31.1066534552
 20
22.9461554154
 30
0.0
  0
SPLINE
  5
22C
100
AcDbEntity
  8
0
100
AcDbSpline
 62
7
  6
BYLAYER
 70
0
 71
3
 72
22
 73
18
 74
0
 42
0.0000001
 43
0.0000001
 44
0.0000000001
 40
0.0
 40
0.0
 40
0.0
 40
0.0
 40
0.174601073
 40
0.3433132367
 40
0.4236893358
 40
0.5005513986
 40
0.573291109
 40
0.641384341
 40
0.7043900847
 40
0.761973724
 40
0.8139343437
 40
0.8602497532
 40
0.9011617599
 40
0.9372585289
 40
0.9696308671
 40
0.9849499478
 40
1.0
 40
1.0
 40
1.0
 40
1.0
 10
31.1066534552
 20
22.9461554154
 30
0.0
 10
31.1066534552
 20
23.0827918998
 30
0.0
 10
31.0977443774
 20
23.3515359852
 30
0.0
 10
31.0641359981
 20
23.6817030907
 30
0.0
 10
31.0235909225
 20
23.9335990422
 30
0.0
 10
30.9876324786
 20
24.1100016089
 30
0.0
 10
30.9459706306
 20
24.2752576487
 30
0.0
 10
30.8990177941
 20
24.4277923918
 30
0.0
 10
30.8472239415
 20
24.5661753637
 30
0.0
 10
30.7910741191
 20
24.6891235714
 30
0.0
 10
30.7310912728
 20
24.7955322706
 30
0.0
 10
30.6677484783
 20
24.8844500252
 30
0.0
 10
30.601497678
 20
24.9551429969
 30
0.0
 10
30.5326482656
 20
25.0068740176
 30
0.0
 10
30.4721083203
 20
25.03397015
 30
0.0
 10
30.4239896883
 20
25.0444180618
 30
0.0
 10
30.400188782
 20
25.0461396411
 30
0.0
 10
30.3884111555
 20
25.0461397213
 30
0.0
  0
SPLINE
  5
22D
100
AcDbEntity
  8
0
100
AcDbSpline
 62
7
  6
BYLAYER
 70
0
 71
3
 72
22
 73
18
 74
0
 42
0.0000001
 43
0.0000001
 44
0.0000000001
 40
0.0
 40
0.0
 40
0.0
 40
0.0
 40
0.174601073
 40
0.3433132367
 40
0.4236893358
 40
0.5005513986
 40
0.573291109
 40
0.641384341
 40
0.7043900847
 40
0.761973724
 40
0.8139343437
 40
0.8602497532
 40
0.9011617599
 40
0.9372585289
 40
0.9696308671
 40
0.9849499478
 40
1.0
 40
1.0
 40
1.0
 40
1.0
 10
29.6701688533
 20
22.9461554154
 30
0.0
 10
29.6701688533
 20
22.809518931
 30
0.0
 10
29.6790779311
 20
22.5407748457
 30
0.0
 10
29.7126863104
 20
22.2106077401
 30
0.0
 10
29.753231386
 20
21.9587117886
 30
0.0
 10
29.7891898298
 20
21.7823092219
 30
0.0
 10
29.8308516779
 20
21.6170531821
 30
0.0
 10
29.8778045144
 20
21.464518439
 30
0.0
 10
29.929598367
 20
21.3261354671
 30
0.0
 10
29.9857481894
 20
21.2031872594
 30
0.0
 10
30.0457310357
 20
21.0967785602
 30
0.0
 10
30.1090738302
 20
21.0078608056
 30
0.0
 10
30.1753246305
 20
20.9371678339
 30
0.0
 10
30.2441740429
 20
20.8854368132
 30
0.0
 10
30.3047139881
 20
20.8583406808
 30
0.0
 10
30.3528326201
 20
20.8478927691
 30
0.0
 10
30.3766335265
 20
20.8461711897
 30
0.0
 10
30.388411153
 20
20.8461711095
 30
0.0
  0
SPLINE
  5
22E
100
AcDbEntity
  8
0
100
AcDbSpline
 62
7
  6
BYLAYER
 70
0
 71
3
 72
22
 73
18
 74
0
 42
0.0000001
 43
0.0000001
 44
0.0000000001
 40
0.0
 40
0.0
 40
0.0
 40
0.0
 40
0.0150499234
 40
0.0303688684
 40
0.0627408015
 40
0.0988367737
 40
0.1397479711
 40
0.1860619815
 40
0.23802177
 40
0.2956040347
 40
0.3586094604
 40
0.426702385
 40
0.4994428054
 40
0.5763053663
 40
0.6566821453
 40
0.8253976805
 40
1.0
 40
1.0
 40
1.0
 40
1.0
 10
30.3884111555
 20
25.0461397213
 30
0.0
 10
30.3766336303
 20
25.0461398016
 30
0.0
 10
30.3528328767
 20
25.0444186444
 30
0.0
 10
30.3047148768
 20
25.03397018
 30
0.0
 10
30.2441759461
 20
25.0068747374
 30
0.0
 10
30.1753270224
 20
24.9551455943
 30
0.0
 10
30.1090781805
 20
24.8844540556
 30
0.0
 10
30.0457349387
 20
24.79553957
 30
0.0
 10
29.9857542799
 20
24.6891328514
 30
0.0
 10
29.9296027152
 20
24.5661876612
 30
0.0
 10
29.8778102256
 20
24.4278058121
 30
0.0
 10
29.8308551566
 20
24.2752717262
 30
0.0
 10
29.7891937494
 20
24.1100148247
 30
0.0
 10
29.753233439
 20
23.9336111632
 30
0.0
 10
29.7126875424
 20
23.6817117198
 30
0.0
 10
29.6790782858
 20
23.3515405612
 30
0.0
 10
29.6701688533
 20
23.0827928693
 30
0.0
 10
29.6701688533
 20
22.9461554154
 30
0.0
  0
SPLINE
  5
22F
100
AcDbEntity
  8
0
100
AcDbSpline
 62
7
  6
BYLAYER
 70
0
 71
3
 72
22
 73
18
 74
0
 42
0.0000001
 43
0.0000001
 44
0.0000000001
 40
0.0
 40
0.0
 40
0.0
 40
0.0
 40
0.0150500599
 40
0.0303691392
 40
0.0627414127
 40
0.0988379214
 40
0.1397496169
 40
0.1860644178
 40
0.2380246217
 40
0.2956079855
 40
0.3586150034
 40
0.426710145
 40
0.4994510035
 40
0.5763131445
 40
0.6566889021
 40
0.825400099
 40
1.0
 40
1.0
 40
1.0
 40
1.0
 10
21.968209721
 20
20.8461660287
 30
0.0
 10
21.9564320638
 20
20.8461660287
 30
0.0
 10
21.9326310768
 20
20.84788741
 30
0.0
 10
21.8845124335
 20
20.8583356219
 30
0.0
 10
21.8239727059
 20
20.8854318242
 30
0.0
 10
21.7551233629
 20
20.937162438
 30
0.0
 10
21.6888734166
 20
21.0078552114
 30
0.0
 10
21.6255305567
 20
21.0967718963
 30
0.0
 10
21.5655484893
 20
21.2031801682
 30
0.0
 10
21.5093974371
 20
21.3261286177
 30
0.0
 10
21.457603644
 20
21.4645144054
 30
0.0
 10
21.410649558
 20
21.6170526296
 30
0.0
 10
21.3689868445
 20
21.7823113661
 30
0.0
 10
21.3330286958
 20
21.9587150882
 30
0.0
 10
21.2924843294
 20
22.2106107127
 30
0.0
 10
21.2588762482
 20
22.5407765835
 30
0.0
 10
21.24996742
 20
22.8095195627
 30
0.0
 10
21.24996742
 20
22.9461554154
 30
0.0
  0
SPLINE
  5
230
100
AcDbEntity
  8
0
100
AcDbSpline
 62
7
  6
BYLAYER
 70
0
 71
3
 72
22
 73
18
 74
0
 42
0.0000001
 43
0.0000001
 44
0.0000000001
 40
0.0
 40
0.0
 40
0.0
 40
0.0
 40
0.174599901
 40
0.3433110979
 40
0.4236868555
 40
0.5005489965
 40
0.573289855
 40
0.6413849966
 40
0.7043920145
 40
0.7619753783
 40
0.8139355822
 40
0.8602503831
 40
0.9011620786
 40
0.9372585873
 40
0.9696308608
 40
0.9849499401
 40
1.0
 40
1.0
 40
1.0
 40
1.0
 10
21.24996742
 20
22.9461554154
 30
0.0
 10
21.24996742
 20
23.0827912681
 30
0.0
 10
21.2588762482
 20
23.3515342473
 30
0.0
 10
21.2924843294
 20
23.6817001181
 30
0.0
 10
21.3330286958
 20
23.9335957426
 30
0.0
 10
21.3689868445
 20
24.1099994647
 30
0.0
 10
21.410649558
 20
24.2752582012
 30
0.0
 10
21.457603644
 20
24.4277964254
 30
0.0
 10
21.5093974371
 20
24.5661822131
 30
0.0
 10
21.5655484893
 20
24.6891306626
 30
0.0
 10
21.6255305567
 20
24.7955389345
 30
0.0
 10
21.6888734166
 20
24.8844556194
 30
0.0
 10
21.7551233629
 20
24.9551483928
 30
0.0
 10
21.8239727059
 20
25.0068790066
 30
0.0
 10
21.8845124335
 20
25.0339752089
 30
0.0
 10
21.9326310768
 20
25.0444234208
 30
0.0
 10
21.9564320638
 20
25.0461448021
 30
0.0
 10
21.968209721
 20
25.0461448021
 30
0.0
  0
ENDSEC
  0
SECTION
  2
OBJECTS
  0
DICTIONARY
  5
C
100
AcDbDictionary
280
0
281
1
  3
ACAD_GROUP
350
D
  3
ACAD_MLINESTYLE
350
17
  3
ACAD_LAYOUT
350
1A
  3
ACAD_PLOTSETTINGS
350
19
  3
ACAD_PLOTSTYLENAME
350
E
  0
DICTIONARY
  5
D
102
{ACAD_REACTORS
330
C
102
}
100
AcDbDictionary
280
0
281
1
  0
ACDBDICTIONARYWDFLT
  5
E
102
{ACAD_REACTORS
330
C
102
}
100
AcDbDictionary
281
1
  3
Normal
350
F
100
AcDbDictionaryWithDefault
340
F
  0
DICTIONARY
  5
17
102
{ACAD_REACTORS
330
C
102
}
100
AcDbDictionary
280
0
281
1
  3
Standard
350
18
  0
DICTIONARY
  5
19
102
{ACAD_REACTORS
330
C
102
}
100
AcDbDictionary
281
1
  0
DICTIONARY
  5
1A
102
{ACAD_REACTORS
330
C
102
}
100
AcDbDictionary
281
1
  3
Model
350
231
  3
Layout1
350
232
  0
ACDBPLACEHOLDER
  5
F
102
{ACAD_REACTORS
330
E
102
}
  0
MLINESTYLE
  5
18
102
{ACAD_REACTORS
330
17
102
}
100
AcDbMlineStyle
  2
STANDARD
 70
0
  3

 62
256
 51
90.0
 52
90.0
 71
2
 49
0.5
 62
256
  6
BYLAYER
 49
-0.5
 62
256
  6
BYLAYER
  0
LAYOUT
  5
231
102
{ACAD_REACTORS
330
1A
102
}
100
AcDbPlotSettings
  1

  2
none_device
  4

  6

 40
0.0
 41
0.0
 42
0.0
 43
0.0
 44
210.0
 45
297.0
 46
0.0
 47
0.0
 48
0.0
 49
0.0
140
0.0
141
0.0
142
1.0
143
1.0
 70
1024
 72
1
 73
0
 74
0
  7

 75
0
147
1.0
148
0.0
149
0.0
100
AcDbLayout
  1
Model
 70
0
 71
0
 10
0.0
 20
0.0
 11
210.0
 21
297.0
 12
0.0
 22
0.0
 32
0.0
 14
0.0
 24
0.0
 34
0.0
 15
0.0
 25
0.0
 35
0.0
146
0.0
 13
0.0
 23
0.0
 33
0.0
 16
1.0
 26
0.0
 36
0.0
 17
0.0
 27
1.0
 37
0.0
 76
0
330
210
345
0
346
0
  0
LAYOUT
  5
232
102
{ACAD_REACTORS
330
1A
102
}
100
AcDbPlotSettings
  1

  2
none_device
  4

  6

 40
0.0
 41
0.0
 42
0.0
 43
0.0
 44
210.0
 45
297.0
 46
0.0
 47
0.0
 48
0.0
 49
0.0
140
0.0
141
0.0
142
1.0
143
1.0
 70
0
 72
1
 73
0
 74
0
  7

 75
0
147
1.0
148
0.0
149
0.0
100
AcDbLayout
  1
Layout1
 70
0
 71
1
 10
0.0
 20
0.0
 11
210.0
 21
297.0
 12
0.0
 22
0.0
 32
0.0
 14
0.0
 24
0.0
 34
0.0
 15
0.0
 25
0.0
 35
0.0
146
0.0
 13
0.0
 23
0.0
 33
0.0
 16
1.0
 26
0.0
 36
0.0
 17
0.0
 27
1.0
 37
0.0
 76
0
330
211
345
0
346
0
  0
ENDSEC
  0
EOF
