999
DXF file: C:\Users\sesa63760\Dev\_Creo\CAD\MCADPP0003323_3D-CAD\drw0001_1.dxf
999
Pro/ENGINEER 2019471 by Parametric Technology Corporation
  0
SECTION
  2
HEADER
  9
$ACADVER
  1
AC1024
  9
$DWGCODEPAGE
  3
ANSI_1252
  9
$EXTMAX
 10
195.5122901405
 20
276.510238913
 30
0.0
  9
$EXTMIN
 10
0.0
 20
0.0
 30
0.0
  9
$LIMMIN
 10
0.0
 20
0.0
  9
$LIMMAX
 10
195.5122901405
 20
276.510238913
  9
$VIEWCTR
 10
97.7561450703
 20
138.2551194565
  9
$VIEWSIZE
 40
276.510238913
  9
$CLAYER
  8
0
  9
$LTSCALE
 40
18.0243711291
  9
$CELTYPE
  6
BYLAYER
  9
$DIMSCALE
 40
1.0
  9
$DIMASZ
 40
2.3275272636
  9
$DIMEXO
 40
1.0
  9
$DIMDLI
 40
12.453201871
  9
$DIMEXE
 40
1.0
  9
$DIMCEN
 40
2.9494425484
  9
$DIMLFAC
 40
1.0
  9
$DIMBLK
  1
_FILLED
  9
$DIMALT
 70
0
  9
$DIMALTF
 40
0.0393700787
  9
$DIMTXT
 40
3.258538169
  9
$DIMTOL
 70
1
  9
$DIMLIM
 70
0
  9
$DIMTFAC
 40
1.0
  9
$DIMTP
 40
0.01
  9
$DIMTM
 40
0.01
  9
$DIMGAP
 40
0.625
  9
$DIMDSEP
 70
46
  9
$AUNITS
 70
0
  9
$PDMODE
 70
3
  9
$PDSIZE
 40
0.3125
  9
$HANDSEED
  5
2EA
  9
$TILEMODE
 70
1
  9
$MEASUREMENT
 70
1
  9
$INSUNITS
 70
4
  0
ENDSEC
  0
SECTION
  2
CLASSES
  0
CLASS
  1
ACDBDICTIONARYWDFLT
  2
AcDbDictionaryWithDefault
  3
AutoCAD 2000
 90
0
 91
1
280
0
281
0
  0
CLASS
  1
ACDBPLACEHOLDER
  2
AcDbPlaceHolder
  3
AutoCAD 2000
 90
0
 91
1
280
0
281
0
  0
CLASS
  1
LAYOUT
  2
AcDbLayout
  3
AutoCAD 2000
 90
0
 91
0
280
0
281
0
  0
ENDSEC
  0
SECTION
  2
TABLES
  0
TABLE
  2
VPORT
  5
8
100
AcDbSymbolTable
 70
2
  0
VPORT
  5
1F4
100
AcDbSymbolTableRecord
100
AcDbViewportTableRecord
  2
*ACTIVE
 70
0
 10
0.0
 20
0.0
 11
1.0
 21
1.0
 12
97.7561450703
 22
138.2551194565
 13
0.0
 23
0.0
 14
1.0
 24
1.0
 15
0.0
 25
0.0
 16
0.0
 26
0.0
 36
1.0
 17
0.0
 27
0.0
 37
0.0
 40
276.510238913
 41
0.7070707071
 42
50.0
 43
0.0
 44
0.0
 50
0.0
 51
0.0
 71
0
 72
100
 73
1
 74
1
 75
0
 76
0
 77
0
 78
0
  0
ENDTAB
  0
TABLE
  2
LTYPE
  5
5
100
AcDbSymbolTable
 70
6
  0
LTYPE
  5
14
100
AcDbSymbolTableRecord
100
AcDbLinetypeTableRecord
  2
BYBLOCK
 70
0
  3

 72
65
 73
0
 40
0.0
  0
LTYPE
  5
15
100
AcDbSymbolTableRecord
100
AcDbLinetypeTableRecord
  2
BYLAYER
 70
0
  3

 72
65
 73
0
 40
0.0
  0
LTYPE
  5
16
100
AcDbSymbolTableRecord
100
AcDbLinetypeTableRecord
  2
CONTINUOUS
 70
64
  3
Solid line
 72
65
 73
0
 40
0.0
  0
LTYPE
  5
1F5
100
AcDbSymbolTableRecord
100
AcDbLinetypeTableRecord
  2
CENTER
 70
64
  3
____ _ ____ _ ____ _ ____ _ ____ _ ____ _ ____
 72
65
 73
4
 40
0.6
 49
0.375
 74
0
 49
-0.075
 74
0
 49
0.075
 74
0
 49
-0.075
 74
0
  0
LTYPE
  5
1F6
100
AcDbSymbolTableRecord
100
AcDbLinetypeTableRecord
  2
HIDDEN
 70
64
  3
- - - - - - - - - - - - - - - - - - - -
 72
65
 73
2
 40
0.2
 49
0.1
 74
0
 49
-0.1
 74
0
  0
LTYPE
  5
1F7
100
AcDbSymbolTableRecord
100
AcDbLinetypeTableRecord
  2
PHANTOM
 70
64
  3
_____ _ _ _____ _ _ _____ _ _ _____
 72
65
 73
6
 40
0.8
 49
0.45
 74
0
 49
-0.05
 74
0
 49
0.1
 74
0
 49
-0.05
 74
0
 49
0.1
 74
0
 49
-0.05
 74
0
  0
LTYPE
  5
1F8
100
AcDbSymbolTableRecord
100
AcDbLinetypeTableRecord
  2
DOT
 70
64
  3
. . . . . . . . . . . . . . . . . . . .
 72
65
 73
2
 40
0.2
 49
0.1
 74
0
 49
-0.1
 74
0
  0
LTYPE
  5
1F9
100
AcDbSymbolTableRecord
100
AcDbLinetypeTableRecord
  2
DASHED
 70
64
  3
- - - - - - - - - - - - - - - - - - - -
 72
65
 73
2
 40
0.2
 49
0.1
 74
0
 49
-0.1
 74
0
  0
ENDTAB
  0
TABLE
  2
LAYER
  5
2
100
AcDbSymbolTable
 70
36
  0
LAYER
  5
10
100
AcDbSymbolTableRecord
100
AcDbLayerTableRecord
  2
0
 70
0
 62
7
  6
CONTINUOUS
370
-3
390
F
  0
LAYER
  5
1FA
100
AcDbSymbolTableRecord
100
AcDbLayerTableRecord
  2
DEFAULT_1
 70
0
 62
7
  6
CENTER
370
-3
390
F
  0
LAYER
  5
1FB
100
AcDbSymbolTableRecord
100
AcDbLayerTableRecord
  2
DEFAULT_2
 70
0
 62
8
  6
HIDDEN
370
-3
390
F
  0
LAYER
  5
1FC
100
AcDbSymbolTableRecord
100
AcDbLayerTableRecord
  2
DEFAULT_3
 70
0
 62
7
  6
PHANTOM
370
-3
390
F
  0
LAYER
  5
1FD
100
AcDbSymbolTableRecord
100
AcDbLayerTableRecord
  2
00_COMPONENTS
 70
0
 62
7
  6
CONTINUOUS
370
-3
390
F
  0
LAYER
  5
1FE
100
AcDbSymbolTableRecord
100
AcDbLayerTableRecord
  2
01_1_DEFAULT_DATUMS
 70
0
 62
7
  6
CONTINUOUS
370
-3
390
F
  0
LAYER
  5
1FF
100
AcDbSymbolTableRecord
100
AcDbLayerTableRecord
  2
01_PLANES
 70
0
 62
7
  6
CONTINUOUS
370
-3
390
F
  0
LAYER
  5
200
100
AcDbSymbolTableRecord
100
AcDbLayerTableRecord
  2
02_COORD_SYS
 70
0
 62
7
  6
CONTINUOUS
370
-3
390
F
  0
LAYER
  5
201
100
AcDbSymbolTableRecord
100
AcDbLayerTableRecord
  2
03_AXES
 70
0
 62
7
  6
CONTINUOUS
370
-3
390
F
  0
LAYER
  5
202
100
AcDbSymbolTableRecord
100
AcDbLayerTableRecord
  2
04_POINTS
 70
0
 62
7
  6
CONTINUOUS
370
-3
390
F
  0
LAYER
  5
203
100
AcDbSymbolTableRecord
100
AcDbLayerTableRecord
  2
05_CURVES
 70
0
 62
7
  6
CONTINUOUS
370
-3
390
F
  0
LAYER
  5
204
100
AcDbSymbolTableRecord
100
AcDbLayerTableRecord
  2
06_SURFS
 70
0
 62
7
  6
CONTINUOUS
370
-3
390
F
  0
LAYER
  5
205
100
AcDbSymbolTableRecord
100
AcDbLayerTableRecord
  2
07_COSMETICS
 70
0
 62
7
  6
CONTINUOUS
370
-3
390
F
  0
LAYER
  5
206
100
AcDbSymbolTableRecord
100
AcDbLayerTableRecord
  2
10_NOTES
 70
0
 62
7
  6
CONTINUOUS
370
-3
390
F
  0
LAYER
  5
207
100
AcDbSymbolTableRecord
100
AcDbLayerTableRecord
  2
11_NOTES_PUB
 70
0
 62
7
  6
CONTINUOUS
370
-3
390
F
  0
LAYER
  5
208
100
AcDbSymbolTableRecord
100
AcDbLayerTableRecord
  2
13_REF_GTOL
 70
0
 62
7
  6
CONTINUOUS
370
-3
390
F
  0
LAYER
  5
209
100
AcDbSymbolTableRecord
100
AcDbLayerTableRecord
  2
16_MISC
 70
0
 62
7
  6
CONTINUOUS
370
-3
390
F
  0
LAYER
  5
20A
100
AcDbSymbolTableRecord
100
AcDbLayerTableRecord
  2
17_NO_PRINT
 70
0
 62
7
  6
CONTINUOUS
370
-3
390
F
  0
LAYER
  5
20B
100
AcDbSymbolTableRecord
100
AcDbLayerTableRecord
  2
18_DATUM_CAMS_JOINTS
 70
0
 62
7
  6
CONTINUOUS
370
-3
390
F
  0
LAYER
  5
20C
100
AcDbSymbolTableRecord
100
AcDbLayerTableRecord
  2
19_DATUM_FUNCTIONAL
 70
0
 62
7
  6
CONTINUOUS
370
-3
390
F
  0
LAYER
  5
20D
100
AcDbSymbolTableRecord
100
AcDbLayerTableRecord
  2
20_DATUM_KINEMATIC_SCHEME
 70
0
 62
7
  6
CONTINUOUS
370
-3
390
F
  0
ENDTAB
  0
TABLE
  2
STYLE
  5
3
100
AcDbSymbolTable
 70
1
  0
STYLE
  5
11
100
AcDbSymbolTableRecord
100
AcDbTextStyleTableRecord
  2
STANDARD
 70
0
 40
0.0
 41
0.8
 50
0.0
 71
0
 42
0.2
  3
txt
  4

  0
STYLE
  5
20E
100
AcDbSymbolTableRecord
100
AcDbTextStyleTableRecord
  2
TEXTSTYLE_1
 70
0
 40
0.0
 41
0.8
 50
0.0
 71
0
 42
0.2
  3
gdt
  4

  0
ENDTAB
  0
TABLE
  2
VIEW
  5
6
100
AcDbSymbolTable
 70
0
  0
ENDTAB
  0
TABLE
  2
UCS
  5
7
100
AcDbSymbolTable
 70
0
  0
ENDTAB
  0
TABLE
  2
APPID
  5
9
100
AcDbSymbolTable
 70
1
  0
APPID
  5
20F
100
AcDbSymbolTableRecord
100
AcDbRegAppTableRecord
  2
ACAD
 70
0
  0
ENDTAB
  0
TABLE
  2
BLOCK_RECORD
  5
1
100
AcDbSymbolTable
 70
0
  0
BLOCK_RECORD
  5
210
100
AcDbSymbolTableRecord
100
AcDbBlockTableRecord
  2
*Model_Space
  0
BLOCK_RECORD
  5
211
100
AcDbSymbolTableRecord
100
AcDbBlockTableRecord
  2
*Paper_Space
  0
BLOCK_RECORD
  5
212
100
AcDbSymbolTableRecord
100
AcDbBlockTableRecord
  2
_FILLED
  0
ENDTAB
  0
TABLE
  2
DIMSTYLE
  5
A
100
AcDbSymbolTable
 70
1
100
AcDbDimStyleTable
 71
0
  0
DIMSTYLE
105
213
100
AcDbSymbolTableRecord
100
AcDbDimStyleTableRecord
  2
STANDARD
 70
0
  3

  4

 40
1.0
 41
2.3275272636
 42
1.0
 43
0.38
 44
1.0
 45
0.0
 46
0.0
 47
0.01
 48
0.01
140
3.258538169
141
0.09
142
0.0
143
25.4
144
1.0
145
0.0
146
1.0
147
0.625
 71
1
 72
0
 73
0
 74
0
 75
0
 76
0
 77
1
 78
8
 79
2
170
0
171
1
172
0
173
0
174
0
175
0
176
0
177
0
178
0
270
2
179
2
271
2
272
2
273
2
274
2
275
0
280
0
281
0
282
0
283
1
284
8
285
0
286
0
287
3
288
0
340
11
278
46
341
212
342
212
343
212
344
212
  0
ENDTAB
  0
ENDSEC
  0
SECTION
  2
BLOCKS
  0
BLOCK
  5
20
100
AcDbEntity
  8
0
100
AcDbBlockBegin
  2
*Model_Space
 70
0
 10
0.0
 20
0.0
 30
0.0
  3
*Model_Space
  1

  0
ENDBLK
  5
21
100
AcDbEntity
  8
0
100
AcDbBlockEnd
  0
BLOCK
  5
1C
100
AcDbEntity
  8
0
100
AcDbBlockBegin
  2
*Paper_Space
 70
0
 10
0.0
 20
0.0
 30
0.0
  3
*Paper_Space
  1

  0
ENDBLK
  5
1D
100
AcDbEntity
  8
0
100
AcDbBlockEnd
  0
BLOCK
  5
214
100
AcDbEntity
  8
0
100
AcDbBlockBegin
  2
_FILLED
 70
64
 10
0.0
 20
0.0
  3
_FILLED
  1

  0
SOLID
  5
215
100
AcDbEntity
  8
0
  6
BYBLOCK
 62
0
100
AcDbTrace
 10
0.0
 20
0.0
 11
-1.0
 21
0.25
 12
-1.0
 22
-0.25
 13
-1.0
 23
-0.25
  0
ENDBLK
  5
216
100
AcDbEntity
  8
0
  6
BYBLOCK
 62
0
100
AcDbBlockEnd
  0
ENDSEC
  0
SECTION
  2
ENTITIES
  0
LINE
  5
217
100
AcDbEntity
  8
0
100
AcDbLine
 62
7
  6
CONTINUOUS
 10
22.6816750786
 20
169.3793066693
 11
22.6816750786
 21
149.6695437685
  0
LINE
  5
218
100
AcDbEntity
  8
0
100
AcDbLine
 62
7
  6
CONTINUOUS
 10
33.5660112345
 20
187.3103951874
 11
71.7445310185
 21
209.3526422875
  0
LINE
  5
219
100
AcDbEntity
  8
0
100
AcDbLine
 62
7
  6
CONTINUOUS
 10
33.4462875667
 20
122.0593227452
 11
33.5660112345
 21
187.3103951874
  0
LINE
  5
21A
100
AcDbEntity
  8
0
100
AcDbLine
 62
7
  6
CONTINUOUS
 10
24.1397142271
 20
171.2954474342
 11
23.3455039776
 21
170.8448465757
  0
LINE
  5
21B
100
AcDbEntity
  8
0
100
AcDbLine
 62
7
  6
CONTINUOUS
 10
24.885507583
 20
170.6969872452
 11
25.6876380837
 21
171.152065349
  0
LINE
  5
21C
100
AcDbEntity
  8
0
100
AcDbLine
 62
7
  6
CONTINUOUS
 10
57.8276241448
 20
184.0502011894
 11
58.304919235
 21
184.3257659933
  0
LINE
  5
21D
100
AcDbEntity
  8
0
100
AcDbLine
 62
7
  6
CONTINUOUS
 10
76.9226947658
 20
195.0746795454
 11
77.3999898559
 21
195.3502443492
  0
LINE
  5
21E
100
AcDbEntity
  8
0
100
AcDbLine
 62
7
  6
CONTINUOUS
 10
56.7471340457
 20
182.7061453684
 11
58.4513777223
 21
183.6900850405
  0
LINE
  5
21F
100
AcDbEntity
  8
0
100
AcDbLine
 62
7
  6
CONTINUOUS
 10
58.9286728124
 20
183.9656498444
 11
60.632916489
 21
184.9495895165
  0
LINE
  5
220
100
AcDbEntity
  8
0
100
AcDbLine
 62
7
  6
CONTINUOUS
 10
75.8422046667
 20
193.7306237243
 11
77.5464483433
 21
194.7145633964
  0
LINE
  5
221
100
AcDbEntity
  8
0
100
AcDbLine
 62
7
  6
CONTINUOUS
 10
78.0237434334
 20
194.9901282003
 11
79.7279871099
 21
195.9740678724
  0
LINE
  5
222
100
AcDbEntity
  8
0
100
AcDbLine
 62
7
  6
CONTINUOUS
 10
80.152252945
 20
195.7291234197
 11
78.4480092685
 21
194.7451837476
  0
LINE
  5
223
100
AcDbEntity
  8
0
100
AcDbLine
 62
7
  6
CONTINUOUS
 10
77.9707141783
 20
194.4696189437
 11
76.2664705018
 21
193.4856792716
  0
LINE
  5
224
100
AcDbEntity
  8
0
100
AcDbLine
 62
7
  6
CONTINUOUS
 10
61.0571823241
 20
184.7046450638
 11
59.3529386475
 21
183.7207053917
  0
LINE
  5
225
100
AcDbEntity
  8
0
100
AcDbLine
 62
7
  6
CONTINUOUS
 10
58.8756435574
 20
183.4451405878
 11
57.1713998808
 21
182.4612009157
  0
LINE
  5
226
100
AcDbEntity
  8
0
100
AcDbLine
 62
7
  6
CONTINUOUS
 10
79.0717628459
 20
194.3850675987
 11
78.5944677558
 21
194.1095027948
  0
LINE
  5
227
100
AcDbEntity
  8
0
100
AcDbLine
 62
7
  6
CONTINUOUS
 10
59.976692225
 20
183.3605892427
 11
59.4993971349
 21
183.0850244389
  0
LINE
  5
228
100
AcDbEntity
  8
0
100
AcDbLine
 62
7
  6
CONTINUOUS
 10
64.5591154732
 20
176.3571934622
 11
102.7376352572
 21
198.3994405623
  0
LINE
  5
229
100
AcDbEntity
  8
0
100
AcDbLine
 62
7
  6
CONTINUOUS
 10
99.1605631063
 20
195.3369148674
 11
89.0065246078
 21
189.4745130008
  0
LINE
  5
22A
100
AcDbEntity
  8
0
100
AcDbLine
 62
7
  6
CONTINUOUS
 10
56.1380761596
 20
183.0244820037
 11
56.1380761596
 21
183.705448756
  0
LINE
  5
22B
100
AcDbEntity
  8
0
100
AcDbLine
 62
7
  6
CONTINUOUS
 10
56.7471340457
 20
182.7061453684
 11
56.7471340457
 21
182.4713536085
  0
LINE
  5
22C
100
AcDbEntity
  8
0
100
AcDbLine
 62
7
  6
CONTINUOUS
 10
57.1713998808
 20
182.2881852744
 11
57.1713998808
 21
182.4612009157
  0
LINE
  5
22D
100
AcDbEntity
  8
0
100
AcDbLine
 62
7
  6
CONTINUOUS
 10
58.304919235
 20
184.3257659933
 11
58.304919235
 21
183.7746409747
  0
LINE
  5
22E
100
AcDbEntity
  8
0
100
AcDbLine
 62
7
  6
CONTINUOUS
 10
58.4513777223
 20
183.6900850405
 11
58.4513777223
 21
183.2001920558
  0
LINE
  5
22F
100
AcDbEntity
  8
0
100
AcDbLine
 62
7
  6
CONTINUOUS
 10
99.1605631063
 20
191.2544027818
 11
92.5421343297
 21
187.4332739551
  0
LINE
  5
230
100
AcDbEntity
  8
0
100
AcDbLine
 62
7
  6
CONTINUOUS
 10
33.4462875667
 20
122.0593227452
 11
66.5583401815
 21
102.9425027348
  0
LINE
  5
231
100
AcDbEntity
  8
0
100
AcDbLine
 62
7
  6
CONTINUOUS
 10
93.6192512363
 20
87.3192318985
 11
127.3721573435
 21
67.8324233221
  0
LINE
  5
232
100
AcDbEntity
  8
0
100
AcDbLine
 62
7
  6
CONTINUOUS
 10
68.0354641474
 20
107.3969698198
 11
93.6192512363
 21
92.6264976098
  0
LINE
  5
233
100
AcDbEntity
  8
0
100
AcDbLine
 62
7
  6
CONTINUOUS
 10
68.0354641474
 20
106.480419013
 11
69.8670978651
 21
104.0925487915
  0
LINE
  5
234
100
AcDbEntity
  8
0
100
AcDbLine
 62
7
  6
CONTINUOUS
 10
58.9286728124
 20
183.9656498444
 11
58.9286728124
 21
183.4145248257
  0
LINE
  5
235
100
AcDbEntity
  8
0
100
AcDbLine
 62
7
  6
CONTINUOUS
 10
59.3529386475
 20
183.7207053917
 11
59.3529386475
 21
183.169580373
  0
LINE
  5
236
100
AcDbEntity
  8
0
100
AcDbLine
 62
7
  6
CONTINUOUS
 10
60.632916489
 20
184.4596965318
 11
60.632916489
 21
184.9495895165
  0
LINE
  5
237
100
AcDbEntity
  8
0
100
AcDbLine
 62
7
  6
CONTINUOUS
 10
61.6660832074
 20
183.2304954911
 11
61.6660832074
 21
183.705448756
  0
LINE
  5
238
100
AcDbEntity
  8
0
100
AcDbLine
 62
7
  6
CONTINUOUS
 10
64.5591154732
 20
176.3571934622
 11
64.5591154732
 21
169.4169229166
  0
LINE
  5
239
100
AcDbEntity
  8
0
100
AcDbLine
 62
7
  6
CONTINUOUS
 10
137.6859359195
 20
80.3665902041
 11
128.3909352732
 21
85.1278275252
  0
LINE
  5
23A
100
AcDbEntity
  8
0
100
AcDbLine
 62
7
  6
CONTINUOUS
 10
33.479549005
 20
140.187271538
 11
24.8073118638
 21
145.8114778701
  0
LINE
  5
23B
100
AcDbEntity
  8
0
100
AcDbLine
 62
7
  6
CONTINUOUS
 10
68.0354641474
 20
106.480419013
 11
68.0354641474
 21
107.3969698198
  0
LINE
  5
23C
100
AcDbEntity
  8
0
100
AcDbLine
 62
7
  6
CONTINUOUS
 10
69.8670978651
 20
103.1759979848
 11
69.8670978651
 21
104.0925487915
  0
LINE
  5
23D
100
AcDbEntity
  8
0
100
AcDbLine
 62
7
  6
CONTINUOUS
 10
113.8893090356
 20
185.2039703431
 11
122.6633555171
 21
190.2696382031
  0
LINE
  5
23E
100
AcDbEntity
  8
0
100
AcDbLine
 62
7
  6
CONTINUOUS
 10
115.5987177619
 20
183.6725370392
 11
124.3670951563
 21
188.7349318698
  0
LINE
  5
23F
100
AcDbEntity
  8
0
100
AcDbLine
 62
7
  6
CONTINUOUS
 10
69.8670978651
 20
103.1759979848
 11
66.5583401815
 21
102.9425027348
  0
LINE
  5
240
100
AcDbEntity
  8
0
100
AcDbLine
 62
7
  6
CONTINUOUS
 10
75.2333037834
 20
194.039285868
 11
75.2333037834
 21
194.7298200321
  0
LINE
  5
241
100
AcDbEntity
  8
0
100
AcDbLine
 62
7
  6
CONTINUOUS
 10
75.8422046667
 20
193.7306237243
 11
75.8422046667
 21
193.4925352938
  0
LINE
  5
242
100
AcDbEntity
  8
0
100
AcDbLine
 62
7
  6
CONTINUOUS
 10
76.2664705018
 20
193.3093669597
 11
76.2664705018
 21
193.4856792716
  0
LINE
  5
243
100
AcDbEntity
  8
0
100
AcDbLine
 62
7
  6
CONTINUOUS
 10
77.3999898559
 20
195.3502443492
 11
77.3999898559
 21
194.7991193306
  0
LINE
  5
244
100
AcDbEntity
  8
0
100
AcDbLine
 62
7
  6
CONTINUOUS
 10
77.5464483433
 20
194.7145633964
 11
77.5464483433
 21
194.2246704118
  0
LINE
  5
245
100
AcDbEntity
  8
0
100
AcDbLine
 62
7
  6
CONTINUOUS
 10
78.0237434334
 20
194.9901282003
 11
78.0237434334
 21
194.4390031817
  0
LINE
  5
246
100
AcDbEntity
  8
0
100
AcDbLine
 62
7
  6
CONTINUOUS
 10
78.4480092685
 20
194.7451837476
 11
78.4480092685
 21
194.194058729
  0
LINE
  5
247
100
AcDbEntity
  8
0
100
AcDbLine
 62
7
  6
CONTINUOUS
 10
115.4500833607
 20
177.8904726341
 11
124.3863203804
 21
183.0497806861
  0
LINE
  5
248
100
AcDbEntity
  8
0
100
AcDbLine
 62
7
  6
CONTINUOUS
 10
114.4356000032
 20
174.793361608
 11
124.5896385017
 21
180.6557634747
  0
LINE
  5
249
100
AcDbEntity
  8
0
100
AcDbLine
 62
7
  6
CONTINUOUS
 10
79.7279871099
 20
195.4841748877
 11
79.7279871099
 21
195.9740678724
  0
LINE
  5
24A
100
AcDbEntity
  8
0
100
AcDbLine
 62
7
  6
CONTINUOUS
 10
80.7613108312
 20
194.2583082423
 11
80.7613108312
 21
194.7298200321
  0
LINE
  5
24B
100
AcDbEntity
  8
0
100
AcDbLine
 62
7
  6
CONTINUOUS
 10
96.2741406124
 20
158.0469293943
 11
134.4526603964
 21
180.0891764943
  0
LINE
  5
24C
100
AcDbEntity
  8
0
100
AcDbLine
 62
7
  6
CONTINUOUS
 10
153.6664826406
 20
89.5929080816
 11
144.3714819942
 21
94.3541454027
  0
LINE
  5
24D
100
AcDbEntity
  8
0
100
AcDbLine
 62
7
  6
CONTINUOUS
 10
110.0905370116
 20
177.3019281445
 11
113.8893090356
 21
185.2039703431
  0
LINE
  5
24E
100
AcDbEntity
  8
0
100
AcDbLine
 62
7
  6
CONTINUOUS
 10
96.2741406124
 20
151.1066588487
 11
134.4526603964
 21
173.1489059488
  0
LINE
  5
24F
100
AcDbEntity
  8
0
100
AcDbLine
 62
7
  6
CONTINUOUS
 10
33.5283492395
 20
166.7840814512
 11
25.6878722896
 21
171.1519310613
  0
LINE
  5
250
100
AcDbEntity
  8
0
100
AcDbLine
 62
7
  6
CONTINUOUS
 10
24.8855580709
 20
170.6969547954
 11
33.5265405966
 21
165.7983458017
  0
LINE
  5
251
100
AcDbEntity
  8
0
100
AcDbLine
 62
7
  6
CONTINUOUS
 10
128.3901162608
 20
110.8047606949
 11
137.6977046896
 21
105.2906094876
  0
LINE
  5
252
100
AcDbEntity
  8
0
100
AcDbLine
 62
7
  6
CONTINUOUS
 10
129.2643976974
 20
111.30939643
 11
138.4859789154
 21
105.7537243483
  0
LINE
  5
253
100
AcDbEntity
  8
0
100
AcDbLine
 62
7
  6
CONTINUOUS
 10
93.6192512363
 20
92.6264976098
 11
93.6192512363
 21
87.3192318985
  0
LINE
  5
254
100
AcDbEntity
  8
0
100
AcDbLine
 62
7
  6
CONTINUOUS
 10
96.2741406124
 20
151.1066588487
 11
96.2741406124
 21
158.0469293943
  0
LINE
  5
255
100
AcDbEntity
  8
0
100
AcDbLine
 62
7
  6
CONTINUOUS
 10
99.1605631063
 20
195.3369148674
 11
99.1605631063
 21
191.2544027818
  0
LINE
  5
256
100
AcDbEntity
  8
0
100
AcDbLine
 62
7
  6
CONTINUOUS
 10
172.7582862455
 20
100.615500236
 11
163.463285599
 21
105.3767375572
  0
LINE
  5
257
100
AcDbEntity
  8
0
100
AcDbLine
 62
7
  6
CONTINUOUS
 10
115.4500833607
 20
177.8904726341
 11
114.3720604475
 21
174.8300453577
  0
LINE
  5
258
100
AcDbEntity
  8
0
100
AcDbLine
 62
7
  6
CONTINUOUS
 10
144.3706629819
 20
120.0310785724
 11
153.6782514102
 21
114.5169273653
  0
LINE
  5
259
100
AcDbEntity
  8
0
100
AcDbLine
 62
7
  6
CONTINUOUS
 10
123.396885836
 20
179.9671315126
 11
124.3863203804
 21
183.049780686
  0
LINE
  5
25A
100
AcDbEntity
  8
0
100
AcDbLine
 62
7
  6
CONTINUOUS
 10
68.0354641474
 20
106.480419013
 11
68.8292317775
 21
106.9386982323
  0
LINE
  5
25B
100
AcDbEntity
  8
0
100
AcDbLine
 62
7
  6
CONTINUOUS
 10
127.3721573435
 20
133.1526166924
 11
96.2741406124
 21
151.1066588487
  0
LINE
  5
25C
100
AcDbEntity
  8
0
100
AcDbLine
 62
7
  6
CONTINUOUS
 10
64.5591154732
 20
169.4169229166
 11
33.5660112345
 21
187.3103951874
  0
LINE
  5
25D
100
AcDbEntity
  8
0
100
AcDbLine
 62
7
  6
CONTINUOUS
 10
147.4819198656
 20
121.8273528494
 11
156.7895082944
 21
116.3132016421
  0
LINE
  5
25E
100
AcDbEntity
  8
0
100
AcDbLine
 62
7
  6
CONTINUOUS
 10
145.2449444184
 20
120.5357143075
 11
154.4665256364
 21
114.9800422258
  0
LINE
  5
25F
100
AcDbEntity
  8
0
100
AcDbLine
 62
7
  6
CONTINUOUS
 10
148.3562013022
 20
122.3319885846
 11
157.5777825202
 21
116.7763165028
  0
LINE
  5
260
100
AcDbEntity
  8
0
100
AcDbLine
 62
7
  6
CONTINUOUS
 10
115.5987177619
 20
183.6725370392
 11
115.4500833607
 21
177.8904726341
  0
LINE
  5
261
100
AcDbEntity
  8
0
100
AcDbLine
 62
7
  6
CONTINUOUS
 10
69.8670978651
 20
104.0925487915
 11
71.8130420984
 21
105.2160335122
  0
LINE
  5
262
100
AcDbEntity
  8
0
100
AcDbLine
 62
7
  6
CONTINUOUS
 10
69.8670978651
 20
103.1759979848
 11
72.6068097285
 21
104.7577619248
  0
LINE
  5
263
100
AcDbEntity
  8
0
100
AcDbLine
 62
7
  6
CONTINUOUS
 10
127.3721573435
 20
133.1526166924
 11
165.5506771275
 21
155.1948637925
  0
LINE
  5
264
100
AcDbEntity
  8
0
100
AcDbLine
 62
7
  6
CONTINUOUS
 10
96.2741406124
 20
158.0469293943
 11
64.5591154732
 21
176.3571934622
  0
LINE
  5
265
100
AcDbEntity
  8
0
100
AcDbLine
 62
7
  6
CONTINUOUS
 10
59.4993971349
 20
183.0850244389
 11
58.8756435574
 21
183.4451405878
  0
LINE
  5
266
100
AcDbEntity
  8
0
100
AcDbLine
 62
7
  6
CONTINUOUS
 10
58.4513777223
 20
183.6900850405
 11
57.8276241448
 21
184.0502011894
  0
LINE
  5
267
100
AcDbEntity
  8
0
100
AcDbLine
 62
7
  6
CONTINUOUS
 10
58.304919235
 20
184.3257659933
 11
58.9286728124
 21
183.9656498444
  0
LINE
  5
268
100
AcDbEntity
  8
0
100
AcDbLine
 62
7
  6
CONTINUOUS
 10
59.3529386475
 20
183.7207053917
 11
59.976692225
 21
183.3605892427
  0
LINE
  5
269
100
AcDbEntity
  8
0
100
AcDbLine
 62
7
  6
CONTINUOUS
 10
124.3863203804
 20
183.049780686
 11
124.3670951563
 21
188.7349318699
  0
LINE
  5
26A
100
AcDbEntity
  8
0
100
AcDbLine
 62
7
  6
CONTINUOUS
 10
127.3721573435
 20
67.8324233221
 11
127.3721573435
 21
133.1526166924
  0
LINE
  5
26B
100
AcDbEntity
  8
0
100
AcDbLine
 62
7
  6
CONTINUOUS
 10
163.4624665866
 20
131.0536707269
 11
172.7700550148
 21
125.5395195199
  0
LINE
  5
26C
100
AcDbEntity
  8
0
100
AcDbLine
 62
7
  6
CONTINUOUS
 10
164.3367480232
 20
131.5583064621
 11
173.5583292412
 21
126.0026343803
  0
LINE
  5
26D
100
AcDbEntity
  8
0
100
AcDbLine
 62
7
  6
CONTINUOUS
 10
128.3909352732
 20
85.1278275252
 11
128.3901162608
 21
110.8047606949
  0
LINE
  5
26E
100
AcDbEntity
  8
0
100
AcDbLine
 62
7
  6
CONTINUOUS
 10
134.4526603964
 20
173.1489059488
 11
134.4526603964
 21
180.0891764943
  0
LINE
  5
26F
100
AcDbEntity
  8
0
100
AcDbLine
 62
7
  6
CONTINUOUS
 10
140.7193664338
 20
101.8656864006
 11
140.7947703136
 21
82.2846468356
  0
LINE
  5
270
100
AcDbEntity
  8
0
100
AcDbLine
 62
7
  6
CONTINUOUS
 10
139.9307935414
 20
101.4004652264
 11
139.8585430341
 21
81.7326490263
  0
LINE
  5
271
100
AcDbEntity
  8
0
100
AcDbLine
 62
7
  6
CONTINUOUS
 10
164.3367485193
 20
131.5583321354
 11
163.4626022851
 21
131.0537504573
  0
LINE
  5
272
100
AcDbEntity
  8
0
100
AcDbLine
 62
7
  6
CONTINUOUS
 10
148.3562017983
 20
122.3320142579
 11
147.4820555641
 21
121.8274325798
  0
LINE
  5
273
100
AcDbEntity
  8
0
100
AcDbLine
 62
7
  6
CONTINUOUS
 10
145.2449449146
 20
120.5357399808
 11
144.3707986803
 21
120.0311583028
  0
LINE
  5
274
100
AcDbEntity
  8
0
100
AcDbLine
 62
7
  6
CONTINUOUS
 10
129.2643981935
 20
111.3094221033
 11
128.3902519593
 21
110.8048404253
  0
LINE
  5
275
100
AcDbEntity
  8
0
100
AcDbLine
 62
7
  6
CONTINUOUS
 10
78.5944677558
 20
194.1095027948
 11
77.9707141783
 21
194.4696189437
  0
LINE
  5
276
100
AcDbEntity
  8
0
100
AcDbLine
 62
7
  6
CONTINUOUS
 10
77.5464483433
 20
194.7145633964
 11
76.9226947658
 21
195.0746795454
  0
LINE
  5
277
100
AcDbEntity
  8
0
100
AcDbLine
 62
7
  6
CONTINUOUS
 10
77.3999898559
 20
195.3502443492
 11
78.0237434334
 21
194.9901282003
  0
LINE
  5
278
100
AcDbEntity
  8
0
100
AcDbLine
 62
7
  6
CONTINUOUS
 10
78.4480092685
 20
194.7451837476
 11
79.0717628459
 21
194.3850675987
  0
LINE
  5
279
100
AcDbEntity
  8
0
100
AcDbLine
 62
7
  6
CONTINUOUS
 10
89.0065246078
 20
189.4745130008
 11
114.4356000032
 21
174.793361608
  0
LINE
  5
27A
100
AcDbEntity
  8
0
100
AcDbLine
 62
7
  6
CONTINUOUS
 10
144.3714819942
 20
94.3541454027
 11
144.3706629819
 21
120.0310785724
  0
LINE
  5
27B
100
AcDbEntity
  8
0
100
AcDbLine
 62
7
  6
CONTINUOUS
 10
147.4820040536
 20
119.187966078
 11
147.4819198656
 21
121.8273528494
  0
LINE
  5
27C
100
AcDbEntity
  8
0
100
AcDbLine
 62
7
  6
CONTINUOUS
 10
138.4859789154
 20
105.7537243483
 11
137.6977560796
 21
105.2905828704
  0
LINE
  5
27D
100
AcDbEntity
  8
0
100
AcDbLine
 62
7
  6
CONTINUOUS
 10
154.4665256364
 20
114.9800422258
 11
153.6783028006
 21
114.5169007479
  0
LINE
  5
27E
100
AcDbEntity
  8
0
100
AcDbLine
 62
7
  6
CONTINUOUS
 10
157.5777825202
 20
116.7763165028
 11
156.7895596844
 21
116.313175025
  0
LINE
  5
27F
100
AcDbEntity
  8
0
100
AcDbLine
 62
7
  6
CONTINUOUS
 10
173.5583292412
 20
126.0026343803
 11
172.7701064054
 21
125.5394929025
  0
LINE
  5
280
100
AcDbEntity
  8
0
100
AcDbLine
 62
7
  6
CONTINUOUS
 10
112.9662512876
 20
183.2838653116
 11
99.1605631063
 21
191.2544027818
  0
LINE
  5
281
100
AcDbEntity
  8
0
100
AcDbLine
 62
7
  6
CONTINUOUS
 10
165.5506771275
 20
155.1948637925
 11
134.4526603964
 21
173.1489059488
  0
LINE
  5
282
100
AcDbEntity
  8
0
100
AcDbLine
 62
7
  6
CONTINUOUS
 10
96.7270987299
 20
194.9292763944
 11
71.7445310185
 21
209.3526422875
  0
LINE
  5
283
100
AcDbEntity
  8
0
100
AcDbLine
 62
7
  6
CONTINUOUS
 10
124.5896385017
 20
180.6557634747
 11
123.7698315029
 21
181.1290685585
  0
LINE
  5
284
100
AcDbEntity
  8
0
100
AcDbLine
 62
7
  6
CONTINUOUS
 10
115.3005102191
 20
186.0187228628
 11
99.1605631063
 21
195.3369148674
  0
LINE
  5
285
100
AcDbEntity
  8
0
100
AcDbLine
 62
7
  6
CONTINUOUS
 10
113.8893090356
 20
185.2039703431
 11
115.5987177619
 21
183.6725370392
  0
LINE
  5
286
100
AcDbEntity
  8
0
100
AcDbLine
 62
7
  6
CONTINUOUS
 10
139.9307955912
 20
101.4004879592
 11
140.7193664338
 21
101.8656864006
  0
LINE
  5
287
100
AcDbEntity
  8
0
100
AcDbLine
 62
7
  6
CONTINUOUS
 10
155.9113423123
 20
110.6268058367
 11
156.6999131548
 21
111.0920042781
  0
LINE
  5
288
100
AcDbEntity
  8
0
100
AcDbLine
 62
7
  6
CONTINUOUS
 10
159.022599196
 20
112.4230801137
 11
159.8111700386
 21
112.8882785552
  0
LINE
  5
289
100
AcDbEntity
  8
0
100
AcDbLine
 62
7
  6
CONTINUOUS
 10
175.003145917
 20
121.6493979912
 11
175.7917167596
 21
122.1145964326
  0
LINE
  5
28A
100
AcDbEntity
  8
0
100
AcDbLine
 62
7
  6
CONTINUOUS
 10
134.4526603964
 20
180.0891764943
 11
124.3766601883
 21
185.9064263231
  0
LINE
  5
28B
100
AcDbEntity
  8
0
100
AcDbLine
 62
7
  6
CONTINUOUS
 10
119.7412943696
 20
188.5825954833
 11
102.7376352572
 21
198.3994405623
  0
LINE
  5
28C
100
AcDbEntity
  8
0
100
AcDbLine
 62
7
  6
CONTINUOUS
 10
124.3670951563
 20
188.7349318699
 11
122.6633555171
 21
190.2696382031
  0
LINE
  5
28D
100
AcDbEntity
  8
0
100
AcDbLine
 62
7
  6
CONTINUOUS
 10
156.6999131548
 20
111.0920042781
 11
156.7753170346
 21
91.5109647132
  0
LINE
  5
28E
100
AcDbEntity
  8
0
100
AcDbLine
 62
7
  6
CONTINUOUS
 10
159.8111700386
 20
112.8882785552
 11
159.8865739183
 21
93.3072389901
  0
LINE
  5
28F
100
AcDbEntity
  8
0
100
AcDbLine
 62
7
  6
CONTINUOUS
 10
155.9113402625
 20
110.6267831044
 11
155.8390897551
 21
90.9589669039
  0
LINE
  5
290
100
AcDbEntity
  8
0
100
AcDbLine
 62
7
  6
CONTINUOUS
 10
159.0225971462
 20
112.4230573809
 11
158.9503466389
 21
92.7552411808
  0
LINE
  5
291
100
AcDbEntity
  8
0
100
AcDbLine
 62
7
  6
CONTINUOUS
 10
163.463285599
 20
105.3767375572
 11
163.4624665866
 21
131.0536707269
  0
LINE
  5
292
100
AcDbEntity
  8
0
100
AcDbLine
 62
7
  6
CONTINUOUS
 10
165.5506771275
 20
89.8746704222
 11
165.5506771275
 21
104.3074997134
  0
LINE
  5
293
100
AcDbEntity
  8
0
100
AcDbLine
 62
7
  6
CONTINUOUS
 10
165.5506771275
 20
130.8269576972
 11
165.5506771275
 21
155.1948637925
  0
LINE
  5
294
100
AcDbEntity
  8
0
100
AcDbLine
 62
7
  6
CONTINUOUS
 10
140.7947703136
 20
82.2846468356
 11
139.8585449008
 21
81.7326146398
  0
LINE
  5
295
100
AcDbEntity
  8
0
100
AcDbLine
 62
7
  6
CONTINUOUS
 10
156.7753170346
 20
91.5109647132
 11
155.8390916218
 21
90.9589325173
  0
LINE
  5
296
100
AcDbEntity
  8
0
100
AcDbLine
 62
7
  6
CONTINUOUS
 10
159.8865739183
 20
93.3072389901
 11
158.9503485055
 21
92.7552067943
  0
LINE
  5
297
100
AcDbEntity
  8
0
100
AcDbLine
 62
7
  6
CONTINUOUS
 10
175.8671206394
 20
102.5335568676
 11
174.9308952266
 21
101.9815246718
  0
LINE
  5
298
100
AcDbEntity
  8
0
100
AcDbLine
 62
7
  6
CONTINUOUS
 10
175.7917167596
 20
122.1145964326
 11
175.8671206394
 21
102.5335568676
  0
LINE
  5
299
100
AcDbEntity
  8
0
100
AcDbLine
 62
7
  6
CONTINUOUS
 10
175.0031438672
 20
121.6493752592
 11
174.9308933599
 21
101.9815590584
  0
LINE
  5
29A
100
AcDbEntity
  8
0
100
AcDbLine
 62
7
  6
CONTINUOUS
 10
139.197220929
 20
80.2795649529
 11
140.1527905701
 21
80.8410149926
  0
LINE
  5
29B
100
AcDbEntity
  8
0
100
AcDbLine
 62
7
  6
CONTINUOUS
 10
155.17776765
 20
89.5058828304
 11
156.1333372911
 21
90.0673328701
  0
LINE
  5
29C
100
AcDbEntity
  8
0
100
AcDbLine
 62
7
  6
CONTINUOUS
 10
158.2890245337
 20
91.3021571074
 11
159.2445941749
 21
91.8636071472
  0
LINE
  5
29D
100
AcDbEntity
  8
0
100
AcDbLine
 62
7
  6
CONTINUOUS
 10
174.2695712548
 20
100.5284749849
 11
175.2251408959
 21
101.0899250247
  0
LINE
  5
29E
100
AcDbEntity
  8
0
100
AcDbLine
 62
7
  6
CONTINUOUS
 10
127.3721573435
 20
67.8324233221
 11
165.5506771275
 21
89.8746704222
  0
ARC
  5
29F
100
AcDbEntity
  8
0
100
AcDbCircle
 62
7
  6
CONTINUOUS
 10
77.5880351641
 20
196.6952948303
 40
3.6529726986
100
AcDbArc
 50
247.4035818756
 51
248.5238291567
  0
ARC
  5
2A0
100
AcDbEntity
  8
0
100
AcDbCircle
 62
7
  6
CONTINUOUS
 10
58.4944704925
 20
185.6683659727
 40
3.6482921369
100
AcDbArc
 50
247.366977833
 51
248.4672786677
  0
ARC
  5
2A1
100
AcDbEntity
  8
0
100
AcDbCircle
 62
7
  6
CONTINUOUS
 10
59.6958028351
 20
182.6660946389
 40
2.6527980299
100
AcDbArc
 50
55.7546604745
 51
60.0595058753
  0
ARC
  5
2A2
100
AcDbEntity
  8
0
100
AcDbCircle
 62
7
  6
CONTINUOUS
 10
78.7883234799
 20
193.6898434542
 40
2.6514378577
100
AcDbArc
 50
55.7212104743
 51
60.0604579222
  0
ARC
  5
2A3
100
AcDbEntity
  8
0
100
AcDbCircle
 62
7
  6
CONTINUOUS
 10
56.8537868141
 20
183.7245022497
 40
1.0234298296
100
AcDbArc
 50
180.038355804
 51
187.3787895925
  0
ARC
  5
2A4
100
AcDbEntity
  8
0
100
AcDbCircle
 62
7
  6
CONTINUOUS
 10
75.9455647318
 20
194.7470930024
 40
1.0234041416
100
AcDbArc
 50
180.0382782823
 51
187.3655598915
  0
ARC
  5
2A5
100
AcDbEntity
  8
0
100
AcDbCircle
 62
7
  6
CONTINUOUS
 10
75.9433122608
 20
194.7464086047
 40
1.0211514422
100
AcDbArc
 50
170.5044202452
 51
179.9999618553
  0
ARC
  5
2A6
100
AcDbEntity
  8
0
100
AcDbCircle
 62
7
  6
CONTINUOUS
 10
56.851161255
 20
183.7238431364
 40
1.0208040415
100
AcDbArc
 50
170.6679499192
 51
180.0014596887
  0
ARC
  5
2A7
100
AcDbEntity
  8
0
100
AcDbCircle
 62
7
  6
CONTINUOUS
 10
60.8897556719
 20
183.7237592264
 40
1.0203873711
100
AcDbArc
 50
350.8717358742
 51
0.0032283033
  0
ARC
  5
2A8
100
AcDbEntity
  8
0
100
AcDbCircle
 62
7
  6
CONTINUOUS
 10
79.9818799791
 20
194.7463275495
 40
1.0200666703
100
AcDbArc
 50
351.0351350781
 51
0.0045678985
  0
ARC
  5
2A9
100
AcDbEntity
  8
0
100
AcDbCircle
 62
7
  6
CONTINUOUS
 10
79.9835318433
 20
194.7459419057
 40
1.0184149099
100
AcDbArc
 50
0.0262715331
 51
4.2728537399
  0
ARC
  5
2AA
100
AcDbEntity
  8
0
100
AcDbCircle
 62
7
  6
CONTINUOUS
 10
60.8917451492
 20
183.7233502718
 40
1.018397999
100
AcDbArc
 50
0.0262426817
 51
4.2597023278
  0
SPLINE
  5
2AB
100
AcDbEntity
  8
0
100
AcDbSpline
 62
7
  6
CONTINUOUS
 70
0
 71
3
 72
25
 73
21
 74
0
 42
0.0000001
 43
0.0000001
 44
0.0000000001
 40
0.0
 40
0.0
 40
0.0
 40
0.0
 40
0.0213177597
 40
0.0428433329
 40
0.0647749164
 40
0.0872918594
 40
0.134617092
 40
0.1857859638
 40
0.2412434399
 40
0.3010402819
 40
0.364910793
 40
0.4323450449
 40
0.5026498937
 40
0.5750007512
 40
0.6484862208
 40
0.7221490348
 40
0.7950243287
 40
0.8661802971
 40
0.9347536638
 40
1.0
 40
1.0
 40
1.0
 40
1.0
 10
75.2333047122
 20
194.7298200319
 30
0.0
 10
75.2333054774
 20
194.7672162215
 30
0.0
 10
75.2379062602
 20
194.8424519307
 30
0.0
 10
75.2585175421
 20
194.9544568637
 30
0.0
 10
75.2927390964
 20
195.0652911931
 30
0.0
 10
75.3572451804
 20
195.2131098782
 30
0.0
 10
75.4730901134
 20
195.3928285372
 30
0.0
 10
75.6589398748
 20
195.5904268194
 30
0.0
 10
75.8899992637
 20
195.7704951499
 30
0.0
 10
76.1617179988
 20
195.9298517448
 30
0.0
 10
76.4689057696
 20
196.0656787844
 30
0.0
 10
76.8056804299
 20
196.1754526055
 30
0.0
 10
77.1655630449
 20
196.2570972944
 30
0.0
 10
77.5415955937
 20
196.3090444542
 30
0.0
 10
77.9264839943
 20
196.3302902534
 30
0.0
 10
78.3127501599
 20
196.3204208967
 30
0.0
 10
78.6928837697
 20
196.2796317628
 30
0.0
 10
79.0595183008
 20
196.2087030866
 30
0.0
 10
79.4055027159
 20
196.1090299919
 30
0.0
 10
79.6241477424
 20
196.0222110354
 30
0.0
 10
79.7279871099
 20
195.9740678724
 30
0.0
  0
SPLINE
  5
2AC
100
AcDbEntity
  8
0
100
AcDbSpline
 62
7
  6
CONTINUOUS
 70
0
 71
3
 72
14
 73
10
 74
0
 42
0.0000001
 43
0.0000001
 44
0.0000000001
 40
0.0
 40
0.0
 40
0.0
 40
0.0
 40
0.2827848251
 40
0.4143345967
 40
0.5398149014
 40
0.6599863701
 40
0.7758628737
 40
0.888713989
 40
1.0
 40
1.0
 40
1.0
 40
1.0
 10
75.8422046667
 20
193.7306237243
 30
0.0
 10
75.7492468786
 20
193.7974538251
 30
0.0
 10
75.6200746326
 20
193.9064071069
 30
0.0
 10
75.4760560076
 20
194.0712238512
 30
0.0
 10
75.3885462181
 20
194.1968011178
 30
0.0
 10
75.3196691608
 20
194.3263781289
 30
0.0
 10
75.2700057862
 20
194.4590806384
 30
0.0
 10
75.2400138112
 20
194.5938849114
 30
0.0
 10
75.2333037903
 20
194.6847650351
 30
0.0
 10
75.2333047122
 20
194.7298200319
 30
0.0
  0
SPLINE
  5
2AD
100
AcDbEntity
  8
0
100
AcDbSpline
 62
7
  6
CONTINUOUS
 70
0
 71
3
 72
14
 73
10
 74
0
 42
0.0000001
 43
0.0000001
 44
0.0000000001
 40
0.0
 40
0.0
 40
0.0
 40
0.0
 40
0.2827907462
 40
0.4143419829
 40
0.539822637
 40
0.6599933552
 40
0.7758681437
 40
0.8887168191
 40
1.0
 40
1.0
 40
1.0
 40
1.0
 10
80.152252945
 20
195.7291234197
 30
0.0
 10
80.2452332063
 20
195.6622900774
 30
0.0
 10
80.3744376162
 20
195.5533294561
 30
0.0
 10
80.5184939564
 20
195.3884963977
 30
0.0
 10
80.6060267244
 20
195.2629056397
 30
0.0
 10
80.6749221078
 20
195.1333135039
 30
0.0
 10
80.7245988566
 20
195.0005945725
 30
0.0
 10
80.7545989671
 20
194.8657729722
 30
0.0
 10
80.7613108257
 20
194.7748808652
 30
0.0
 10
80.7613099005
 20
194.7298200323
 30
0.0
  0
SPLINE
  5
2AE
100
AcDbEntity
  8
0
100
AcDbSpline
 62
7
  6
CONTINUOUS
 70
0
 71
3
 72
25
 73
21
 74
0
 42
0.0000001
 43
0.0000001
 44
0.0000000001
 40
0.0
 40
0.0
 40
0.0
 40
0.0
 40
0.0213177498
 40
0.0428433303
 40
0.0647749536
 40
0.0872919821
 40
0.13461755
 40
0.1857869985
 40
0.2412452667
 40
0.3010430539
 40
0.3649145774
 40
0.4323498089
 40
0.5026554979
 40
0.5750069491
 40
0.648492664
 40
0.7221552842
 40
0.7950298709
 40
0.8661845679
 40
0.9347560802
 40
1.0
 40
1.0
 40
1.0
 40
1.0
 10
80.7613099005
 20
194.7298200323
 30
0.0
 10
80.7613091326
 20
194.6924226551
 30
0.0
 10
80.7567080165
 20
194.6171845191
 30
0.0
 10
80.7360951919
 20
194.5051760509
 30
0.0
 10
80.7018711208
 20
194.3943383228
 30
0.0
 10
80.6373602279
 20
194.2465151599
 30
0.0
 10
80.5215067442
 20
194.0667916211
 30
0.0
 10
80.3356439361
 20
193.8691894351
 30
0.0
 10
80.1045689587
 20
193.6891190889
 30
0.0
 10
79.832832739
 20
193.5297626597
 30
0.0
 10
79.5256263368
 20
193.3939382014
 30
0.0
 10
79.1888327411
 20
193.2841695475
 30
0.0
 10
78.8289317926
 20
193.2025326918
 30
0.0
 10
78.4528824493
 20
193.1505960147
 30
0.0
 10
78.0679797277
 20
193.1293632288
 30
0.0
 10
77.6817026131
 20
193.1392479118
 30
0.0
 10
77.3015622594
 20
193.1800543708
 30
0.0
 10
76.9349259181
 20
193.2510019748
 30
0.0
 10
76.5889452469
 20
193.3506951194
 30
0.0
 10
76.370305819
 20
193.4375286834
 30
0.0
 10
76.2664705018
 20
193.4856792716
 30
0.0
  0
SPLINE
  5
2AF
100
AcDbEntity
  8
0
100
AcDbSpline
 62
7
  6
CONTINUOUS
 70
0
 71
3
 72
25
 73
21
 74
0
 42
0.0000001
 43
0.0000001
 44
0.0000000001
 40
0.0
 40
0.0
 40
0.0
 40
0.0
 40
0.0213177498
 40
0.0428433303
 40
0.0647749536
 40
0.0872919821
 40
0.13461755
 40
0.1857869985
 40
0.2412452667
 40
0.3010430539
 40
0.3649145774
 40
0.4323498089
 40
0.5026554979
 40
0.5750069491
 40
0.648492664
 40
0.7221552842
 40
0.7950298709
 40
0.8661845679
 40
0.9347560802
 40
1.0
 40
1.0
 40
1.0
 40
1.0
 10
56.1380770903
 20
183.7054487558
 30
0.0
 10
56.1380778581
 20
183.742846133
 30
0.0
 10
56.1426789743
 20
183.818084269
 30
0.0
 10
56.1632917988
 20
183.9300927372
 30
0.0
 10
56.1975158699
 20
184.0409304653
 30
0.0
 10
56.2620267628
 20
184.1887536282
 30
0.0
 10
56.3778802466
 20
184.368477167
 30
0.0
 10
56.5637430547
 20
184.566079353
 30
0.0
 10
56.7948180321
 20
184.7461496992
 30
0.0
 10
57.0665542518
 20
184.9055061284
 30
0.0
 10
57.373760654
 20
185.0413305867
 30
0.0
 10
57.7105542497
 20
185.1510992406
 30
0.0
 10
58.0704551982
 20
185.2327360963
 30
0.0
 10
58.4465045414
 20
185.2846727734
 30
0.0
 10
58.8314072631
 20
185.3059055593
 30
0.0
 10
59.2176843776
 20
185.2960208763
 30
0.0
 10
59.5978247314
 20
185.2552144173
 30
0.0
 10
59.9644610727
 20
185.1842668133
 30
0.0
 10
60.3104417439
 20
185.0845736687
 30
0.0
 10
60.5290811718
 20
184.9977401047
 30
0.0
 10
60.632916489
 20
184.9495895165
 30
0.0
  0
SPLINE
  5
2B0
100
AcDbEntity
  8
0
100
AcDbSpline
 62
7
  6
CONTINUOUS
 70
0
 71
3
 72
14
 73
10
 74
0
 42
0.0000001
 43
0.0000001
 44
0.0000000001
 40
0.0
 40
0.0
 40
0.0
 40
0.0
 40
0.2827907462
 40
0.4143419829
 40
0.539822637
 40
0.6599933552
 40
0.7758681437
 40
0.8887168191
 40
1.0
 40
1.0
 40
1.0
 40
1.0
 10
56.7471340457
 20
182.7061453684
 30
0.0
 10
56.6541537845
 20
182.7729787107
 30
0.0
 10
56.5249493746
 20
182.881939332
 30
0.0
 10
56.3808930344
 20
183.0467723904
 30
0.0
 10
56.2933602664
 20
183.1723631484
 30
0.0
 10
56.224464883
 20
183.3019552842
 30
0.0
 10
56.1747881341
 20
183.4346742156
 30
0.0
 10
56.1447880237
 20
183.5694958159
 30
0.0
 10
56.1380761651
 20
183.6603879229
 30
0.0
 10
56.1380770903
 20
183.7054487558
 30
0.0
  0
SPLINE
  5
2B1
100
AcDbEntity
  8
0
100
AcDbSpline
 62
7
  6
CONTINUOUS
 70
0
 71
3
 72
14
 73
10
 74
0
 42
0.0000001
 43
0.0000001
 44
0.0000000001
 40
0.0
 40
0.0
 40
0.0
 40
0.0
 40
0.2827848251
 40
0.4143345967
 40
0.5398149014
 40
0.6599863701
 40
0.7758628737
 40
0.888713989
 40
1.0
 40
1.0
 40
1.0
 40
1.0
 10
61.0571823241
 20
184.7046450638
 30
0.0
 10
61.1501401122
 20
184.6378149629
 30
0.0
 10
61.2793123581
 20
184.5288616812
 30
0.0
 10
61.4233309832
 20
184.3640449369
 30
0.0
 10
61.5108407727
 20
184.2384676703
 30
0.0
 10
61.57971783
 20
184.1088906592
 30
0.0
 10
61.6293812046
 20
183.9761881497
 30
0.0
 10
61.6593731796
 20
183.8413838767
 30
0.0
 10
61.6660832005
 20
183.750503753
 30
0.0
 10
61.6660822786
 20
183.7054487562
 30
0.0
  0
SPLINE
  5
2B2
100
AcDbEntity
  8
0
100
AcDbSpline
 62
7
  6
CONTINUOUS
 70
0
 71
3
 72
25
 73
21
 74
0
 42
0.0000001
 43
0.0000001
 44
0.0000000001
 40
0.0
 40
0.0
 40
0.0
 40
0.0
 40
0.0213177597
 40
0.0428433329
 40
0.0647749164
 40
0.0872918594
 40
0.134617092
 40
0.1857859638
 40
0.2412434399
 40
0.3010402819
 40
0.364910793
 40
0.4323450449
 40
0.5026498937
 40
0.5750007512
 40
0.6484862208
 40
0.7221490348
 40
0.7950243287
 40
0.8661802971
 40
0.9347536638
 40
1.0
 40
1.0
 40
1.0
 40
1.0
 10
61.6660822786
 20
183.7054487562
 30
0.0
 10
61.6660815134
 20
183.6680525666
 30
0.0
 10
61.6614807306
 20
183.5928168574
 30
0.0
 10
61.6408694487
 20
183.4808119244
 30
0.0
 10
61.6066478943
 20
183.369977595
 30
0.0
 10
61.5421418104
 20
183.2221589099
 30
0.0
 10
61.4262968773
 20
183.0424402509
 30
0.0
 10
61.2404471159
 20
182.8448419687
 30
0.0
 10
61.0093877271
 20
182.6647736382
 30
0.0
 10
60.737668992
 20
182.5054170433
 30
0.0
 10
60.4304812212
 20
182.3695900037
 30
0.0
 10
60.0937065608
 20
182.2598161826
 30
0.0
 10
59.7338239458
 20
182.1781714937
 30
0.0
 10
59.357791397
 20
182.1262243339
 30
0.0
 10
58.9729029965
 20
182.1049785347
 30
0.0
 10
58.5866368309
 20
182.1148478914
 30
0.0
 10
58.2065032211
 20
182.1556370253
 30
0.0
 10
57.83986869
 20
182.2265657015
 30
0.0
 10
57.4938842749
 20
182.3262387962
 30
0.0
 10
57.2752392484
 20
182.4130577527
 30
0.0
 10
57.1713998808
 20
182.4612009157
 30
0.0
  0
SPLINE
  5
2B3
100
AcDbEntity
  8
0
100
AcDbSpline
 62
7
  6
CONTINUOUS
 70
0
 71
3
 72
17
 73
13
 74
0
 42
0.0000001
 43
0.0000001
 44
0.0000000001
 40
0.0
 40
0.0
 40
0.0
 40
0.0
 40
0.1286888525
 40
0.2702802895
 40
0.4174331647
 40
0.5617754839
 40
0.695448121
 40
0.8127120865
 40
0.8646770447
 40
0.9125101515
 40
0.9571398234
 40
1.0
 40
1.0
 40
1.0
 40
1.0
 10
46.160814637
 20
188.188301462
 30
0.0
 10
46.4212988083
 20
188.0379142577
 30
0.0
 10
47.0110804954
 20
187.7945761468
 30
0.0
 10
47.9722935023
 20
187.602263757
 30
0.0
 10
48.9889521141
 20
187.5741234535
 30
0.0
 10
49.9780784009
 20
187.7131153047
 30
0.0
 10
50.8594937342
 20
188.0075204533
 30
0.0
 10
51.4725183628
 20
188.380677975
 30
0.0
 10
51.8322701211
 20
188.7417378841
 30
0.0
 10
52.0233929793
 20
189.0228403837
 30
0.0
 10
52.1411632859
 20
189.3193470675
 30
0.0
 10
52.1679683373
 20
189.5247104825
 30
0.0
 10
52.1679285437
 20
189.6248859191
 30
0.0
  0
SPLINE
  5
2B4
100
AcDbEntity
  8
0
100
AcDbSpline
 62
7
  6
CONTINUOUS
 70
0
 71
3
 72
17
 73
13
 74
0
 42
0.0000001
 43
0.0000001
 44
0.0000000001
 40
0.0
 40
0.0
 40
0.0
 40
0.0
 40
0.1286888525
 40
0.2702802895
 40
0.4174331647
 40
0.5617754839
 40
0.695448121
 40
0.8127120865
 40
0.8646770447
 40
0.9125101515
 40
0.9571398234
 40
1.0
 40
1.0
 40
1.0
 40
1.0
 10
65.2526182417
 20
199.2108936165
 30
0.0
 10
65.5131024131
 20
199.0605064123
 30
0.0
 10
66.1028841002
 20
198.8171683013
 30
0.0
 10
67.0640971071
 20
198.6248559115
 30
0.0
 10
68.0807557188
 20
198.596715608
 30
0.0
 10
69.0698820057
 20
198.7357074593
 30
0.0
 10
69.951297339
 20
199.0301126079
 30
0.0
 10
70.5643219676
 20
199.4032701296
 30
0.0
 10
70.9240737259
 20
199.7643300386
 30
0.0
 10
71.1151965841
 20
200.0454325382
 30
0.0
 10
71.2329668907
 20
200.341939222
 30
0.0
 10
71.259771942
 20
200.547302637
 30
0.0
 10
71.2597321484
 20
200.6474780737
 30
0.0
  0
SPLINE
  5
2B5
100
AcDbEntity
  8
0
100
AcDbSpline
 62
7
  6
CONTINUOUS
 70
0
 71
3
 72
9
 73
5
 74
0
 42
0.0000001
 43
0.0000001
 44
0.0000000001
 40
0.0
 40
0.0
 40
0.0
 40
0.0
 40
0.2427086723
 40
1.0
 40
1.0
 40
1.0
 40
1.0
 10
56.7206851288
 20
182.4827724022
 30
0.0
 10
56.7495675665
 20
182.4660974963
 30
0.0
 10
56.8697803071
 20
182.3995036061
 30
0.0
 10
56.9944648639
 20
182.3410833378
 30
0.0
 10
57.0905079087
 20
182.3010340052
 30
0.0
  0
SPLINE
  5
2B6
100
AcDbEntity
  8
0
100
AcDbSpline
 62
7
  6
CONTINUOUS
 70
0
 71
3
 72
15
 73
11
 74
0
 42
0.0000001
 43
0.0000001
 44
0.0000000001
 40
0.0
 40
0.0
 40
0.0
 40
0.0
 40
0.1352568
 40
0.2785872382
 40
0.4239351905
 40
0.5648253109
 40
0.6954455411
 40
0.811599971
 40
0.9120259207
 40
1.0
 40
1.0
 40
1.0
 40
1.0
 10
57.1554286222
 20
182.274695042
 30
0.0
 10
57.3823921066
 20
182.185129279
 30
0.0
 10
57.8685509151
 20
182.0463102659
 30
0.0
 10
58.6305289511
 20
181.9549695725
 30
0.0
 10
59.4080312037
 20
181.9768521792
 30
0.0
 10
60.151074294
 20
182.1109754464
 30
0.0
 10
60.812801834
 20
182.348748685
 30
0.0
 10
61.3523798216
 20
182.6773278624
 30
0.0
 10
61.7373154662
 20
183.0807715108
 30
0.0
 10
61.8720570113
 20
183.4051863321
 30
0.0
 10
61.8972205174
 20
183.5618797278
 30
0.0
  0
SPLINE
  5
2B7
100
AcDbEntity
  8
0
100
AcDbSpline
 62
7
  6
CONTINUOUS
 70
0
 71
3
 72
9
 73
5
 74
0
 42
0.0000001
 43
0.0000001
 44
0.0000000001
 40
0.0
 40
0.0
 40
0.0
 40
0.0
 40
0.2426744203
 40
1.0
 40
1.0
 40
1.0
 40
1.0
 10
75.8124887336
 20
193.5053645567
 30
0.0
 10
75.8415274115
 20
193.4885994475
 30
0.0
 10
75.9624140973
 20
193.4216473546
 30
0.0
 10
76.0878194443
 20
193.3629572946
 30
0.0
 10
76.1844256762
 20
193.3227453582
 30
0.0
  0
SPLINE
  5
2B8
100
AcDbEntity
  8
0
100
AcDbSpline
 62
7
  6
CONTINUOUS
 70
0
 71
3
 72
15
 73
11
 74
0
 42
0.0000001
 43
0.0000001
 44
0.0000000001
 40
0.0
 40
0.0
 40
0.0
 40
0.0
 40
0.1353520198
 40
0.2787514043
 40
0.4241334184
 40
0.5650201817
 40
0.6956025239
 40
0.811695243
 40
0.9120573123
 40
1.0
 40
1.0
 40
1.0
 40
1.0
 10
76.250629852
 20
193.295948339
 30
0.0
 10
76.4778103377
 20
193.206555554
 30
0.0
 10
76.9643098706
 20
193.0681122301
 30
0.0
 10
77.7266135569
 20
192.9773641386
 30
0.0
 10
78.5041732674
 20
192.9998861212
 30
0.0
 10
79.2469867089
 20
193.1346515785
 30
0.0
 10
79.9082057349
 20
193.3730317234
 30
0.0
 10
80.4470236788
 20
193.7021545568
 30
0.0
 10
80.8309726034
 20
194.1060908989
 30
0.0
 10
80.9647796729
 20
194.4306848586
 30
0.0
 10
80.9894856007
 20
194.5873718224
 30
0.0
  0
SPLINE
  5
2B9
100
AcDbEntity
  8
0
100
AcDbSpline
 62
7
  6
CONTINUOUS
 70
0
 71
3
 72
11
 73
7
 74
0
 42
0.0000001
 43
0.0000001
 44
0.0000000001
 40
0.0
 40
0.0
 40
0.0
 40
0.0
 40
0.2180981913
 40
0.4532448694
 40
0.7131691833
 40
1.0
 40
1.0
 40
1.0
 40
1.0
 10
74.9306053104
 20
194.615893117
 30
0.0
 10
74.9442485467
 20
194.5102331208
 30
0.0
 10
75.0076419491
 20
194.2941445507
 30
0.0
 10
75.1955800921
 20
193.9966518662
 30
0.0
 10
75.4690248893
 20
193.7262566042
 30
0.0
 10
75.6911475943
 20
193.5754193113
 30
0.0
 10
75.8124887336
 20
193.5053645567
 30
0.0
  0
SPLINE
  5
2BA
100
AcDbEntity
  8
0
100
AcDbSpline
 62
7
  6
CONTINUOUS
 70
0
 71
3
 72
11
 73
7
 74
0
 42
0.0000001
 43
0.0000001
 44
0.0000000001
 40
0.0
 40
0.0
 40
0.0
 40
0.0
 40
0.2180998234
 40
0.4532501287
 40
0.7131747822
 40
1.0
 40
1.0
 40
1.0
 40
1.0
 10
55.8388322388
 20
183.5930647128
 30
0.0
 10
55.852497704
 20
183.4874240912
 30
0.0
 10
55.9159234894
 20
183.2713821757
 30
0.0
 10
56.1038657491
 20
182.9739583439
 30
0.0
 10
56.3772797314
 20
182.7036229583
 30
0.0
 10
56.5993659053
 20
182.5528145039
 30
0.0
 10
56.7206851288
 20
182.4827724022
 30
0.0
  0
SPLINE
  5
2BB
100
AcDbEntity
  8
0
100
AcDbSpline
 62
7
  6
CONTINUOUS
 70
0
 71
3
 72
11
 73
7
 74
0
 42
0.0000001
 43
0.0000001
 44
0.0000000001
 40
0.0
 40
0.0
 40
0.0
 40
0.0
 40
0.2177643494
 40
0.4508943819
 40
0.7103680107
 40
1.0
 40
1.0
 40
1.0
 40
1.0
 10
64.2220094017
 20
200.6474785487
 30
0.0
 10
64.2220626395
 20
200.5134590275
 30
0.0
 10
64.2713800229
 20
200.2340848014
 30
0.0
 10
64.4832854428
 20
199.8448105167
 30
0.0
 10
64.818142071
 20
199.4930188256
 30
0.0
 10
65.0982489437
 20
199.300016756
 30
0.0
 10
65.2526182417
 20
199.2108936165
 30
0.0
  0
SPLINE
  5
2BC
100
AcDbEntity
  8
0
100
AcDbSpline
 62
7
  6
CONTINUOUS
 70
0
 71
3
 72
11
 73
7
 74
0
 42
0.0000001
 43
0.0000001
 44
0.0000000001
 40
0.0
 40
0.0
 40
0.0
 40
0.0
 40
0.2177643494
 40
0.4508943819
 40
0.7103680107
 40
1.0
 40
1.0
 40
1.0
 40
1.0
 10
45.1302057969
 20
189.6248863941
 30
0.0
 10
45.1302590347
 20
189.490866873
 30
0.0
 10
45.1795764181
 20
189.2114926469
 30
0.0
 10
45.391481838
 20
188.8222183621
 30
0.0
 10
45.7263384662
 20
188.470426671
 30
0.0
 10
46.006445339
 20
188.2774246015
 30
0.0
 10
46.160814637
 20
188.188301462
 30
0.0
  0
SPLINE
  5
2BD
100
AcDbEntity
  8
0
100
AcDbSpline
 62
7
  6
CONTINUOUS
 70
0
 71
3
 72
17
 73
13
 74
0
 42
0.0000001
 43
0.0000001
 44
0.0000000001
 40
0.0
 40
0.0
 40
0.0
 40
0.0
 40
0.1286888525
 40
0.2702802895
 40
0.4174331647
 40
0.5617754839
 40
0.695448121
 40
0.8127120865
 40
0.8646770447
 40
0.9125101515
 40
0.9571398234
 40
1.0
 40
1.0
 40
1.0
 40
1.0
 10
128.7440095379
 20
140.3383146532
 30
0.0
 10
129.0200544824
 20
140.1789436356
 30
0.0
 10
129.6450684795
 20
139.9210690208
 30
0.0
 10
130.6637023176
 20
139.7172682957
 30
0.0
 10
131.7410939636
 20
139.6874469501
 30
0.0
 10
132.7893085619
 20
139.8347418804
 30
0.0
 10
133.7233777822
 20
140.1467341696
 30
0.0
 10
134.3730232049
 20
140.5421833321
 30
0.0
 10
134.7542657721
 20
140.9248121961
 30
0.0
 10
134.9568059054
 20
141.2227071643
 30
0.0
 10
135.0816115609
 20
141.5369265299
 30
0.0
 10
135.1100178893
 20
141.7545579208
 30
0.0
 10
135.1099757185
 20
141.8607176261
 30
0.0
  0
SPLINE
  5
2BE
100
AcDbEntity
  8
0
100
AcDbSpline
 62
7
  6
CONTINUOUS
 70
0
 71
3
 72
17
 73
13
 74
0
 42
0.0000001
 43
0.0000001
 44
0.0000000001
 40
0.0
 40
0.0
 40
0.0
 40
0.0
 40
0.1286888525
 40
0.2702802895
 40
0.4174331647
 40
0.5617754839
 40
0.695448121
 40
0.8127120865
 40
0.8646770447
 40
0.9125101515
 40
0.9571398234
 40
1.0
 40
1.0
 40
1.0
 40
1.0
 10
147.8358131426
 20
151.3609068077
 30
0.0
 10
148.1118580872
 20
151.2015357901
 30
0.0
 10
148.7368720843
 20
150.9436611753
 30
0.0
 10
149.7555059224
 20
150.7398604503
 30
0.0
 10
150.8328975684
 20
150.7100391046
 30
0.0
 10
151.8811121666
 20
150.8573340349
 30
0.0
 10
152.815181387
 20
151.1693263242
 30
0.0
 10
153.4648268097
 20
151.5647754866
 30
0.0
 10
153.8460693768
 20
151.9474043506
 30
0.0
 10
154.0486095102
 20
152.2452993188
 30
0.0
 10
154.1734151657
 20
152.5595186844
 30
0.0
 10
154.2018214941
 20
152.7771500753
 30
0.0
 10
154.2017793233
 20
152.8833097806
 30
0.0
  0
SPLINE
  5
2BF
100
AcDbEntity
  8
0
100
AcDbSpline
 62
7
  6
CONTINUOUS
 70
0
 71
3
 72
11
 73
7
 74
0
 42
0.0000001
 43
0.0000001
 44
0.0000000001
 40
0.0
 40
0.0
 40
0.0
 40
0.0
 40
0.2208175721
 40
0.4552927128
 40
0.7135800155
 40
1.0
 40
1.0
 40
1.0
 40
1.0
 10
174.2695628628
 20
100.52848929
 30
0.0
 10
174.1695575135
 20
100.4697508265
 30
0.0
 10
173.9420197255
 20
100.3820847598
 30
0.0
 10
173.5632949449
 20
100.3581966906
 30
0.0
 10
173.1580333522
 20
100.4363213898
 30
0.0
 10
172.8921780139
 20
100.5469148895
 30
0.0
 10
172.7582862455
 20
100.615500236
 30
0.0
  0
SPLINE
  5
2C0
100
AcDbEntity
  8
0
100
AcDbSpline
 62
7
  6
CONTINUOUS
 70
0
 71
3
 72
11
 73
7
 74
0
 42
0.0000001
 43
0.0000001
 44
0.0000000001
 40
0.0
 40
0.0
 40
0.0
 40
0.0
 40
0.2208175721
 40
0.4552927128
 40
0.7135800155
 40
1.0
 40
1.0
 40
1.0
 40
1.0
 10
158.2890161418
 20
91.3021714125
 30
0.0
 10
158.1890107924
 20
91.243432949
 30
0.0
 10
157.9614730045
 20
91.1557668823
 30
0.0
 10
157.5827482238
 20
91.1318788131
 30
0.0
 10
157.1774866311
 20
91.2100035124
 30
0.0
 10
156.9116312928
 20
91.320597012
 30
0.0
 10
156.7777395244
 20
91.3891823586
 30
0.0
  0
SPLINE
  5
2C1
100
AcDbEntity
  8
0
100
AcDbSpline
 62
7
  6
CONTINUOUS
 70
0
 71
3
 72
11
 73
7
 74
0
 42
0.0000001
 43
0.0000001
 44
0.0000000001
 40
0.0
 40
0.0
 40
0.0
 40
0.0
 40
0.2208175721
 40
0.4552927128
 40
0.7135800155
 40
1.0
 40
1.0
 40
1.0
 40
1.0
 10
155.1777592581
 20
89.5058971354
 30
0.0
 10
155.0777539087
 20
89.4471586719
 30
0.0
 10
154.8502161207
 20
89.3594926052
 30
0.0
 10
154.4714913401
 20
89.3356045361
 30
0.0
 10
154.0662297473
 20
89.4137292353
 30
0.0
 10
153.800374409
 20
89.524322735
 30
0.0
 10
153.6664826406
 20
89.5929080816
 30
0.0
  0
SPLINE
  5
2C2
100
AcDbEntity
  8
0
100
AcDbSpline
 62
7
  6
CONTINUOUS
 70
0
 71
3
 72
11
 73
7
 74
0
 42
0.0000001
 43
0.0000001
 44
0.0000000001
 40
0.0
 40
0.0
 40
0.0
 40
0.0
 40
0.2208175721
 40
0.4552927128
 40
0.7135800155
 40
1.0
 40
1.0
 40
1.0
 40
1.0
 10
139.197212537
 20
80.279579258
 30
0.0
 10
139.0972071876
 20
80.2208407944
 30
0.0
 10
138.8696693996
 20
80.1331747277
 30
0.0
 10
138.490944619
 20
80.1092866586
 30
0.0
 10
138.0856830262
 20
80.1874113579
 30
0.0
 10
137.8198276879
 20
80.2980048575
 30
0.0
 10
137.6859359195
 20
80.3665902041
 30
0.0
  0
SPLINE
  5
2C3
100
AcDbEntity
  8
0
100
AcDbSpline
 62
7
  6
CONTINUOUS
 70
0
 71
3
 72
11
 73
7
 74
0
 42
0.0000001
 43
0.0000001
 44
0.0000000001
 40
0.0
 40
0.0
 40
0.0
 40
0.0
 40
0.2177643494
 40
0.4508943819
 40
0.7103680107
 40
1.0
 40
1.0
 40
1.0
 40
1.0
 10
146.7436379112
 20
152.883310284
 30
0.0
 10
146.7436943293
 20
152.7412847202
 30
0.0
 10
146.7959578289
 20
152.445221269
 30
0.0
 10
147.0205220301
 20
152.0326925622
 30
0.0
 10
147.3753822848
 20
151.6598855798
 30
0.0
 10
147.6722221494
 20
151.455353975
 30
0.0
 10
147.8358131426
 20
151.3609068077
 30
0.0
  0
SPLINE
  5
2C4
100
AcDbEntity
  8
0
100
AcDbSpline
 62
7
  6
CONTINUOUS
 70
0
 71
3
 72
11
 73
7
 74
0
 42
0.0000001
 43
0.0000001
 44
0.0000000001
 40
0.0
 40
0.0
 40
0.0
 40
0.0
 40
0.2177643494
 40
0.4508943819
 40
0.7103680107
 40
1.0
 40
1.0
 40
1.0
 40
1.0
 10
127.6518343064
 20
141.8607181294
 30
0.0
 10
127.6518907246
 20
141.7186925657
 30
0.0
 10
127.7041542241
 20
141.4226291144
 30
0.0
 10
127.9287184254
 20
141.0101004076
 30
0.0
 10
128.28357868
 20
140.6372934253
 30
0.0
 10
128.5804185447
 20
140.4327618205
 30
0.0
 10
128.7440095379
 20
140.3383146532
 30
0.0
  0
SPLINE
  5
2C5
100
AcDbEntity
  8
0
100
AcDbSpline
 62
7
  6
CONTINUOUS
 70
0
 71
3
 72
11
 73
7
 74
0
 42
0.0000001
 43
0.0000001
 44
0.0000000001
 40
0.0
 40
0.0
 40
0.0
 40
0.0
 40
0.2899915046
 40
0.5494049934
 40
0.7824239775
 40
1.0
 40
1.0
 40
1.0
 40
1.0
 10
140.7949848706
 20
82.2850109728
 30
0.0
 10
140.7957037135
 20
82.1255360478
 30
0.0
 10
140.7729594488
 20
81.8222806449
 30
0.0
 10
140.6527259755
 20
81.4051993514
 30
0.0
 10
140.4486567069
 20
81.0660905359
 30
0.0
 10
140.2559627476
 20
80.9016143075
 30
0.0
 10
140.1527888478
 20
80.8410179392
 30
0.0
  0
SPLINE
  5
2C6
100
AcDbEntity
  8
0
100
AcDbSpline
 62
7
  6
CONTINUOUS
 70
0
 71
3
 72
11
 73
7
 74
0
 42
0.0000001
 43
0.0000001
 44
0.0000000001
 40
0.0
 40
0.0
 40
0.0
 40
0.0
 40
0.2389573873
 40
0.5021328706
 40
0.7641616181
 40
1.0
 40
1.0
 40
1.0
 40
1.0
 10
138.4857700696
 20
105.7538463772
 30
0.0
 10
138.8024038088
 20
105.5631792634
 30
0.0
 10
139.4001262383
 20
105.0489826589
 30
0.0
 10
140.0993033013
 20
104.0855719364
 30
0.0
 10
140.5781623208
 20
103.0010269426
 30
0.0
 10
140.7175136778
 20
102.2311017965
 30
0.0
 10
140.7191438642
 20
101.866320702
 30
0.0
  0
SPLINE
  5
2C7
100
AcDbEntity
  8
0
100
AcDbSpline
 62
7
  6
CONTINUOUS
 70
0
 71
3
 72
11
 73
7
 74
0
 42
0.0000001
 43
0.0000001
 44
0.0000000001
 40
0.0
 40
0.0
 40
0.0
 40
0.0
 40
0.2899915046
 40
0.5494049934
 40
0.7824239775
 40
1.0
 40
1.0
 40
1.0
 40
1.0
 10
156.7755315916
 20
91.5113288504
 30
0.0
 10
156.7762504346
 20
91.3518539254
 30
0.0
 10
156.7535061699
 20
91.0485985225
 30
0.0
 10
156.6332726966
 20
90.6315172289
 30
0.0
 10
156.4292034279
 20
90.2924084134
 30
0.0
 10
156.2365094687
 20
90.127932185
 30
0.0
 10
156.1333355689
 20
90.0673358167
 30
0.0
  0
SPLINE
  5
2C8
100
AcDbEntity
  8
0
100
AcDbSpline
 62
7
  6
CONTINUOUS
 70
0
 71
3
 72
11
 73
7
 74
0
 42
0.0000001
 43
0.0000001
 44
0.0000000001
 40
0.0
 40
0.0
 40
0.0
 40
0.0
 40
0.2389573873
 40
0.5021328706
 40
0.7641616181
 40
1.0
 40
1.0
 40
1.0
 40
1.0
 10
154.4663167906
 20
114.9801642546
 30
0.0
 10
154.7829505299
 20
114.7894971409
 30
0.0
 10
155.3806729594
 20
114.2753005364
 30
0.0
 10
156.0798500226
 20
113.3118898139
 30
0.0
 10
156.5587090421
 20
112.2273448201
 30
0.0
 10
156.6980603989
 20
111.4574196739
 30
0.0
 10
156.6996905853
 20
111.0926385794
 30
0.0
  0
SPLINE
  5
2C9
100
AcDbEntity
  8
0
100
AcDbSpline
 62
7
  6
CONTINUOUS
 70
0
 71
3
 72
11
 73
7
 74
0
 42
0.0000001
 43
0.0000001
 44
0.0000000001
 40
0.0
 40
0.0
 40
0.0
 40
0.0
 40
0.2899915046
 40
0.5494049934
 40
0.7824239775
 40
1.0
 40
1.0
 40
1.0
 40
1.0
 10
159.8867884754
 20
93.3076031272
 30
0.0
 10
159.8875073183
 20
93.1481282022
 30
0.0
 10
159.8647630536
 20
92.8448727994
 30
0.0
 10
159.7445295803
 20
92.4277915059
 30
0.0
 10
159.5404603117
 20
92.0886826904
 30
0.0
 10
159.3477663524
 20
91.924206462
 30
0.0
 10
159.2445924526
 20
91.8636100937
 30
0.0
  0
SPLINE
  5
2CA
100
AcDbEntity
  8
0
100
AcDbSpline
 62
7
  6
CONTINUOUS
 70
0
 71
3
 72
11
 73
7
 74
0
 42
0.0000001
 43
0.0000001
 44
0.0000000001
 40
0.0
 40
0.0
 40
0.0
 40
0.0
 40
0.2389573873
 40
0.5021328706
 40
0.7641616181
 40
1.0
 40
1.0
 40
1.0
 40
1.0
 10
157.5775736743
 20
116.7764385318
 30
0.0
 10
157.8942074135
 20
116.585771418
 30
0.0
 10
158.491929843
 20
116.0715748135
 30
0.0
 10
159.1911069061
 20
115.108164091
 30
0.0
 10
159.6699659256
 20
114.0236190972
 30
0.0
 10
159.8093172826
 20
113.2536939511
 30
0.0
 10
159.810947469
 20
112.8889128566
 30
0.0
  0
SPLINE
  5
2CB
100
AcDbEntity
  8
0
100
AcDbSpline
 62
7
  6
CONTINUOUS
 70
0
 71
3
 72
11
 73
7
 74
0
 42
0.0000001
 43
0.0000001
 44
0.0000000001
 40
0.0
 40
0.0
 40
0.0
 40
0.0
 40
0.2899915046
 40
0.5494049934
 40
0.7824239775
 40
1.0
 40
1.0
 40
1.0
 40
1.0
 10
175.8673351964
 20
102.5339210047
 30
0.0
 10
175.8680540393
 20
102.3744460797
 30
0.0
 10
175.8453097746
 20
102.0711906768
 30
0.0
 10
175.7250763013
 20
101.6541093833
 30
0.0
 10
175.5210070327
 20
101.3150005678
 30
0.0
 10
175.3283130734
 20
101.1505243395
 30
0.0
 10
175.2251391736
 20
101.0899279712
 30
0.0
  0
SPLINE
  5
2CC
100
AcDbEntity
  8
0
100
AcDbSpline
 62
7
  6
CONTINUOUS
 70
0
 71
3
 72
11
 73
7
 74
0
 42
0.0000001
 43
0.0000001
 44
0.0000000001
 40
0.0
 40
0.0
 40
0.0
 40
0.0
 40
0.2389573873
 40
0.5021328706
 40
0.7641616181
 40
1.0
 40
1.0
 40
1.0
 40
1.0
 10
173.5581203955
 20
126.0027564091
 30
0.0
 10
173.8747541347
 20
125.8120892954
 30
0.0
 10
174.4724765643
 20
125.2978926909
 30
0.0
 10
175.1716536274
 20
124.3344819684
 30
0.0
 10
175.650512647
 20
123.2499369745
 30
0.0
 10
175.7898640037
 20
122.4800118284
 30
0.0
 10
175.7914941901
 20
122.1152307339
 30
0.0
  0
SPLINE
  5
2CD
100
AcDbEntity
  8
0
100
AcDbSpline
 62
7
  6
CONTINUOUS
 70
0
 71
3
 72
10
 73
6
 74
0
 42
0.0000001
 43
0.0000001
 44
0.0000000001
 40
0.0
 40
0.0
 40
0.0
 40
0.0
 40
0.298592594
 40
0.5698199889
 40
1.0
 40
1.0
 40
1.0
 40
1.0
 10
140.3364745505
 20
75.2548362142
 30
0.0
 10
140.5127945178
 20
75.2794909719
 30
0.0
 10
140.8476320128
 20
75.3548799592
 30
0.0
 10
141.3928828628
 20
75.587210125
 30
0.0
 10
141.7337570387
 20
75.8964199751
 30
0.0
 10
141.822430487
 20
76.1370987336
 30
0.0
  0
SPLINE
  5
2CE
100
AcDbEntity
  8
0
100
AcDbSpline
 62
7
  6
CONTINUOUS
 70
0
 71
3
 72
11
 73
7
 74
0
 42
0.0000001
 43
0.0000001
 44
0.0000000001
 40
0.0
 40
0.0
 40
0.0
 40
0.0
 40
0.2399265228
 40
0.502701895
 40
0.7640168083
 40
1.0
 40
1.0
 40
1.0
 40
1.0
 10
24.8073118638
 20
145.8114778701
 30
0.0
 10
24.5019060911
 20
146.0095399388
 30
0.0
 10
23.9289193482
 20
146.5290597673
 30
0.0
 10
23.2623591178
 20
147.4870696899
 30
0.0
 10
22.8102970569
 20
148.5565305595
 30
0.0
 10
22.6816750642
 20
149.3115513687
 30
0.0
 10
22.681677033
 20
149.6695759371
 30
0.0
  0
SPLINE
  5
2CF
100
AcDbEntity
  8
0
100
AcDbSpline
 62
7
  6
CONTINUOUS
 70
0
 71
3
 72
11
 73
7
 74
0
 42
0.0000001
 43
0.0000001
 44
0.0000000001
 40
0.0
 40
0.0
 40
0.0
 40
0.0
 40
0.2907259567
 40
0.5504048613
 40
0.7831162111
 40
1.0
 40
1.0
 40
1.0
 40
1.0
 10
22.6816770068
 20
169.3792816283
 30
0.0
 10
22.6816758907
 20
169.5421861647
 30
0.0
 10
22.7062195956
 20
169.851645507
 30
0.0
 10
22.8312036617
 20
170.2763710676
 30
0.0
 10
23.0417533831
 20
170.6199532074
 30
0.0
 10
23.2398039464
 20
170.7848751878
 30
0.0
 10
23.3455122923
 20
170.844831905
 30
0.0
  0
SPLINE
  5
2D0
100
AcDbEntity
  8
0
100
AcDbSpline
 62
7
  6
CONTINUOUS
 70
0
 71
3
 72
11
 73
7
 74
0
 42
0.0000001
 43
0.0000001
 44
0.0000000001
 40
0.0
 40
0.0
 40
0.0
 40
0.0
 40
0.2894104062
 40
0.5488111607
 40
0.7821657627
 40
1.0
 40
1.0
 40
1.0
 40
1.0
 10
25.6878722896
 20
171.1519310613
 30
0.0
 10
25.5513213457
 20
171.2280429108
 30
0.0
 10
25.2802179724
 20
171.3525441398
 30
0.0
 10
24.8650964024
 20
171.4486765269
 30
0.0
 10
24.4764105931
 20
171.4374684133
 30
0.0
 10
24.2420624723
 20
171.3535026494
 30
0.0
 10
24.1397168484
 20
171.2954429136
 30
0.0
  0
SPLINE
  5
2D1
100
AcDbEntity
  8
0
100
AcDbSpline
 62
7
  6
CONTINUOUS
 70
0
 71
3
 72
11
 73
7
 74
0
 42
0.0000001
 43
0.0000001
 44
0.0000000001
 40
0.0
 40
0.0
 40
0.0
 40
0.0
 40
0.2177643494
 40
0.4508943819
 40
0.7103680107
 40
1.0
 40
1.0
 40
1.0
 40
1.0
 10
135.1099757185
 20
141.8607176261
 30
0.0
 10
135.1099193004
 20
142.0027431898
 30
0.0
 10
135.0576558009
 20
142.298806641
 30
0.0
 10
134.8330915996
 20
142.7113353479
 30
0.0
 10
134.4782313449
 20
143.0841423302
 30
0.0
 10
134.1813914803
 20
143.288673935
 30
0.0
 10
134.0178004871
 20
143.3831211023
 30
0.0
  0
SPLINE
  5
2D2
100
AcDbEntity
  8
0
100
AcDbSpline
 62
7
  6
CONTINUOUS
 70
0
 71
3
 72
9
 73
5
 74
0
 42
0.0000001
 43
0.0000001
 44
0.0000000001
 40
0.0
 40
0.0
 40
0.0
 40
0.0
 40
0.2438496774
 40
1.0
 40
1.0
 40
1.0
 40
1.0
 10
61.0198151264
 20
184.9648614475
 30
0.0
 10
60.9960039293
 20
184.9786085375
 30
0.0
 10
60.8975367216
 20
185.0335570881
 30
0.0
 10
60.7959946489
 20
185.0829456165
 30
0.0
 10
60.7180094602
 20
185.1174014147
 30
0.0
  0
SPLINE
  5
2D3
100
AcDbEntity
  8
0
100
AcDbSpline
 62
7
  6
CONTINUOUS
 70
0
 71
3
 72
16
 73
12
 74
0
 42
0.0000001
 43
0.0000001
 44
0.0000000001
 40
0.0
 40
0.0
 40
0.0
 40
0.0
 40
0.1329058713
 40
0.2751063393
 40
0.4204125272
 40
0.4921476185
 40
0.562131701
 40
0.6938051709
 40
0.8109355009
 40
0.9119359916
 40
1.0
 40
1.0
 40
1.0
 40
1.0
 10
60.7180094602
 20
185.1174014147
 30
0.0
 10
60.4930199249
 20
185.2168073936
 30
0.0
 10
60.0050745353
 20
185.3738923477
 30
0.0
 10
59.2323633436
 20
185.4866572503
 30
0.0
 10
58.5646609894
 20
185.4821502609
 30
0.0
 10
58.0369602992
 20
185.4170250812
 30
0.0
 10
57.5410191962
 20
185.3147017273
 30
0.0
 10
56.9790890679
 20
185.1237757876
 30
0.0
 10
56.4158552489
 20
184.7934284652
 30
0.0
 10
56.0124059539
 20
184.3832824641
 30
0.0
 10
55.8702796103
 20
184.0501996791
 30
0.0
 10
55.8438673874
 20
183.8893724554
 30
0.0
  0
SPLINE
  5
2D4
100
AcDbEntity
  8
0
100
AcDbSpline
 62
7
  6
CONTINUOUS
 70
0
 71
3
 72
11
 73
7
 74
0
 42
0.0000001
 43
0.0000001
 44
0.0000000001
 40
0.0
 40
0.0
 40
0.0
 40
0.0
 40
0.2392102923
 40
0.5021492601
 40
0.7639202005
 40
1.0
 40
1.0
 40
1.0
 40
1.0
 10
137.6977046896
 20
105.2906094876
 30
0.0
 10
138.0166045956
 20
105.1017750011
 30
0.0
 10
138.6184853592
 20
104.5898900111
 30
0.0
 10
139.320378439
 20
103.6260464115
 30
0.0
 10
139.7973622395
 20
102.5385952969
 30
0.0
 10
139.932139745
 20
101.7662277715
 30
0.0
 10
139.9307935414
 20
101.4004652264
 30
0.0
  0
SPLINE
  5
2D5
100
AcDbEntity
  8
0
100
AcDbSpline
 62
7
  6
CONTINUOUS
 70
0
 71
3
 72
11
 73
7
 74
0
 42
0.0000001
 43
0.0000001
 44
0.0000000001
 40
0.0
 40
0.0
 40
0.0
 40
0.0
 40
0.2884824027
 40
0.5474654222
 40
0.7811051786
 40
1.0
 40
1.0
 40
1.0
 40
1.0
 10
139.8585430341
 20
81.7326490263
 30
0.0
 10
139.857955516
 20
81.5724715357
 30
0.0
 10
139.8324497794
 20
81.2675544097
 30
0.0
 10
139.7072072788
 20
80.8483250256
 30
0.0
 10
139.4978216437
 20
80.5071124641
 30
0.0
 10
139.30201272
 20
80.3411339824
 30
0.0
 10
139.197212537
 20
80.279579258
 30
0.0
  0
SPLINE
  5
2D6
100
AcDbEntity
  8
0
100
AcDbSpline
 62
7
  6
CONTINUOUS
 70
0
 71
3
 72
17
 73
13
 74
0
 42
0.0000001
 43
0.0000001
 44
0.0000000001
 40
0.0
 40
0.0
 40
0.0
 40
0.0
 40
0.1286888525
 40
0.2702802895
 40
0.4174331647
 40
0.5617754839
 40
0.695448121
 40
0.8127120865
 40
0.8646770447
 40
0.9125101515
 40
0.9571398234
 40
1.0
 40
1.0
 40
1.0
 40
1.0
 10
51.1373197036
 20
191.0614708513
 30
0.0
 10
50.8768355323
 20
191.2118580555
 30
0.0
 10
50.2870538452
 20
191.4551961665
 30
0.0
 10
49.3258408382
 20
191.6475085563
 30
0.0
 10
48.3091822265
 20
191.6756488598
 30
0.0
 10
47.3200559397
 20
191.5366570085
 30
0.0
 10
46.4386406063
 20
191.2422518599
 30
0.0
 10
45.8256159778
 20
190.8690943382
 30
0.0
 10
45.4658642195
 20
190.5080344292
 30
0.0
 10
45.2747413613
 20
190.2269319295
 30
0.0
 10
45.1569710546
 20
189.9304252458
 30
0.0
 10
45.1301660033
 20
189.7250618308
 30
0.0
 10
45.1302057969
 20
189.6248863941
 30
0.0
  0
SPLINE
  5
2D7
100
AcDbEntity
  8
0
100
AcDbSpline
 62
7
  6
CONTINUOUS
 70
0
 71
3
 72
11
 73
7
 74
0
 42
0.0000001
 43
0.0000001
 44
0.0000000001
 40
0.0
 40
0.0
 40
0.0
 40
0.0
 40
0.2177643494
 40
0.4508943819
 40
0.7103680107
 40
1.0
 40
1.0
 40
1.0
 40
1.0
 10
52.1679285437
 20
189.6248859191
 30
0.0
 10
52.1678753058
 20
189.7589054403
 30
0.0
 10
52.1185579224
 20
190.0382796664
 30
0.0
 10
51.9066525026
 20
190.4275539511
 30
0.0
 10
51.5717958743
 20
190.7793456422
 30
0.0
 10
51.2916890016
 20
190.9723477118
 30
0.0
 10
51.1373197036
 20
191.0614708513
 30
0.0
  0
SPLINE
  5
2D8
100
AcDbEntity
  8
0
100
AcDbSpline
 62
7
  6
CONTINUOUS
 70
0
 71
3
 72
11
 73
7
 74
0
 42
0.0000001
 43
0.0000001
 44
0.0000000001
 40
0.0
 40
0.0
 40
0.0
 40
0.0
 40
0.2392102923
 40
0.5021492601
 40
0.7639202005
 40
1.0
 40
1.0
 40
1.0
 40
1.0
 10
153.6782514102
 20
114.5169273653
 30
0.0
 10
153.9971513162
 20
114.3280928789
 30
0.0
 10
154.5990320799
 20
113.816207889
 30
0.0
 10
155.3009251599
 20
112.8523642896
 30
0.0
 10
155.7779089606
 20
111.764913175
 30
0.0
 10
155.9126864661
 20
110.9925456495
 30
0.0
 10
155.9113402625
 20
110.6267831044
 30
0.0
  0
SPLINE
  5
2D9
100
AcDbEntity
  8
0
100
AcDbSpline
 62
7
  6
CONTINUOUS
 70
0
 71
3
 72
11
 73
7
 74
0
 42
0.0000001
 43
0.0000001
 44
0.0000000001
 40
0.0
 40
0.0
 40
0.0
 40
0.0
 40
0.2884824027
 40
0.5474654222
 40
0.7811051786
 40
1.0
 40
1.0
 40
1.0
 40
1.0
 10
155.8390897551
 20
90.9589669039
 30
0.0
 10
155.8385022371
 20
90.7987894132
 30
0.0
 10
155.8129965005
 20
90.4938722872
 30
0.0
 10
155.6877539998
 20
90.0746429031
 30
0.0
 10
155.4783683648
 20
89.7334303416
 30
0.0
 10
155.2825594411
 20
89.5674518599
 30
0.0
 10
155.1777592581
 20
89.5058971354
 30
0.0
  0
SPLINE
  5
2DA
100
AcDbEntity
  8
0
100
AcDbSpline
 62
7
  6
CONTINUOUS
 70
0
 71
3
 72
9
 73
5
 74
0
 42
0.0000001
 43
0.0000001
 44
0.0000000001
 40
0.0
 40
0.0
 40
0.0
 40
0.0
 40
0.2438856278
 40
1.0
 40
1.0
 40
1.0
 40
1.0
 10
80.1116187311
 20
195.987453602
 30
0.0
 10
80.08796329
 20
196.0011107683
 30
0.0
 10
79.990159931
 20
196.055701118
 30
0.0
 10
79.8893207532
 20
196.1048038336
 30
0.0
 10
79.811883155
 20
196.1390781442
 30
0.0
  0
SPLINE
  5
2DB
100
AcDbEntity
  8
0
100
AcDbSpline
 62
7
  6
CONTINUOUS
 70
0
 71
3
 72
16
 73
12
 74
0
 42
0.0000001
 43
0.0000001
 44
0.0000000001
 40
0.0
 40
0.0
 40
0.0
 40
0.0
 40
0.1328302049
 40
0.2749696187
 40
0.4202395019
 40
0.491967858
 40
0.5619535697
 40
0.6936550252
 40
0.8108397119
 40
0.9119020074
 40
1.0
 40
1.0
 40
1.0
 40
1.0
 10
79.811883155
 20
196.1390781442
 30
0.0
 10
79.5871129978
 20
196.2385626628
 30
0.0
 10
79.0995628381
 20
196.3958528941
 30
0.0
 10
78.327327628
 20
196.5090170922
 30
0.0
 10
77.6598966165
 20
196.5049302825
 30
0.0
 10
77.1322897594
 20
196.4401894185
 30
0.0
 10
76.6362871427
 20
196.3382513493
 30
0.0
 10
76.0741145369
 20
196.1477975794
 30
0.0
 10
75.5103360567
 20
195.8180355985
 30
0.0
 10
75.1060548237
 20
195.4084697851
 30
0.0
 10
74.963028762
 20
195.0756641781
 30
0.0
 10
74.936152297
 20
194.9148695057
 30
0.0
  0
SPLINE
  5
2DC
100
AcDbEntity
  8
0
100
AcDbSpline
 62
7
  6
CONTINUOUS
 70
0
 71
3
 72
11
 73
7
 74
0
 42
0.0000001
 43
0.0000001
 44
0.0000000001
 40
0.0
 40
0.0
 40
0.0
 40
0.0
 40
0.2183503944
 40
0.4516815313
 40
0.710816461
 40
1.0
 40
1.0
 40
1.0
 40
1.0
 10
23.3455122923
 20
170.844831905
 30
0.0
 10
23.4476732459
 20
170.9027765768
 30
0.0
 10
23.6813067418
 20
170.9865353616
 30
0.0
 10
24.0685985844
 20
170.9969404721
 30
0.0
 10
24.4813328264
 20
170.8993769492
 30
0.0
 10
24.7502566778
 20
170.7736980321
 30
0.0
 10
24.8855580709
 20
170.6969547954
 30
0.0
  0
SPLINE
  5
2DD
100
AcDbEntity
  8
0
100
AcDbSpline
 62
7
  6
CONTINUOUS
 70
0
 71
3
 72
11
 73
7
 74
0
 42
0.0000001
 43
0.0000001
 44
0.0000000001
 40
0.0
 40
0.0
 40
0.0
 40
0.0
 40
0.2392102923
 40
0.5021492601
 40
0.7639202005
 40
1.0
 40
1.0
 40
1.0
 40
1.0
 10
156.7895082944
 20
116.3132016421
 30
0.0
 10
157.1084082003
 20
116.1243671557
 30
0.0
 10
157.710288964
 20
115.6124821656
 30
0.0
 10
158.4121820438
 20
114.648638566
 30
0.0
 10
158.8891658443
 20
113.5611874514
 30
0.0
 10
159.0239433498
 20
112.788819926
 30
0.0
 10
159.0225971462
 20
112.4230573809
 30
0.0
  0
SPLINE
  5
2DE
100
AcDbEntity
  8
0
100
AcDbSpline
 62
7
  6
CONTINUOUS
 70
0
 71
3
 72
11
 73
7
 74
0
 42
0.0000001
 43
0.0000001
 44
0.0000000001
 40
0.0
 40
0.0
 40
0.0
 40
0.0
 40
0.2884824027
 40
0.5474654222
 40
0.7811051786
 40
1.0
 40
1.0
 40
1.0
 40
1.0
 10
158.9503466389
 20
92.7552411808
 30
0.0
 10
158.9497591208
 20
92.5950636902
 30
0.0
 10
158.9242533842
 20
92.2901465642
 30
0.0
 10
158.7990108835
 20
91.8709171801
 30
0.0
 10
158.5896252485
 20
91.5297046186
 30
0.0
 10
158.3938163248
 20
91.3637261369
 30
0.0
 10
158.2890161418
 20
91.3021714125
 30
0.0
  0
SPLINE
  5
2DF
100
AcDbEntity
  8
0
100
AcDbSpline
 62
7
  6
CONTINUOUS
 70
0
 71
3
 72
11
 73
7
 74
0
 42
0.0000001
 43
0.0000001
 44
0.0000000001
 40
0.0
 40
0.0
 40
0.0
 40
0.0
 40
0.2223070758
 40
0.4584422632
 40
0.7163872012
 40
1.0
 40
1.0
 40
1.0
 40
1.0
 10
80.9991161157
 20
194.8218201923
 30
0.0
 10
80.991829048
 20
194.9194001642
 30
0.0
 10
80.947157914
 20
195.1193620266
 30
0.0
 10
80.7979144845
 20
195.4006008241
 30
0.0
 10
80.572458812
 20
195.6613100604
 30
0.0
 10
80.3847938747
 20
195.8103962247
 30
0.0
 10
80.2816668268
 20
195.8807447211
 30
0.0
  0
SPLINE
  5
2E0
100
AcDbEntity
  8
0
100
AcDbSpline
 62
7
  6
CONTINUOUS
 70
0
 71
3
 72
11
 73
7
 74
0
 42
0.0000001
 43
0.0000001
 44
0.0000000001
 40
0.0
 40
0.0
 40
0.0
 40
0.0
 40
0.2392102922
 40
0.5021492601
 40
0.7639202005
 40
1.0
 40
1.0
 40
1.0
 40
1.0
 10
172.7700550148
 20
125.5395195199
 30
0.0
 10
173.0889549208
 20
125.3506850336
 30
0.0
 10
173.6908356846
 20
124.8388000437
 30
0.0
 10
174.3927287646
 20
123.8749564443
 30
0.0
 10
174.8697125653
 20
122.7875053298
 30
0.0
 10
175.0044900709
 20
122.0151378043
 30
0.0
 10
175.0031438672
 20
121.6493752592
 30
0.0
  0
SPLINE
  5
2E1
100
AcDbEntity
  8
0
100
AcDbSpline
 62
7
  6
CONTINUOUS
 70
0
 71
3
 72
11
 73
7
 74
0
 42
0.0000001
 43
0.0000001
 44
0.0000000001
 40
0.0
 40
0.0
 40
0.0
 40
0.0
 40
0.2884824027
 40
0.5474654222
 40
0.7811051786
 40
1.0
 40
1.0
 40
1.0
 40
1.0
 10
174.9308933599
 20
101.9815590584
 30
0.0
 10
174.9303058418
 20
101.8213815678
 30
0.0
 10
174.9048001053
 20
101.5164644417
 30
0.0
 10
174.7795576046
 20
101.0972350576
 30
0.0
 10
174.5701719696
 20
100.7560224961
 30
0.0
 10
174.3743630458
 20
100.5900440144
 30
0.0
 10
174.2695628628
 20
100.52848929
 30
0.0
  0
SPLINE
  5
2E2
100
AcDbEntity
  8
0
100
AcDbSpline
 62
7
  6
CONTINUOUS
 70
0
 71
3
 72
17
 73
13
 74
0
 42
0.0000001
 43
0.0000001
 44
0.0000000001
 40
0.0
 40
0.0
 40
0.0
 40
0.0
 40
0.1286888525
 40
0.2702802895
 40
0.4174331647
 40
0.5617754839
 40
0.695448121
 40
0.8127120865
 40
0.8646770447
 40
0.9125101515
 40
0.9571398234
 40
1.0
 40
1.0
 40
1.0
 40
1.0
 10
70.2291233084
 20
202.0840630058
 30
0.0
 10
69.968639137
 20
202.23445021
 30
0.0
 10
69.3788574499
 20
202.477788321
 30
0.0
 10
68.417644443
 20
202.6701007108
 30
0.0
 10
67.4009858313
 20
202.6982410143
 30
0.0
 10
66.4118595444
 20
202.559249163
 30
0.0
 10
65.5304442111
 20
202.2648440144
 30
0.0
 10
64.9174195825
 20
201.8916864928
 30
0.0
 10
64.5576678242
 20
201.5306265837
 30
0.0
 10
64.366544966
 20
201.2495240841
 30
0.0
 10
64.2487746594
 20
200.9530174003
 30
0.0
 10
64.221969608
 20
200.7476539853
 30
0.0
 10
64.2220094017
 20
200.6474785487
 30
0.0
  0
SPLINE
  5
2E3
100
AcDbEntity
  8
0
100
AcDbSpline
 62
7
  6
CONTINUOUS
 70
0
 71
3
 72
11
 73
7
 74
0
 42
0.0000001
 43
0.0000001
 44
0.0000000001
 40
0.0
 40
0.0
 40
0.0
 40
0.0
 40
0.2222719295
 40
0.4583888962
 40
0.716346477
 40
1.0
 40
1.0
 40
1.0
 40
1.0
 10
61.9073299474
 20
183.7989941876
 30
0.0
 10
61.9000569635
 20
183.8966871582
 30
0.0
 10
61.8553419368
 20
184.0968949658
 30
0.0
 10
61.70583949
 20
184.3784511844
 30
0.0
 10
61.4799607871
 20
184.6394116714
 30
0.0
 10
61.291949667
 20
184.7886026543
 30
0.0
 10
61.1886322718
 20
184.8589917319
 30
0.0
  0
SPLINE
  5
2E4
100
AcDbEntity
  8
0
100
AcDbSpline
 62
7
  6
CONTINUOUS
 70
0
 71
3
 72
17
 73
13
 74
0
 42
0.0000001
 43
0.0000001
 44
0.0000000001
 40
0.0
 40
0.0
 40
0.0
 40
0.0
 40
0.1286888525
 40
0.2702802895
 40
0.4174331647
 40
0.5617754839
 40
0.695448121
 40
0.8127120865
 40
0.8646770447
 40
0.9125101515
 40
0.9571398234
 40
1.0
 40
1.0
 40
1.0
 40
1.0
 10
134.0178004871
 20
143.3831211023
 30
0.0
 10
133.7417555426
 20
143.5424921199
 30
0.0
 10
133.1167415454
 20
143.8003667347
 30
0.0
 10
132.0981077073
 20
144.0041674598
 30
0.0
 10
131.0207160613
 20
144.0339888054
 30
0.0
 10
129.9725014631
 20
143.8866938751
 30
0.0
 10
129.0384322428
 20
143.5747015859
 30
0.0
 10
128.38878682
 20
143.1792524234
 30
0.0
 10
128.0075442529
 20
142.7966235594
 30
0.0
 10
127.8050041196
 20
142.4987285912
 30
0.0
 10
127.680198464
 20
142.1845092256
 30
0.0
 10
127.6517921356
 20
141.9668778347
 30
0.0
 10
127.6518343064
 20
141.8607181294
 30
0.0
  0
SPLINE
  5
2E5
100
AcDbEntity
  8
0
100
AcDbSpline
 62
7
  6
CONTINUOUS
 70
0
 71
3
 72
11
 73
7
 74
0
 42
0.0000001
 43
0.0000001
 44
0.0000000001
 40
0.0
 40
0.0
 40
0.0
 40
0.0
 40
0.2177643494
 40
0.4508943819
 40
0.7103680107
 40
1.0
 40
1.0
 40
1.0
 40
1.0
 10
154.2017793233
 20
152.8833097806
 30
0.0
 10
154.2017229052
 20
153.0253353443
 30
0.0
 10
154.1494594056
 20
153.3213987956
 30
0.0
 10
153.9248952044
 20
153.7339275024
 30
0.0
 10
153.5700349497
 20
154.1067344847
 30
0.0
 10
153.2731950851
 20
154.3112660896
 30
0.0
 10
153.1096040919
 20
154.4057132568
 30
0.0
  0
SPLINE
  5
2E6
100
AcDbEntity
  8
0
100
AcDbSpline
 62
7
  6
CONTINUOUS
 70
0
 71
3
 72
11
 73
7
 74
0
 42
0.0000001
 43
0.0000001
 44
0.0000000001
 40
0.0
 40
0.0
 40
0.0
 40
0.0
 40
0.2177643494
 40
0.4508943819
 40
0.7103680107
 40
1.0
 40
1.0
 40
1.0
 40
1.0
 10
71.2597321484
 20
200.6474780737
 30
0.0
 10
71.2596789106
 20
200.7814975948
 30
0.0
 10
71.2103615272
 20
201.0608718209
 30
0.0
 10
70.9984561073
 20
201.4501461056
 30
0.0
 10
70.6635994791
 20
201.8019377967
 30
0.0
 10
70.3834926064
 20
201.9949398663
 30
0.0
 10
70.2291233084
 20
202.0840630058
 30
0.0
  0
SPLINE
  5
2E7
100
AcDbEntity
  8
0
100
AcDbSpline
 62
7
  6
CONTINUOUS
 70
0
 71
3
 72
17
 73
13
 74
0
 42
0.0000001
 43
0.0000001
 44
0.0000000001
 40
0.0
 40
0.0
 40
0.0
 40
0.0
 40
0.1286888525
 40
0.2702802895
 40
0.4174331647
 40
0.5617754839
 40
0.695448121
 40
0.8127120865
 40
0.8646770447
 40
0.9125101515
 40
0.9571398234
 40
1.0
 40
1.0
 40
1.0
 40
1.0
 10
153.1096040919
 20
154.4057132568
 30
0.0
 10
152.8335591473
 20
154.5650842744
 30
0.0
 10
152.2085451502
 20
154.8229588892
 30
0.0
 10
151.1899113121
 20
155.0267596143
 30
0.0
 10
150.1125196661
 20
155.05658096
 30
0.0
 10
149.0643050679
 20
154.9092860296
 30
0.0
 10
148.1302358475
 20
154.5972937404
 30
0.0
 10
147.4805904248
 20
154.2018445779
 30
0.0
 10
147.0993478577
 20
153.8192157139
 30
0.0
 10
146.8968077243
 20
153.5213207458
 30
0.0
 10
146.7720020688
 20
153.2071013801
 30
0.0
 10
146.7435957404
 20
152.9894699892
 30
0.0
 10
146.7436379112
 20
152.883310284
 30
0.0
  0
ENDSEC
  0
SECTION
  2
OBJECTS
  0
DICTIONARY
  5
C
100
AcDbDictionary
280
0
281
1
  3
ACAD_GROUP
350
D
  3
ACAD_MLINESTYLE
350
17
  3
ACAD_LAYOUT
350
1A
  3
ACAD_PLOTSETTINGS
350
19
  3
ACAD_PLOTSTYLENAME
350
E
  0
DICTIONARY
  5
D
102
{ACAD_REACTORS
330
C
102
}
100
AcDbDictionary
280
0
281
1
  0
ACDBDICTIONARYWDFLT
  5
E
102
{ACAD_REACTORS
330
C
102
}
100
AcDbDictionary
281
1
  3
Normal
350
F
100
AcDbDictionaryWithDefault
340
F
  0
DICTIONARY
  5
17
102
{ACAD_REACTORS
330
C
102
}
100
AcDbDictionary
280
0
281
1
  3
Standard
350
18
  0
DICTIONARY
  5
19
102
{ACAD_REACTORS
330
C
102
}
100
AcDbDictionary
281
1
  0
DICTIONARY
  5
1A
102
{ACAD_REACTORS
330
C
102
}
100
AcDbDictionary
281
1
  3
Model
350
2E8
  3
Layout1
350
2E9
  0
ACDBPLACEHOLDER
  5
F
102
{ACAD_REACTORS
330
E
102
}
  0
MLINESTYLE
  5
18
102
{ACAD_REACTORS
330
17
102
}
100
AcDbMlineStyle
  2
STANDARD
 70
0
  3

 62
256
 51
90.0
 52
90.0
 71
2
 49
0.5
 62
256
  6
BYLAYER
 49
-0.5
 62
256
  6
BYLAYER
  0
LAYOUT
  5
2E8
102
{ACAD_REACTORS
330
1A
102
}
100
AcDbPlotSettings
  1

  2
none_device
  4

  6

 40
0.0
 41
0.0
 42
0.0
 43
0.0
 44
210.0
 45
297.0
 46
0.0
 47
0.0
 48
0.0
 49
0.0
140
0.0
141
0.0
142
1.0
143
1.0
 70
1024
 72
1
 73
0
 74
0
  7

 75
0
147
1.0
148
0.0
149
0.0
100
AcDbLayout
  1
Model
 70
0
 71
0
 10
0.0
 20
0.0
 11
210.0
 21
297.0
 12
0.0
 22
0.0
 32
0.0
 14
0.0
 24
0.0
 34
0.0
 15
0.0
 25
0.0
 35
0.0
146
0.0
 13
0.0
 23
0.0
 33
0.0
 16
1.0
 26
0.0
 36
0.0
 17
0.0
 27
1.0
 37
0.0
 76
0
330
210
345
0
346
0
  0
LAYOUT
  5
2E9
102
{ACAD_REACTORS
330
1A
102
}
100
AcDbPlotSettings
  1

  2
none_device
  4

  6

 40
0.0
 41
0.0
 42
0.0
 43
0.0
 44
210.0
 45
297.0
 46
0.0
 47
0.0
 48
0.0
 49
0.0
140
0.0
141
0.0
142
1.0
143
1.0
 70
0
 72
1
 73
0
 74
0
  7

 75
0
147
1.0
148
0.0
149
0.0
100
AcDbLayout
  1
Layout1
 70
0
 71
1
 10
0.0
 20
0.0
 11
210.0
 21
297.0
 12
0.0
 22
0.0
 32
0.0
 14
0.0
 24
0.0
 34
0.0
 15
0.0
 25
0.0
 35
0.0
146
0.0
 13
0.0
 23
0.0
 33
0.0
 16
1.0
 26
0.0
 36
0.0
 17
0.0
 27
1.0
 37
0.0
 76
0
330
211
345
0
346
0
  0
ENDSEC
  0
EOF
