999
DXF file: C:\Users\sesa63760\Dev\_Creo\CAD\MCADPP0003115_3D-CAD\drw0001_1.dxf
999
Pro/ENGINEER 2019471 by Parametric Technology Corporation
  0
SECTION
  2
HEADER
  9
$ACADVER
  1
AC1024
  9
$DWGCODEPAGE
  3
ANSI_1252
  9
$EXTMAX
 10
110.4895881804
 20
156.2638461408
 30
0.0
  9
$EXTMIN
 10
0.0
 20
0.0
 30
0.0
  9
$LIMMIN
 10
0.0
 20
0.0
  9
$LIMMAX
 10
110.4895881804
 20
156.2638461408
  9
$VIEWCTR
 10
55.2447940902
 20
78.1319230704
  9
$VIEWSIZE
 40
156.2638461408
  9
$CLAYER
  8
0
  9
$LTSCALE
 40
10.1860877484
  9
$CELTYPE
  6
BYLAYER
  9
$DIMSCALE
 40
1.0
  9
$DIMASZ
 40
1.3153522402
  9
$DIMEXO
 40
1.0
  9
$DIMDLI
 40
7.0376606262
  9
$DIMEXE
 40
1.0
  9
$DIMCEN
 40
1.6668143588
  9
$DIMLFAC
 40
1.0
  9
$DIMBLK
  1
_FILLED
  9
$DIMALT
 70
0
  9
$DIMALTF
 40
0.0393700787
  9
$DIMTXT
 40
1.8414931363
  9
$DIMTOL
 70
1
  9
$DIMLIM
 70
0
  9
$DIMTFAC
 40
1.0
  9
$DIMTP
 40
0.01
  9
$DIMTM
 40
0.01
  9
$DIMGAP
 40
0.625
  9
$DIMDSEP
 70
46
  9
$AUNITS
 70
0
  9
$PDMODE
 70
3
  9
$PDSIZE
 40
0.3125
  9
$HANDSEED
  5
250
  9
$TILEMODE
 70
1
  9
$MEASUREMENT
 70
1
  9
$INSUNITS
 70
4
  0
ENDSEC
  0
SECTION
  2
CLASSES
  0
CLASS
  1
ACDBDICTIONARYWDFLT
  2
AcDbDictionaryWithDefault
  3
AutoCAD 2000
 90
0
 91
1
280
0
281
0
  0
CLASS
  1
ACDBPLACEHOLDER
  2
AcDbPlaceHolder
  3
AutoCAD 2000
 90
0
 91
1
280
0
281
0
  0
CLASS
  1
LAYOUT
  2
AcDbLayout
  3
AutoCAD 2000
 90
0
 91
0
280
0
281
0
  0
ENDSEC
  0
SECTION
  2
TABLES
  0
TABLE
  2
VPORT
  5
8
100
AcDbSymbolTable
 70
2
  0
VPORT
  5
1F4
100
AcDbSymbolTableRecord
100
AcDbViewportTableRecord
  2
*ACTIVE
 70
0
 10
0.0
 20
0.0
 11
1.0
 21
1.0
 12
55.2447940902
 22
78.1319230704
 13
0.0
 23
0.0
 14
1.0
 24
1.0
 15
0.0
 25
0.0
 16
0.0
 26
0.0
 36
1.0
 17
0.0
 27
0.0
 37
0.0
 40
156.2638461408
 41
0.7070707071
 42
50.0
 43
0.0
 44
0.0
 50
0.0
 51
0.0
 71
0
 72
100
 73
1
 74
1
 75
0
 76
0
 77
0
 78
0
  0
ENDTAB
  0
TABLE
  2
LTYPE
  5
5
100
AcDbSymbolTable
 70
6
  0
LTYPE
  5
14
100
AcDbSymbolTableRecord
100
AcDbLinetypeTableRecord
  2
BYBLOCK
 70
0
  3

 72
65
 73
0
 40
0.0
  0
LTYPE
  5
15
100
AcDbSymbolTableRecord
100
AcDbLinetypeTableRecord
  2
BYLAYER
 70
0
  3

 72
65
 73
0
 40
0.0
  0
LTYPE
  5
16
100
AcDbSymbolTableRecord
100
AcDbLinetypeTableRecord
  2
CONTINUOUS
 70
64
  3
Solid line
 72
65
 73
0
 40
0.0
  0
LTYPE
  5
1F5
100
AcDbSymbolTableRecord
100
AcDbLinetypeTableRecord
  2
CENTER
 70
64
  3
____ _ ____ _ ____ _ ____ _ ____ _ ____ _ ____
 72
65
 73
4
 40
0.6
 49
0.375
 74
0
 49
-0.075
 74
0
 49
0.075
 74
0
 49
-0.075
 74
0
  0
LTYPE
  5
1F6
100
AcDbSymbolTableRecord
100
AcDbLinetypeTableRecord
  2
HIDDEN
 70
64
  3
- - - - - - - - - - - - - - - - - - - -
 72
65
 73
2
 40
0.2
 49
0.1
 74
0
 49
-0.1
 74
0
  0
LTYPE
  5
1F7
100
AcDbSymbolTableRecord
100
AcDbLinetypeTableRecord
  2
PHANTOM
 70
64
  3
_____ _ _ _____ _ _ _____ _ _ _____
 72
65
 73
6
 40
0.8
 49
0.45
 74
0
 49
-0.05
 74
0
 49
0.1
 74
0
 49
-0.05
 74
0
 49
0.1
 74
0
 49
-0.05
 74
0
  0
LTYPE
  5
1F8
100
AcDbSymbolTableRecord
100
AcDbLinetypeTableRecord
  2
DOT
 70
64
  3
. . . . . . . . . . . . . . . . . . . .
 72
65
 73
2
 40
0.2
 49
0.1
 74
0
 49
-0.1
 74
0
  0
LTYPE
  5
1F9
100
AcDbSymbolTableRecord
100
AcDbLinetypeTableRecord
  2
DASHED
 70
64
  3
- - - - - - - - - - - - - - - - - - - -
 72
65
 73
2
 40
0.2
 49
0.1
 74
0
 49
-0.1
 74
0
  0
ENDTAB
  0
TABLE
  2
LAYER
  5
2
100
AcDbSymbolTable
 70
36
  0
LAYER
  5
10
100
AcDbSymbolTableRecord
100
AcDbLayerTableRecord
  2
0
 70
0
 62
7
  6
CONTINUOUS
370
-3
390
F
  0
LAYER
  5
1FA
100
AcDbSymbolTableRecord
100
AcDbLayerTableRecord
  2
DEFAULT_1
 70
0
 62
7
  6
CENTER
370
-3
390
F
  0
LAYER
  5
1FB
100
AcDbSymbolTableRecord
100
AcDbLayerTableRecord
  2
DEFAULT_2
 70
0
 62
8
  6
HIDDEN
370
-3
390
F
  0
LAYER
  5
1FC
100
AcDbSymbolTableRecord
100
AcDbLayerTableRecord
  2
DEFAULT_3
 70
0
 62
7
  6
PHANTOM
370
-3
390
F
  0
LAYER
  5
1FD
100
AcDbSymbolTableRecord
100
AcDbLayerTableRecord
  2
00_COMPONENTS
 70
0
 62
7
  6
CONTINUOUS
370
-3
390
F
  0
LAYER
  5
1FE
100
AcDbSymbolTableRecord
100
AcDbLayerTableRecord
  2
01_1_DEFAULT_DATUMS
 70
0
 62
7
  6
CONTINUOUS
370
-3
390
F
  0
LAYER
  5
1FF
100
AcDbSymbolTableRecord
100
AcDbLayerTableRecord
  2
01_PLANES
 70
0
 62
7
  6
CONTINUOUS
370
-3
390
F
  0
LAYER
  5
200
100
AcDbSymbolTableRecord
100
AcDbLayerTableRecord
  2
02_COORD_SYS
 70
0
 62
7
  6
CONTINUOUS
370
-3
390
F
  0
LAYER
  5
201
100
AcDbSymbolTableRecord
100
AcDbLayerTableRecord
  2
03_AXES
 70
0
 62
7
  6
CONTINUOUS
370
-3
390
F
  0
LAYER
  5
202
100
AcDbSymbolTableRecord
100
AcDbLayerTableRecord
  2
04_POINTS
 70
0
 62
7
  6
CONTINUOUS
370
-3
390
F
  0
LAYER
  5
203
100
AcDbSymbolTableRecord
100
AcDbLayerTableRecord
  2
05_CURVES
 70
0
 62
7
  6
CONTINUOUS
370
-3
390
F
  0
LAYER
  5
204
100
AcDbSymbolTableRecord
100
AcDbLayerTableRecord
  2
06_SURFS
 70
0
 62
7
  6
CONTINUOUS
370
-3
390
F
  0
LAYER
  5
205
100
AcDbSymbolTableRecord
100
AcDbLayerTableRecord
  2
07_COSMETICS
 70
0
 62
7
  6
CONTINUOUS
370
-3
390
F
  0
LAYER
  5
206
100
AcDbSymbolTableRecord
100
AcDbLayerTableRecord
  2
10_NOTES
 70
0
 62
7
  6
CONTINUOUS
370
-3
390
F
  0
LAYER
  5
207
100
AcDbSymbolTableRecord
100
AcDbLayerTableRecord
  2
11_NOTES_PUB
 70
0
 62
7
  6
CONTINUOUS
370
-3
390
F
  0
LAYER
  5
208
100
AcDbSymbolTableRecord
100
AcDbLayerTableRecord
  2
13_REF_GTOL
 70
0
 62
7
  6
CONTINUOUS
370
-3
390
F
  0
LAYER
  5
209
100
AcDbSymbolTableRecord
100
AcDbLayerTableRecord
  2
16_MISC
 70
0
 62
7
  6
CONTINUOUS
370
-3
390
F
  0
LAYER
  5
20A
100
AcDbSymbolTableRecord
100
AcDbLayerTableRecord
  2
17_NO_PRINT
 70
0
 62
7
  6
CONTINUOUS
370
-3
390
F
  0
LAYER
  5
20B
100
AcDbSymbolTableRecord
100
AcDbLayerTableRecord
  2
18_DATUM_CAMS_JOINTS
 70
0
 62
7
  6
CONTINUOUS
370
-3
390
F
  0
LAYER
  5
20C
100
AcDbSymbolTableRecord
100
AcDbLayerTableRecord
  2
19_DATUM_FUNCTIONAL
 70
0
 62
7
  6
CONTINUOUS
370
-3
390
F
  0
LAYER
  5
20D
100
AcDbSymbolTableRecord
100
AcDbLayerTableRecord
  2
20_DATUM_KINEMATIC_SCHEME
 70
0
 62
7
  6
CONTINUOUS
370
-3
390
F
  0
LAYER
  5
20E
100
AcDbSymbolTableRecord
100
AcDbLayerTableRecord
  2
SHELL8
 70
0
 62
7
  6
CONTINUOUS
370
-3
390
F
  0
ENDTAB
  0
TABLE
  2
STYLE
  5
3
100
AcDbSymbolTable
 70
1
  0
STYLE
  5
11
100
AcDbSymbolTableRecord
100
AcDbTextStyleTableRecord
  2
STANDARD
 70
0
 40
0.0
 41
0.8
 50
0.0
 71
0
 42
0.2
  3
txt
  4

  0
STYLE
  5
20F
100
AcDbSymbolTableRecord
100
AcDbTextStyleTableRecord
  2
TEXTSTYLE_1
 70
0
 40
0.0
 41
0.8
 50
0.0
 71
0
 42
0.2
  3
gdt
  4

  0
ENDTAB
  0
TABLE
  2
VIEW
  5
6
100
AcDbSymbolTable
 70
0
  0
ENDTAB
  0
TABLE
  2
UCS
  5
7
100
AcDbSymbolTable
 70
0
  0
ENDTAB
  0
TABLE
  2
APPID
  5
9
100
AcDbSymbolTable
 70
1
  0
APPID
  5
210
100
AcDbSymbolTableRecord
100
AcDbRegAppTableRecord
  2
ACAD
 70
0
  0
ENDTAB
  0
TABLE
  2
BLOCK_RECORD
  5
1
100
AcDbSymbolTable
 70
0
  0
BLOCK_RECORD
  5
211
100
AcDbSymbolTableRecord
100
AcDbBlockTableRecord
  2
*Model_Space
  0
BLOCK_RECORD
  5
212
100
AcDbSymbolTableRecord
100
AcDbBlockTableRecord
  2
*Paper_Space
  0
BLOCK_RECORD
  5
213
100
AcDbSymbolTableRecord
100
AcDbBlockTableRecord
  2
_FILLED
  0
ENDTAB
  0
TABLE
  2
DIMSTYLE
  5
A
100
AcDbSymbolTable
 70
1
100
AcDbDimStyleTable
 71
0
  0
DIMSTYLE
105
214
100
AcDbSymbolTableRecord
100
AcDbDimStyleTableRecord
  2
STANDARD
 70
0
  3

  4

 40
1.0
 41
1.3153522402
 42
1.0
 43
0.38
 44
1.0
 45
0.0
 46
0.0
 47
0.01
 48
0.01
140
1.8414931363
141
0.09
142
0.0
143
25.4
144
1.0
145
0.0
146
1.0
147
0.625
 71
1
 72
0
 73
0
 74
0
 75
0
 76
0
 77
1
 78
8
 79
2
170
0
171
1
172
0
173
0
174
0
175
0
176
0
177
0
178
0
270
2
179
2
271
2
272
2
273
2
274
2
275
0
280
0
281
0
282
0
283
1
284
8
285
0
286
0
287
3
288
0
340
11
278
46
341
213
342
213
343
213
344
213
  0
ENDTAB
  0
ENDSEC
  0
SECTION
  2
BLOCKS
  0
BLOCK
  5
20
100
AcDbEntity
  8
0
100
AcDbBlockBegin
  2
*Model_Space
 70
0
 10
0.0
 20
0.0
 30
0.0
  3
*Model_Space
  1

  0
ENDBLK
  5
21
100
AcDbEntity
  8
0
100
AcDbBlockEnd
  0
BLOCK
  5
1C
100
AcDbEntity
  8
0
100
AcDbBlockBegin
  2
*Paper_Space
 70
0
 10
0.0
 20
0.0
 30
0.0
  3
*Paper_Space
  1

  0
ENDBLK
  5
1D
100
AcDbEntity
  8
0
100
AcDbBlockEnd
  0
BLOCK
  5
215
100
AcDbEntity
  8
0
100
AcDbBlockBegin
  2
_FILLED
 70
64
 10
0.0
 20
0.0
  3
_FILLED
  1

  0
SOLID
  5
216
100
AcDbEntity
  8
0
  6
BYBLOCK
 62
0
100
AcDbTrace
 10
0.0
 20
0.0
 11
-1.0
 21
0.25
 12
-1.0
 22
-0.25
 13
-1.0
 23
-0.25
  0
ENDBLK
  5
217
100
AcDbEntity
  8
0
  6
BYBLOCK
 62
0
100
AcDbBlockEnd
  0
ENDSEC
  0
SECTION
  2
ENTITIES
  0
LINE
  5
218
100
AcDbEntity
  8
0
100
AcDbLine
 62
7
  6
CONTINUOUS
 10
12.8180634418
 20
55.8235897375
 11
12.8180634418
 21
91.702338938
  0
LINE
  5
219
100
AcDbEntity
  8
0
100
AcDbLine
 62
7
  6
CONTINUOUS
 10
13.0810960909
 20
55.2422013199
 11
16.7181149622
 21
53.142414999
  0
LINE
  5
21A
100
AcDbEntity
  8
0
100
AcDbLine
 62
7
  6
CONTINUOUS
 10
29.7395405508
 20
45.6246615045
 11
31.2661904474
 21
44.7432697155
  0
LINE
  5
21B
100
AcDbEntity
  8
0
100
AcDbLine
 62
7
  6
CONTINUOUS
 10
44.287616036
 20
37.225516221
 11
47.9246349073
 21
35.1257299001
  0
LINE
  5
21C
100
AcDbEntity
  8
0
100
AcDbLine
 62
7
  6
CONTINUOUS
 10
47.6616022582
 20
35.7071183048
 11
44.0245833869
 21
37.8069046256
  0
LINE
  5
21D
100
AcDbEntity
  8
0
100
AcDbLine
 62
7
  6
CONTINUOUS
 10
31.0031577983
 20
45.3246581201
 11
29.4765079017
 21
46.2060499091
  0
LINE
  5
21E
100
AcDbEntity
  8
0
100
AcDbLine
 62
7
  6
CONTINUOUS
 10
16.4550823131
 20
53.7238034036
 11
12.8180634418
 21
55.8235897245
  0
LINE
  5
21F
100
AcDbEntity
  8
0
100
AcDbLine
 62
7
  6
CONTINUOUS
 10
16.4550823131
 20
82.9660209707
 11
16.4550823131
 21
53.7238034167
  0
LINE
  5
220
100
AcDbEntity
  8
0
100
AcDbLine
 62
7
  6
CONTINUOUS
 10
18.4756483527
 20
83.4586059263
 11
18.4756483527
 21
81.7994730147
  0
LINE
  5
221
100
AcDbEntity
  8
0
100
AcDbLine
 62
7
  6
CONTINUOUS
 10
12.8180634418
 20
91.702338938
 11
64.5441233417
 21
121.566215282
  0
LINE
  5
222
100
AcDbEntity
  8
0
100
AcDbLine
 62
7
  6
CONTINUOUS
 10
26.8272349493
 20
70.2891050862
 11
26.8272349493
 21
78.6369242376
  0
LINE
  5
223
100
AcDbEntity
  8
0
100
AcDbLine
 62
7
  6
CONTINUOUS
 10
27.4559418621
 20
76.6148154322
 11
27.4559418621
 21
78.2739483439
  0
LINE
  5
224
100
AcDbEntity
  8
0
100
AcDbLine
 62
7
  6
CONTINUOUS
 10
29.4765079017
 20
46.2060499222
 11
29.4765079017
 21
75.4482674762
  0
LINE
  5
225
100
AcDbEntity
  8
0
100
AcDbLine
 62
7
  6
CONTINUOUS
 10
31.0031577983
 20
74.5668756872
 11
31.0031577983
 21
45.3246581332
  0
LINE
  5
226
100
AcDbEntity
  8
0
100
AcDbLine
 62
7
  6
CONTINUOUS
 10
33.0237238379
 20
75.0594606428
 11
33.0237238379
 21
73.4003277312
  0
LINE
  5
227
100
AcDbEntity
  8
0
100
AcDbLine
 62
7
  6
CONTINUOUS
 10
18.4756483527
 20
81.7994730147
 11
19.9125201437
 21
82.6290463781
  0
LINE
  5
228
100
AcDbEntity
  8
0
100
AcDbLine
 62
7
  6
CONTINUOUS
 10
29.4765079017
 20
68.7595812364
 11
26.8272349493
 21
70.2891050862
  0
LINE
  5
229
100
AcDbEntity
  8
0
100
AcDbLine
 62
7
  6
CONTINUOUS
 10
44.0245833869
 20
62.0195688645
 11
41.3753104345
 21
63.5490927143
  0
LINE
  5
22A
100
AcDbEntity
  8
0
100
AcDbLine
 62
7
  6
CONTINUOUS
 10
44.0245833869
 20
67.0491221927
 11
42.0040173473
 21
68.2156701487
  0
LINE
  5
22B
100
AcDbEntity
  8
0
100
AcDbLine
 62
7
  6
CONTINUOUS
 10
33.0237238379
 20
73.4003277312
 11
31.0031577983
 21
74.5668756872
  0
LINE
  5
22C
100
AcDbEntity
  8
0
100
AcDbLine
 62
7
  6
CONTINUOUS
 10
29.4765079017
 20
75.4482674762
 11
27.4559418621
 21
76.6148154322
  0
LINE
  5
22D
100
AcDbEntity
  8
0
100
AcDbLine
 62
7
  6
CONTINUOUS
 10
18.4756483527
 20
81.7994730147
 11
16.4550823131
 21
82.9660209707
  0
LINE
  5
22E
100
AcDbEntity
  8
0
100
AcDbLine
 62
7
  6
CONTINUOUS
 10
41.3753104345
 20
63.5490927143
 11
41.3753104345
 21
70.2377789541
  0
LINE
  5
22F
100
AcDbEntity
  8
0
100
AcDbLine
 62
7
  6
CONTINUOUS
 10
42.0040173473
 20
68.2156701487
 11
42.0040173473
 21
69.8748030604
  0
LINE
  5
230
100
AcDbEntity
  8
0
100
AcDbLine
 62
7
  6
CONTINUOUS
 10
44.0245833869
 20
37.8069046387
 11
44.0245833869
 21
67.0491221927
  0
LINE
  5
231
100
AcDbEntity
  8
0
100
AcDbLine
 62
7
  6
CONTINUOUS
 10
42.0040173473
 20
69.8748030604
 11
33.0237238379
 21
75.0594606428
  0
LINE
  5
232
100
AcDbEntity
  8
0
100
AcDbLine
 62
7
  6
CONTINUOUS
 10
27.4559418621
 20
78.2739483439
 11
18.4756483527
 21
83.4586059263
  0
LINE
  5
233
100
AcDbEntity
  8
0
100
AcDbLine
 62
7
  6
CONTINUOUS
 10
47.6616022582
 20
71.5858675183
 11
47.6616022582
 21
35.7071183178
  0
LINE
  5
234
100
AcDbEntity
  8
0
100
AcDbLine
 62
7
  6
CONTINUOUS
 10
47.6616022582
 20
71.5858675183
 11
12.8180634418
 21
91.702338938
  0
LINE
  5
235
100
AcDbEntity
  8
0
100
AcDbLine
 62
7
  6
CONTINUOUS
 10
33.0237238379
 20
73.4003277312
 11
34.4605956289
 21
74.2299010946
  0
LINE
  5
236
100
AcDbEntity
  8
0
100
AcDbLine
 62
7
  6
CONTINUOUS
 10
99.387662158
 20
101.4497438623
 11
47.6616022582
 21
71.5858675183
  0
LINE
  5
237
100
AcDbEntity
  8
0
100
AcDbLine
 62
7
  6
CONTINUOUS
 10
17.3531042013
 20
53.2053154179
 11
29.4765079017
 21
60.204724027
  0
LINE
  5
238
100
AcDbEntity
  8
0
100
AcDbLine
 62
7
  6
CONTINUOUS
 10
31.9011796865
 20
44.8061701344
 11
44.0245833869
 21
51.8055787435
  0
LINE
  5
239
100
AcDbEntity
  8
0
100
AcDbLine
 62
7
  6
CONTINUOUS
 10
48.5596241463
 20
35.188630319
 11
98.4896402735
 21
64.0155664971
  0
LINE
  5
23A
100
AcDbEntity
  8
0
100
AcDbLine
 62
7
  6
CONTINUOUS
 10
99.387662158
 20
65.570994666
 11
99.387662158
 21
101.4497438623
  0
LINE
  5
23B
100
AcDbEntity
  8
0
100
AcDbLine
 62
7
  6
CONTINUOUS
 10
99.387662158
 20
101.4497438623
 11
64.5441233417
 21
121.566215282
  0
SPLINE
  5
23C
100
AcDbEntity
  8
0
100
AcDbSpline
 62
7
  6
CONTINUOUS
 70
0
 71
3
 72
11
 73
7
 74
0
 42
0.0000001
 43
0.0000001
 44
0.0000000001
 40
0.0
 40
0.0
 40
0.0
 40
0.0
 40
0.2177456291
 40
0.4508837758
 40
0.7104602914
 40
1.0
 40
1.0
 40
1.0
 40
1.0
 10
31.2662259765
 20
44.743331256
 30
0.0
 10
31.3081094451
 20
44.7191503785
 30
0.0
 10
31.4043116242
 20
44.6841155259
 30
0.0
 10
31.5642425796
 20
44.6800994315
 30
0.0
 10
31.7346034298
 20
44.7213360186
 30
0.0
 10
31.8454868307
 20
44.7740160412
 30
0.0
 10
31.9011796865
 20
44.8061701344
 30
0.0
  0
SPLINE
  5
23D
100
AcDbEntity
  8
0
100
AcDbSpline
 62
7
  6
CONTINUOUS
 70
0
 71
3
 72
11
 73
7
 74
0
 42
0.0000001
 43
0.0000001
 44
0.0000000001
 40
0.0
 40
0.0
 40
0.0
 40
0.0
 40
0.2177442243
 40
0.4508817657
 40
0.7104588049
 40
1.0
 40
1.0
 40
1.0
 40
1.0
 10
29.7395760808
 20
45.6247230445
 30
0.0
 10
29.6976912363
 20
45.6489047461
 30
0.0
 10
29.6192453112
 20
45.7147021801
 30
0.0
 10
29.5357980434
 20
45.8512032656
 30
0.0
 10
29.4863275178
 20
46.0193653875
 30
0.0
 10
29.4765079018
 20
46.1417385703
 30
0.0
 10
29.4765079017
 20
46.2060499222
 30
0.0
  0
SPLINE
  5
23E
100
AcDbEntity
  8
0
100
AcDbSpline
 62
7
  6
CONTINUOUS
 70
0
 71
3
 72
11
 73
7
 74
0
 42
0.0000001
 43
0.0000001
 44
0.0000000001
 40
0.0
 40
0.0
 40
0.0
 40
0.0
 40
0.2177456291
 40
0.4508837758
 40
0.7104602914
 40
1.0
 40
1.0
 40
1.0
 40
1.0
 10
16.7181504914
 20
53.1424765395
 30
0.0
 10
16.76003396
 20
53.118295662
 30
0.0
 10
16.8562361391
 20
53.0832608094
 30
0.0
 10
17.0161670944
 20
53.079244715
 30
0.0
 10
17.1865279447
 20
53.1204813021
 30
0.0
 10
17.2974113456
 20
53.1731613247
 30
0.0
 10
17.3531042013
 20
53.2053154179
 30
0.0
  0
SPLINE
  5
23F
100
AcDbEntity
  8
0
100
AcDbSpline
 62
7
  6
CONTINUOUS
 70
0
 71
3
 72
11
 73
7
 74
0
 42
0.0000001
 43
0.0000001
 44
0.0000000001
 40
0.0
 40
0.0
 40
0.0
 40
0.0
 40
0.2177442243
 40
0.4508817657
 40
0.7104588049
 40
1.0
 40
1.0
 40
1.0
 40
1.0
 10
13.0811316209
 20
55.2422628599
 30
0.0
 10
13.0392467764
 20
55.2664445615
 30
0.0
 10
12.9608008513
 20
55.3322419955
 30
0.0
 10
12.8773535835
 20
55.468743081
 30
0.0
 10
12.8278830579
 20
55.6369052029
 30
0.0
 10
12.8180634419
 20
55.7592783857
 30
0.0
 10
12.8180634418
 20
55.8235897375
 30
0.0
  0
SPLINE
  5
240
100
AcDbEntity
  8
0
100
AcDbSpline
 62
7
  6
CONTINUOUS
 70
0
 71
3
 72
11
 73
7
 74
0
 42
0.0000001
 43
0.0000001
 44
0.0000000001
 40
0.0
 40
0.0
 40
0.0
 40
0.0
 40
0.2177827477
 40
0.4509152641
 40
0.7103063952
 40
1.0
 40
1.0
 40
1.0
 40
1.0
 10
31.2268209385
 20
89.1100373747
 30
0.0
 10
31.2268073894
 20
89.0108748537
 30
0.0
 10
31.1901835794
 20
88.8041864012
 30
0.0
 10
31.0334849609
 20
88.5162016519
 30
0.0
 10
30.7857814697
 20
88.255884952
 30
0.0
 10
30.5785267875
 20
88.1131350096
 30
0.0
 10
30.4642930784
 20
88.0471825406
 30
0.0
  0
SPLINE
  5
241
100
AcDbEntity
  8
0
100
AcDbSpline
 62
7
  6
CONTINUOUS
 70
0
 71
3
 72
11
 73
7
 74
0
 42
0.0000001
 43
0.0000001
 44
0.0000000001
 40
0.0
 40
0.0
 40
0.0
 40
0.0
 40
0.2177827477
 40
0.4509152641
 40
0.7103063952
 40
1.0
 40
1.0
 40
1.0
 40
1.0
 10
71.6378052352
 20
112.4411907685
 30
0.0
 10
71.6377916862
 20
112.3420282475
 30
0.0
 10
71.6011678762
 20
112.1353397949
 30
0.0
 10
71.4444692576
 20
111.8473550456
 30
0.0
 10
71.1967657665
 20
111.5870383458
 30
0.0
 10
70.9895110842
 20
111.4442884034
 30
0.0
 10
70.8752773752
 20
111.3783359344
 30
0.0
  0
SPLINE
  5
242
100
AcDbEntity
  8
0
100
AcDbSpline
 62
7
  6
CONTINUOUS
 70
0
 71
3
 72
11
 73
7
 74
0
 42
0.0000001
 43
0.0000001
 44
0.0000000001
 40
0.0
 40
0.0
 40
0.0
 40
0.0
 40
0.2177456291
 40
0.4508837758
 40
0.7104602914
 40
1.0
 40
1.0
 40
1.0
 40
1.0
 10
47.9246704364
 20
35.1257914407
 30
0.0
 10
47.966553905
 20
35.1016105632
 30
0.0
 10
48.0627560841
 20
35.0665757105
 30
0.0
 10
48.2226870395
 20
35.0625596161
 30
0.0
 10
48.3930478897
 20
35.1037962032
 30
0.0
 10
48.5039312906
 20
35.1564762258
 30
0.0
 10
48.5596241463
 20
35.188630319
 30
0.0
  0
SPLINE
  5
243
100
AcDbEntity
  8
0
100
AcDbSpline
 62
7
  6
CONTINUOUS
 70
0
 71
3
 72
11
 73
7
 74
0
 42
0.0000001
 43
0.0000001
 44
0.0000000001
 40
0.0
 40
0.0
 40
0.0
 40
0.0
 40
0.2177442243
 40
0.4508817657
 40
0.7104588049
 40
1.0
 40
1.0
 40
1.0
 40
1.0
 10
44.287651566
 20
37.225577761
 30
0.0
 10
44.2457667215
 20
37.2497594626
 30
0.0
 10
44.1673207963
 20
37.3155568966
 30
0.0
 10
44.0838735286
 20
37.4520579821
 30
0.0
 10
44.034403003
 20
37.620220104
 30
0.0
 10
44.024583387
 20
37.7425932868
 30
0.0
 10
44.0245833869
 20
37.8069046387
 30
0.0
  0
SPLINE
  5
244
100
AcDbEntity
  8
0
100
AcDbSpline
 62
7
  6
CONTINUOUS
 70
0
 71
3
 72
17
 73
13
 74
0
 42
0.0000001
 43
0.0000001
 44
0.0000000001
 40
0.0
 40
0.0
 40
0.0
 40
0.0
 40
0.1286926208
 40
0.2702795078
 40
0.4174383051
 40
0.5617803148
 40
0.6954501289
 40
0.8127134773
 40
0.8646759206
 40
0.9125113962
 40
0.9571388332
 40
1.0
 40
1.0
 40
1.0
 40
1.0
 10
70.8752773752
 20
111.3783359344
 30
0.0
 10
70.6825512607
 20
111.2670661245
 30
0.0
 10
70.24620068
 20
111.0870205515
 30
0.0
 10
69.5350253431
 20
110.944762429
 30
0.0
 10
68.7828421829
 20
110.9239302896
 30
0.0
 10
68.0510236892
 20
111.0267745949
 30
0.0
 10
67.3989129035
 20
111.2445926076
 30
0.0
 10
66.9453551415
 20
111.520654145
 30
0.0
 10
66.679203426
 20
111.7877936289
 30
0.0
 10
66.5377750674
 20
111.9957532935
 30
0.0
 10
66.4506970232
 20
112.2151476522
 30
0.0
 10
66.4308190492
 20
112.3670734029
 30
0.0
 10
66.4308291762
 20
112.441190709
 30
0.0
  0
SPLINE
  5
245
100
AcDbEntity
  8
0
100
AcDbSpline
 62
7
  6
CONTINUOUS
 70
0
 71
3
 72
17
 73
13
 74
0
 42
0.0000001
 43
0.0000001
 44
0.0000000001
 40
0.0
 40
0.0
 40
0.0
 40
0.0
 40
0.1286926208
 40
0.2702795078
 40
0.4174383051
 40
0.5617803148
 40
0.6954501289
 40
0.8127134773
 40
0.8646759206
 40
0.9125113962
 40
0.9571388332
 40
1.0
 40
1.0
 40
1.0
 40
1.0
 10
30.4642930784
 20
88.0471825406
 30
0.0
 10
30.271566964
 20
87.9359127308
 30
0.0
 10
29.8352163832
 20
87.7558671577
 30
0.0
 10
29.1240410464
 20
87.6136090352
 30
0.0
 10
28.3718578861
 20
87.5927768959
 30
0.0
 10
27.6400393925
 20
87.6956212012
 30
0.0
 10
26.9879286067
 20
87.9134392138
 30
0.0
 10
26.5343708447
 20
88.1895007512
 30
0.0
 10
26.2682191293
 20
88.4566402352
 30
0.0
 10
26.1267907707
 20
88.6645998998
 30
0.0
 10
26.0397127265
 20
88.8839942585
 30
0.0
 10
26.0198347524
 20
89.0359200092
 30
0.0
 10
26.0198448794
 20
89.1100373153
 30
0.0
  0
SPLINE
  5
246
100
AcDbEntity
  8
0
100
AcDbSpline
 62
7
  6
CONTINUOUS
 70
0
 71
3
 72
13
 73
9
 74
0
 42
0.0000001
 43
0.0000001
 44
0.0000000001
 40
0.0
 40
0.0
 40
0.0
 40
0.0
 40
0.1141755821
 40
0.2375692201
 40
0.4999985603
 40
0.7624286896
 40
0.8858231944
 40
1.0
 40
1.0
 40
1.0
 40
1.0
 10
98.4896402735
 20
64.0155664971
 30
0.0
 10
98.5510729975
 20
64.0510344852
 30
0.0
 10
98.6724818535
 20
64.1362266468
 30
0.0
 10
98.8999292048
 20
64.348903056
 30
0.0
 10
99.1399566744
 20
64.6770547626
 30
0.0
 10
99.3041287638
 20
65.0490018237
 30
0.0
 10
99.3745879323
 20
65.3523171074
 30
0.0
 10
99.3876621579
 20
65.5000576121
 30
0.0
 10
99.387662158
 20
65.570994666
 30
0.0
  0
SPLINE
  5
247
100
AcDbEntity
  8
0
100
AcDbSpline
 62
7
  6
CONTINUOUS
 70
0
 71
3
 72
11
 73
7
 74
0
 42
0.0000001
 43
0.0000001
 44
0.0000000001
 40
0.0
 40
0.0
 40
0.0
 40
0.0
 40
0.2895411593
 40
0.5491183968
 40
0.7822559146
 40
1.0
 40
1.0
 40
1.0
 40
1.0
 10
31.0031577983
 20
45.3246581332
 30
0.0
 10
31.0031577984
 20
45.2603467903
 30
0.0
 10
31.0129774911
 20
45.137973586
 30
0.0
 10
31.0624479382
 20
44.9698114059
 30
0.0
 10
31.1458952755
 20
44.8333103592
 30
0.0
 10
31.2243411466
 20
44.7675129195
 30
0.0
 10
31.2662259765
 20
44.743331256
 30
0.0
  0
SPLINE
  5
248
100
AcDbEntity
  8
0
100
AcDbSpline
 62
7
  6
CONTINUOUS
 70
0
 71
3
 72
11
 73
7
 74
0
 42
0.0000001
 43
0.0000001
 44
0.0000000001
 40
0.0
 40
0.0
 40
0.0
 40
0.0
 40
0.2895411593
 40
0.5491183968
 40
0.7822559146
 40
1.0
 40
1.0
 40
1.0
 40
1.0
 10
16.4550823131
 20
53.7238034167
 30
0.0
 10
16.4550823132
 20
53.6594920738
 30
0.0
 10
16.4649020059
 20
53.5371188695
 30
0.0
 10
16.514372453
 20
53.3689566894
 30
0.0
 10
16.5978197903
 20
53.2324556427
 30
0.0
 10
16.6762656614
 20
53.166658203
 30
0.0
 10
16.7181504914
 20
53.1424765395
 30
0.0
  0
SPLINE
  5
249
100
AcDbEntity
  8
0
100
AcDbSpline
 62
7
  6
CONTINUOUS
 70
0
 71
3
 72
11
 73
7
 74
0
 42
0.0000001
 43
0.0000001
 44
0.0000000001
 40
0.0
 40
0.0
 40
0.0
 40
0.0
 40
0.2895411593
 40
0.5491183968
 40
0.7822559146
 40
1.0
 40
1.0
 40
1.0
 40
1.0
 10
47.6616022582
 20
35.7071183178
 30
0.0
 10
47.6616022583
 20
35.6428069749
 30
0.0
 10
47.671421951
 20
35.5204337707
 30
0.0
 10
47.7208923981
 20
35.3522715905
 30
0.0
 10
47.8043397353
 20
35.2157705439
 30
0.0
 10
47.8827856064
 20
35.1499731041
 30
0.0
 10
47.9246704364
 20
35.1257914407
 30
0.0
  0
SPLINE
  5
24A
100
AcDbEntity
  8
0
100
AcDbSpline
 62
7
  6
CONTINUOUS
 70
0
 71
3
 72
11
 73
7
 74
0
 42
0.0000001
 43
0.0000001
 44
0.0000000001
 40
0.0
 40
0.0
 40
0.0
 40
0.0
 40
0.2177827477
 40
0.4509152641
 40
0.7103063952
 40
1.0
 40
1.0
 40
1.0
 40
1.0
 10
26.0198448794
 20
89.1100373153
 30
0.0
 10
26.0198584285
 20
89.2091998363
 30
0.0
 10
26.0564822385
 20
89.4158882888
 30
0.0
 10
26.2131808571
 20
89.7038730381
 30
0.0
 10
26.4608843482
 20
89.964189738
 30
0.0
 10
26.6681390305
 20
90.1069396804
 30
0.0
 10
26.7823727395
 20
90.1728921494
 30
0.0
  0
SPLINE
  5
24B
100
AcDbEntity
  8
0
100
AcDbSpline
 62
7
  6
CONTINUOUS
 70
0
 71
3
 72
11
 73
7
 74
0
 42
0.0000001
 43
0.0000001
 44
0.0000000001
 40
0.0
 40
0.0
 40
0.0
 40
0.0
 40
0.2177827477
 40
0.4509152641
 40
0.7103063952
 40
1.0
 40
1.0
 40
1.0
 40
1.0
 10
66.4308291762
 20
112.441190709
 30
0.0
 10
66.4308427253
 20
112.5403532301
 30
0.0
 10
66.4674665353
 20
112.7470416826
 30
0.0
 10
66.6241651538
 20
113.0350264319
 30
0.0
 10
66.8718686449
 20
113.2953431317
 30
0.0
 10
67.0791233272
 20
113.4380930742
 30
0.0
 10
67.1933570363
 20
113.5040455432
 30
0.0
  0
SPLINE
  5
24C
100
AcDbEntity
  8
0
100
AcDbSpline
 62
7
  6
CONTINUOUS
 70
0
 71
3
 72
17
 73
13
 74
0
 42
0.0000001
 43
0.0000001
 44
0.0000000001
 40
0.0
 40
0.0
 40
0.0
 40
0.0
 40
0.1286926208
 40
0.2702795078
 40
0.4174383051
 40
0.5617803148
 40
0.6954501289
 40
0.8127134773
 40
0.8646759206
 40
0.9125113962
 40
0.9571388332
 40
1.0
 40
1.0
 40
1.0
 40
1.0
 10
67.1933570363
 20
113.5040455432
 30
0.0
 10
67.3860831507
 20
113.615315353
 30
0.0
 10
67.8224337315
 20
113.7953609261
 30
0.0
 10
68.5336090683
 20
113.9376190486
 30
0.0
 10
69.2857922286
 20
113.9584511879
 30
0.0
 10
70.0176107222
 20
113.8556068826
 30
0.0
 10
70.669721508
 20
113.63778887
 30
0.0
 10
71.12327927
 20
113.3617273326
 30
0.0
 10
71.3894309854
 20
113.0945878486
 30
0.0
 10
71.530859344
 20
112.886628184
 30
0.0
 10
71.6179373882
 20
112.6672338253
 30
0.0
 10
71.6378153623
 20
112.5153080746
 30
0.0
 10
71.6378052352
 20
112.4411907685
 30
0.0
  0
SPLINE
  5
24D
100
AcDbEntity
  8
0
100
AcDbSpline
 62
7
  6
CONTINUOUS
 70
0
 71
3
 72
17
 73
13
 74
0
 42
0.0000001
 43
0.0000001
 44
0.0000000001
 40
0.0
 40
0.0
 40
0.0
 40
0.0
 40
0.1286926208
 40
0.2702795078
 40
0.4174383051
 40
0.5617803148
 40
0.6954501289
 40
0.8127134773
 40
0.8646759206
 40
0.9125113962
 40
0.9571388332
 40
1.0
 40
1.0
 40
1.0
 40
1.0
 10
26.7823727395
 20
90.1728921494
 30
0.0
 10
26.9750988539
 20
90.2841619592
 30
0.0
 10
27.4114494347
 20
90.4642075323
 30
0.0
 10
28.1226247716
 20
90.6064656548
 30
0.0
 10
28.8748079318
 20
90.6272977942
 30
0.0
 10
29.6066264254
 20
90.5244534888
 30
0.0
 10
30.2587372112
 20
90.3066354762
 30
0.0
 10
30.7122949732
 20
90.0305739388
 30
0.0
 10
30.9784466887
 20
89.7634344549
 30
0.0
 10
31.1198750473
 20
89.5554747902
 30
0.0
 10
31.2069530914
 20
89.3360804315
 30
0.0
 10
31.2268310655
 20
89.1841546809
 30
0.0
 10
31.2268209385
 20
89.1100373747
 30
0.0
  0
ENDSEC
  0
SECTION
  2
OBJECTS
  0
DICTIONARY
  5
C
100
AcDbDictionary
280
0
281
1
  3
ACAD_GROUP
350
D
  3
ACAD_MLINESTYLE
350
17
  3
ACAD_LAYOUT
350
1A
  3
ACAD_PLOTSETTINGS
350
19
  3
ACAD_PLOTSTYLENAME
350
E
  0
DICTIONARY
  5
D
102
{ACAD_REACTORS
330
C
102
}
100
AcDbDictionary
280
0
281
1
  0
ACDBDICTIONARYWDFLT
  5
E
102
{ACAD_REACTORS
330
C
102
}
100
AcDbDictionary
281
1
  3
Normal
350
F
100
AcDbDictionaryWithDefault
340
F
  0
DICTIONARY
  5
17
102
{ACAD_REACTORS
330
C
102
}
100
AcDbDictionary
280
0
281
1
  3
Standard
350
18
  0
DICTIONARY
  5
19
102
{ACAD_REACTORS
330
C
102
}
100
AcDbDictionary
281
1
  0
DICTIONARY
  5
1A
102
{ACAD_REACTORS
330
C
102
}
100
AcDbDictionary
281
1
  3
Model
350
24E
  3
Layout1
350
24F
  0
ACDBPLACEHOLDER
  5
F
102
{ACAD_REACTORS
330
E
102
}
  0
MLINESTYLE
  5
18
102
{ACAD_REACTORS
330
17
102
}
100
AcDbMlineStyle
  2
STANDARD
 70
0
  3

 62
256
 51
90.0
 52
90.0
 71
2
 49
0.5
 62
256
  6
BYLAYER
 49
-0.5
 62
256
  6
BYLAYER
  0
LAYOUT
  5
24E
102
{ACAD_REACTORS
330
1A
102
}
100
AcDbPlotSettings
  1

  2
none_device
  4

  6

 40
0.0
 41
0.0
 42
0.0
 43
0.0
 44
210.0
 45
297.0
 46
0.0
 47
0.0
 48
0.0
 49
0.0
140
0.0
141
0.0
142
1.0
143
1.0
 70
1024
 72
1
 73
0
 74
0
  7

 75
0
147
1.0
148
0.0
149
0.0
100
AcDbLayout
  1
Model
 70
0
 71
0
 10
0.0
 20
0.0
 11
210.0
 21
297.0
 12
0.0
 22
0.0
 32
0.0
 14
0.0
 24
0.0
 34
0.0
 15
0.0
 25
0.0
 35
0.0
146
0.0
 13
0.0
 23
0.0
 33
0.0
 16
1.0
 26
0.0
 36
0.0
 17
0.0
 27
1.0
 37
0.0
 76
0
330
211
345
0
346
0
  0
LAYOUT
  5
24F
102
{ACAD_REACTORS
330
1A
102
}
100
AcDbPlotSettings
  1

  2
none_device
  4

  6

 40
0.0
 41
0.0
 42
0.0
 43
0.0
 44
210.0
 45
297.0
 46
0.0
 47
0.0
 48
0.0
 49
0.0
140
0.0
141
0.0
142
1.0
143
1.0
 70
0
 72
1
 73
0
 74
0
  7

 75
0
147
1.0
148
0.0
149
0.0
100
AcDbLayout
  1
Layout1
 70
0
 71
1
 10
0.0
 20
0.0
 11
210.0
 21
297.0
 12
0.0
 22
0.0
 32
0.0
 14
0.0
 24
0.0
 34
0.0
 15
0.0
 25
0.0
 35
0.0
146
0.0
 13
0.0
 23
0.0
 33
0.0
 16
1.0
 26
0.0
 36
0.0
 17
0.0
 27
1.0
 37
0.0
 76
0
330
212
345
0
346
0
  0
ENDSEC
  0
EOF
