999
DXF file: C:\Users\sesa63760\Dev\_Creo\CAD\MCADID0005780_3D-CAD\mcadid0005780_3d-simplified_1.dxf
999
Pro/ENGINEER 2019471 by Parametric Technology Corporation
  0
SECTION
  2
HEADER
  9
$ACADVER
  1
AC1024
  9
$DWGCODEPAGE
  3
ANSI_1252
  9
$EXTMAX
 10
63.6755301377
 20
90.0553926234
 30
0.0
  9
$EXTMIN
 10
-0.0
 20
0.0
 30
0.0
  9
$LIMMIN
 10
-0.0
 20
0.0
  9
$LIMMAX
 10
63.6755301377
 20
90.0553926234
  9
$VIEWCTR
 10
31.8377650689
 20
45.0276963117
  9
$VIEWSIZE
 40
90.0553926234
  9
$CLAYER
  8
0
  9
$LTSCALE
 40
5.8702774451
  9
$CELTYPE
  6
BYLAYER
  9
$DIMSCALE
 40
1.0
  9
$DIMASZ
 40
0.7580420254
  9
$DIMEXO
 40
1.0
  9
$DIMDLI
 40
4.055828053
  9
$DIMEXE
 40
1.0
  9
$DIMCEN
 40
0.9605908546
  9
$DIMLFAC
 40
1.0
  9
$DIMBLK
  1
_FILLED
  9
$DIMALT
 70
0
  9
$DIMALTF
 40
0.0393700787
  9
$DIMTXT
 40
1.0612588356
  9
$DIMTOL
 70
1
  9
$DIMLIM
 70
0
  9
$DIMTFAC
 40
1.0
  9
$DIMTP
 40
0.01
  9
$DIMTM
 40
0.01
  9
$DIMGAP
 40
0.625
  9
$DIMDSEP
 70
46
  9
$AUNITS
 70
0
  9
$PDMODE
 70
3
  9
$PDSIZE
 40
0.3125
  9
$HANDSEED
  5
2A6
  9
$TILEMODE
 70
1
  9
$MEASUREMENT
 70
1
  9
$INSUNITS
 70
4
  0
ENDSEC
  0
SECTION
  2
CLASSES
  0
CLASS
  1
ACDBDICTIONARYWDFLT
  2
AcDbDictionaryWithDefault
  3
AutoCAD 2000
 90
0
 91
1
280
0
281
0
  0
CLASS
  1
ACDBPLACEHOLDER
  2
AcDbPlaceHolder
  3
AutoCAD 2000
 90
0
 91
1
280
0
281
0
  0
CLASS
  1
LAYOUT
  2
AcDbLayout
  3
AutoCAD 2000
 90
0
 91
0
280
0
281
0
  0
ENDSEC
  0
SECTION
  2
TABLES
  0
TABLE
  2
VPORT
  5
8
100
AcDbSymbolTable
 70
2
  0
VPORT
  5
1F4
100
AcDbSymbolTableRecord
100
AcDbViewportTableRecord
  2
*ACTIVE
 70
0
 10
0.0
 20
0.0
 11
1.0
 21
1.0
 12
31.8377650689
 22
45.0276963117
 13
0.0
 23
0.0
 14
1.0
 24
1.0
 15
0.0
 25
0.0
 16
0.0
 26
0.0
 36
1.0
 17
0.0
 27
0.0
 37
0.0
 40
90.0553926234
 41
0.7070707071
 42
50.0
 43
0.0
 44
0.0
 50
0.0
 51
0.0
 71
0
 72
100
 73
1
 74
1
 75
0
 76
0
 77
0
 78
0
  0
ENDTAB
  0
TABLE
  2
LTYPE
  5
5
100
AcDbSymbolTable
 70
6
  0
LTYPE
  5
14
100
AcDbSymbolTableRecord
100
AcDbLinetypeTableRecord
  2
BYBLOCK
 70
0
  3

 72
65
 73
0
 40
0.0
  0
LTYPE
  5
15
100
AcDbSymbolTableRecord
100
AcDbLinetypeTableRecord
  2
BYLAYER
 70
0
  3

 72
65
 73
0
 40
0.0
  0
LTYPE
  5
16
100
AcDbSymbolTableRecord
100
AcDbLinetypeTableRecord
  2
CONTINUOUS
 70
64
  3
Solid line
 72
65
 73
0
 40
0.0
  0
LTYPE
  5
1F5
100
AcDbSymbolTableRecord
100
AcDbLinetypeTableRecord
  2
CENTER
 70
64
  3
____ _ ____ _ ____ _ ____ _ ____ _ ____ _ ____
 72
65
 73
4
 40
0.6
 49
0.375
 74
0
 49
-0.075
 74
0
 49
0.075
 74
0
 49
-0.075
 74
0
  0
LTYPE
  5
1F6
100
AcDbSymbolTableRecord
100
AcDbLinetypeTableRecord
  2
HIDDEN
 70
64
  3
- - - - - - - - - - - - - - - - - - - -
 72
65
 73
2
 40
0.2
 49
0.1
 74
0
 49
-0.1
 74
0
  0
LTYPE
  5
1F7
100
AcDbSymbolTableRecord
100
AcDbLinetypeTableRecord
  2
PHANTOM
 70
64
  3
_____ _ _ _____ _ _ _____ _ _ _____
 72
65
 73
6
 40
0.8
 49
0.45
 74
0
 49
-0.05
 74
0
 49
0.1
 74
0
 49
-0.05
 74
0
 49
0.1
 74
0
 49
-0.05
 74
0
  0
LTYPE
  5
1F8
100
AcDbSymbolTableRecord
100
AcDbLinetypeTableRecord
  2
DOT
 70
64
  3
. . . . . . . . . . . . . . . . . . . .
 72
65
 73
2
 40
0.2
 49
0.1
 74
0
 49
-0.1
 74
0
  0
LTYPE
  5
1F9
100
AcDbSymbolTableRecord
100
AcDbLinetypeTableRecord
  2
DASHED
 70
64
  3
- - - - - - - - - - - - - - - - - - - -
 72
65
 73
2
 40
0.2
 49
0.1
 74
0
 49
-0.1
 74
0
  0
ENDTAB
  0
TABLE
  2
LAYER
  5
2
100
AcDbSymbolTable
 70
36
  0
LAYER
  5
10
100
AcDbSymbolTableRecord
100
AcDbLayerTableRecord
  2
0
 70
0
 62
7
  6
CONTINUOUS
370
-3
390
F
  0
LAYER
  5
1FA
100
AcDbSymbolTableRecord
100
AcDbLayerTableRecord
  2
DEFAULT_1
 70
0
 62
7
  6
CENTER
370
-3
390
F
  0
LAYER
  5
1FB
100
AcDbSymbolTableRecord
100
AcDbLayerTableRecord
  2
DEFAULT_2
 70
0
 62
7
  6
HIDDEN
370
-3
390
F
  0
LAYER
  5
1FC
100
AcDbSymbolTableRecord
100
AcDbLayerTableRecord
  2
DEFAULT_3
 70
0
 62
7
  6
PHANTOM
370
-3
390
F
  0
LAYER
  5
1FD
100
AcDbSymbolTableRecord
100
AcDbLayerTableRecord
  2
00_COMPONENTS
 70
0
 62
7
  6
CONTINUOUS
370
-3
390
F
  0
LAYER
  5
1FE
100
AcDbSymbolTableRecord
100
AcDbLayerTableRecord
  2
01_1_DEFAULT_DATUMS
 70
0
 62
7
  6
CONTINUOUS
370
-3
390
F
  0
LAYER
  5
1FF
100
AcDbSymbolTableRecord
100
AcDbLayerTableRecord
  2
01_PLANES
 70
0
 62
7
  6
CONTINUOUS
370
-3
390
F
  0
LAYER
  5
200
100
AcDbSymbolTableRecord
100
AcDbLayerTableRecord
  2
02_COORD_SYS
 70
0
 62
7
  6
CONTINUOUS
370
-3
390
F
  0
LAYER
  5
201
100
AcDbSymbolTableRecord
100
AcDbLayerTableRecord
  2
03_AXES
 70
0
 62
7
  6
CONTINUOUS
370
-3
390
F
  0
LAYER
  5
202
100
AcDbSymbolTableRecord
100
AcDbLayerTableRecord
  2
04_POINTS
 70
0
 62
7
  6
CONTINUOUS
370
-3
390
F
  0
LAYER
  5
203
100
AcDbSymbolTableRecord
100
AcDbLayerTableRecord
  2
05_CURVES
 70
0
 62
7
  6
CONTINUOUS
370
-3
390
F
  0
LAYER
  5
204
100
AcDbSymbolTableRecord
100
AcDbLayerTableRecord
  2
06_SURFS
 70
0
 62
7
  6
CONTINUOUS
370
-3
390
F
  0
LAYER
  5
205
100
AcDbSymbolTableRecord
100
AcDbLayerTableRecord
  2
07_COSMETICS
 70
0
 62
7
  6
CONTINUOUS
370
-3
390
F
  0
LAYER
  5
206
100
AcDbSymbolTableRecord
100
AcDbLayerTableRecord
  2
10_NOTES
 70
0
 62
7
  6
CONTINUOUS
370
-3
390
F
  0
LAYER
  5
207
100
AcDbSymbolTableRecord
100
AcDbLayerTableRecord
  2
11_NOTES_PUB
 70
0
 62
7
  6
CONTINUOUS
370
-3
390
F
  0
LAYER
  5
208
100
AcDbSymbolTableRecord
100
AcDbLayerTableRecord
  2
13_REF_GTOL
 70
0
 62
7
  6
CONTINUOUS
370
-3
390
F
  0
LAYER
  5
209
100
AcDbSymbolTableRecord
100
AcDbLayerTableRecord
  2
16_MISC
 70
0
 62
7
  6
CONTINUOUS
370
-3
390
F
  0
LAYER
  5
20A
100
AcDbSymbolTableRecord
100
AcDbLayerTableRecord
  2
17_NO_PRINT
 70
0
 62
7
  6
CONTINUOUS
370
-3
390
F
  0
LAYER
  5
20B
100
AcDbSymbolTableRecord
100
AcDbLayerTableRecord
  2
18_DATUM_CAMS_JOINTS
 70
0
 62
7
  6
CONTINUOUS
370
-3
390
F
  0
LAYER
  5
20C
100
AcDbSymbolTableRecord
100
AcDbLayerTableRecord
  2
19_DATUM_FUNCTIONAL
 70
0
 62
7
  6
CONTINUOUS
370
-3
390
F
  0
LAYER
  5
20D
100
AcDbSymbolTableRecord
100
AcDbLayerTableRecord
  2
20_DATUM_KINEMATIC_SCHEME
 70
0
 62
7
  6
CONTINUOUS
370
-3
390
F
  0
ENDTAB
  0
TABLE
  2
STYLE
  5
3
100
AcDbSymbolTable
 70
1
  0
STYLE
  5
11
100
AcDbSymbolTableRecord
100
AcDbTextStyleTableRecord
  2
STANDARD
 70
0
 40
0.0
 41
1.0
 50
0.0
 71
0
 42
0.2
  3
ARIAL.TTF
  4

  0
STYLE
  5
20E
100
AcDbSymbolTableRecord
100
AcDbTextStyleTableRecord
  2
TEXTSTYLE_1
 70
0
 40
0.0
 41
0.8
 50
0.0
 71
0
 42
0.2
  3
gdt
  4

  0
ENDTAB
  0
TABLE
  2
VIEW
  5
6
100
AcDbSymbolTable
 70
0
  0
ENDTAB
  0
TABLE
  2
UCS
  5
7
100
AcDbSymbolTable
 70
0
  0
ENDTAB
  0
TABLE
  2
APPID
  5
9
100
AcDbSymbolTable
 70
1
  0
APPID
  5
20F
100
AcDbSymbolTableRecord
100
AcDbRegAppTableRecord
  2
ACAD
 70
0
  0
ENDTAB
  0
TABLE
  2
BLOCK_RECORD
  5
1
100
AcDbSymbolTable
 70
0
  0
BLOCK_RECORD
  5
210
100
AcDbSymbolTableRecord
100
AcDbBlockTableRecord
  2
*Model_Space
  0
BLOCK_RECORD
  5
211
100
AcDbSymbolTableRecord
100
AcDbBlockTableRecord
  2
*Paper_Space
  0
BLOCK_RECORD
  5
212
100
AcDbSymbolTableRecord
100
AcDbBlockTableRecord
  2
_FILLED
  0
ENDTAB
  0
TABLE
  2
DIMSTYLE
  5
A
100
AcDbSymbolTable
 70
1
100
AcDbDimStyleTable
 71
0
  0
DIMSTYLE
105
213
100
AcDbSymbolTableRecord
100
AcDbDimStyleTableRecord
  2
STANDARD
 70
0
  3

  4

 40
1.0
 41
0.7580420254
 42
1.0
 43
0.38
 44
1.0
 45
0.0
 46
0.0
 47
0.01
 48
0.01
140
1.0612588356
141
0.09
142
0.0
143
25.4
144
1.0
145
0.0
146
1.0
147
0.625
 71
1
 72
0
 73
0
 74
0
 75
0
 76
0
 77
1
 78
8
 79
2
170
0
171
1
172
0
173
0
174
0
175
0
176
0
177
0
178
0
270
2
179
2
271
2
272
2
273
2
274
2
275
0
280
0
281
0
282
0
283
1
284
8
285
0
286
0
287
3
288
0
340
11
278
46
341
212
342
212
343
212
344
212
  0
ENDTAB
  0
ENDSEC
  0
SECTION
  2
BLOCKS
  0
BLOCK
  5
20
100
AcDbEntity
  8
0
100
AcDbBlockBegin
  2
*Model_Space
 70
0
 10
0.0
 20
0.0
 30
0.0
  3
*Model_Space
  1

  0
ENDBLK
  5
21
100
AcDbEntity
  8
0
100
AcDbBlockEnd
  0
BLOCK
  5
1C
100
AcDbEntity
  8
0
100
AcDbBlockBegin
  2
*Paper_Space
 70
0
 10
0.0
 20
0.0
 30
0.0
  3
*Paper_Space
  1

  0
ENDBLK
  5
1D
100
AcDbEntity
  8
0
100
AcDbBlockEnd
  0
BLOCK
  5
214
100
AcDbEntity
  8
0
100
AcDbBlockBegin
  2
_FILLED
 70
64
 10
0.0
 20
0.0
  3
_FILLED
  1

  0
SOLID
  5
215
100
AcDbEntity
  8
0
  6
BYBLOCK
 62
0
100
AcDbTrace
 10
0.0
 20
0.0
 11
-1.0
 21
0.25
 12
-1.0
 22
-0.25
 13
-1.0
 23
-0.25
  0
ENDBLK
  5
216
100
AcDbEntity
  8
0
  6
BYBLOCK
 62
0
100
AcDbBlockEnd
  0
ENDSEC
  0
SECTION
  2
ENTITIES
  0
LINE
  5
217
100
AcDbEntity
  8
0
100
AcDbLine
 62
7
  6
BYLAYER
 10
19.4013197039
 20
66.473644471
 11
17.6335601109
 21
65.4530340864
  0
LINE
  5
218
100
AcDbEntity
  8
0
100
AcDbLine
 62
7
  6
BYLAYER
 10
21.1690940168
 20
65.4530425847
 11
19.4013344238
 21
64.4324322001
  0
LINE
  5
219
100
AcDbEntity
  8
0
100
AcDbLine
 62
7
  6
BYLAYER
 10
25.7758591184
 20
65.1610482475
 11
22.9584440977
 21
63.5344226365
  0
LINE
  5
21A
100
AcDbEntity
  8
0
100
AcDbLine
 62
7
  6
BYLAYER
 10
26.2836847549
 20
23.3210274389
 11
30.0892979194
 21
21.1239053595
  0
LINE
  5
21B
100
AcDbEntity
  8
0
100
AcDbLine
 62
7
  6
BYLAYER
 10
30.6549856995
 20
22.2541249633
 11
27.5329029304
 21
24.0566195126
  0
LINE
  5
21C
100
AcDbEntity
  8
0
100
AcDbLine
 62
7
  6
BYLAYER
 10
26.2355145897
 20
60.1600792883
 11
21.851470799
 21
57.6289655343
  0
LINE
  5
21D
100
AcDbEntity
  8
0
100
AcDbLine
 62
7
  6
BYLAYER
 10
17.6335601109
 20
65.4530340864
 11
17.6335601109
 21
50.406665172
  0
LINE
  5
21E
100
AcDbEntity
  8
0
100
AcDbLine
 62
7
  6
BYLAYER
 10
19.6417483564
 20
53.7723607001
 11
21.851470799
 21
55.048175768
  0
LINE
  5
21F
100
AcDbEntity
  8
0
100
AcDbLine
 62
7
  6
BYLAYER
 10
32.7763148749
 20
27.3981215534
 11
35.6860713939
 21
25.7182108485
  0
LINE
  5
220
100
AcDbEntity
  8
0
100
AcDbLine
 62
7
  6
BYLAYER
 10
19.4013344238
 20
50.4650552375
 11
19.4013344238
 21
64.4324322001
  0
LINE
  5
221
100
AcDbEntity
  8
0
100
AcDbLine
 62
7
  6
BYLAYER
 10
19.6417483564
 20
50.4865352315
 11
19.6417483564
 21
53.7723607001
  0
LINE
  5
222
100
AcDbEntity
  8
0
100
AcDbLine
 62
7
  6
BYLAYER
 10
47.4336488963
 20
69.051145665
 11
43.2859148402
 21
66.6564645855
  0
LINE
  5
223
100
AcDbEntity
  8
0
100
AcDbLine
 62
7
  6
BYLAYER
 10
12.8527431091
 20
48.4755604368
 11
10.6295915083
 21
47.1920309232
  0
LINE
  5
224
100
AcDbEntity
  8
0
100
AcDbLine
 62
7
  6
BYLAYER
 10
15.3338245523
 20
49.8936449966
 11
12.9679332135
 21
48.5277051487
  0
LINE
  5
225
100
AcDbEntity
  8
0
100
AcDbLine
 62
7
  6
BYLAYER
 10
35.427891558
 20
61.3031715015
 11
43.9930245654
 21
66.248223831
  0
LINE
  5
226
100
AcDbEntity
  8
0
100
AcDbLine
 62
7
  6
BYLAYER
 10
48.3631795756
 20
68.3769893622
 11
44.8938944775
 21
66.3933737196
  0
LINE
  5
227
100
AcDbEntity
  8
0
100
AcDbLine
 62
7
  6
BYLAYER
 10
34.2981242177
 20
31.6603687026
 11
33.2361810181
 21
31.6509357212
  0
LINE
  5
228
100
AcDbEntity
  8
0
100
AcDbLine
 62
7
  6
BYLAYER
 10
36.251759174
 20
27.4328742877
 11
33.6955575176
 21
28.9086646153
  0
LINE
  5
229
100
AcDbEntity
  8
0
100
AcDbLine
 62
7
  6
BYLAYER
 10
40.8373098062
 20
26.663222221
 11
40.1930699744
 21
27.0351658469
  0
LINE
  5
22A
100
AcDbEntity
  8
0
100
AcDbLine
 62
7
  6
BYLAYER
 10
36.0820540176
 20
29.4088111299
 11
33.8988980354
 21
30.6692283095
  0
LINE
  5
22B
100
AcDbEntity
  8
0
100
AcDbLine
 62
7
  6
BYLAYER
 10
21.851470799
 20
55.048175768
 11
21.851470799
 21
57.6289655343
  0
LINE
  5
22C
100
AcDbEntity
  8
0
100
AcDbLine
 62
7
  6
BYLAYER
 10
22.6741966674
 20
49.7776935021
 11
23.2617690163
 21
50.7722463349
  0
LINE
  5
22D
100
AcDbEntity
  8
0
100
AcDbLine
 62
7
  6
BYLAYER
 10
50.2155901467
 20
36.527627843
 11
47.2107006636
 21
36.1946492924
  0
LINE
  5
22E
100
AcDbEntity
  8
0
100
AcDbLine
 62
7
  6
BYLAYER
 10
45.2921010747
 20
25.3160590933
 11
41.2537528909
 21
27.6475477589
  0
LINE
  5
22F
100
AcDbEntity
  8
0
100
AcDbLine
 62
7
  6
BYLAYER
 10
42.8172376444
 20
27.8064161569
 11
42.1195937687
 21
28.2091919243
  0
LINE
  5
230
100
AcDbEntity
  8
0
100
AcDbLine
 62
7
  6
BYLAYER
 10
23.6439574471
 20
58.6638520057
 11
23.6439574471
 21
62.7993850376
  0
LINE
  5
231
100
AcDbEntity
  8
0
100
AcDbLine
 62
7
  6
BYLAYER
 10
43.2859148402
 20
66.6564645855
 11
41.143049288
 21
64.6027996592
  0
LINE
  5
232
100
AcDbEntity
  8
0
100
AcDbLine
 62
7
  6
BYLAYER
 10
24.9503947041
 20
49.9753176519
 11
24.4867626389
 21
49.707641152
  0
LINE
  5
233
100
AcDbEntity
  8
0
100
AcDbLine
 62
7
  6
BYLAYER
 10
49.5084804215
 20
63.0639459457
 11
40.9433474141
 21
58.1188936163
  0
LINE
  5
234
100
AcDbEntity
  8
0
100
AcDbLine
 62
7
  6
BYLAYER
 10
49.3352672453
 20
63.8124919361
 11
52.857836294
 21
65.8265734743
  0
LINE
  5
235
100
AcDbEntity
  8
0
100
AcDbLine
 62
7
  6
BYLAYER
 10
44.1736932388
 20
28.5895614847
 11
45.2921010747
 21
27.9438630273
  0
LINE
  5
236
100
AcDbEntity
  8
0
100
AcDbLine
 62
7
  6
BYLAYER
 10
45.2921010747
 20
27.9438630273
 11
44.2314453189
 21
28.6229044647
  0
LINE
  5
237
100
AcDbEntity
  8
0
100
AcDbLine
 62
7
  6
BYLAYER
 10
50.2155901467
 20
62.6557051912
 11
54.3633242028
 21
65.0503862707
  0
LINE
  5
238
100
AcDbEntity
  8
0
100
AcDbLine
 62
7
  6
BYLAYER
 10
38.3730736296
 20
55.5205450273
 11
36.6053140366
 21
54.4999346426
  0
LINE
  5
239
100
AcDbEntity
  8
0
100
AcDbLine
 62
7
  6
BYLAYER
 10
32.8466704946
 20
51.2810276398
 11
36.6053140366
 21
53.4510685472
  0
LINE
  5
23A
100
AcDbEntity
  8
0
100
AcDbLine
 62
7
  6
BYLAYER
 10
38.3730883495
 20
53.4793327563
 11
40.1408479425
 21
54.499943141
  0
LINE
  5
23B
100
AcDbEntity
  8
0
100
AcDbLine
 62
7
  6
BYLAYER
 10
46.5648879817
 20
36.2163536635
 11
49.7468552491
 21
35.2365190168
  0
LINE
  5
23C
100
AcDbEntity
  8
0
100
AcDbLine
 62
7
  6
BYLAYER
 10
49.0892432047
 20
35.6161829185
 11
46.9679316931
 21
36.2694060163
  0
LINE
  5
23D
100
AcDbEntity
  8
0
100
AcDbLine
 62
7
  6
BYLAYER
 10
31.0085405621
 20
26.6490651142
 11
31.0085405621
 21
22.4582557946
  0
LINE
  5
23E
100
AcDbEntity
  8
0
100
AcDbLine
 62
7
  6
BYLAYER
 10
49.5084804215
 20
63.0639459457
 11
41.9519626521
 21
55.8219817957
  0
LINE
  5
23F
100
AcDbEntity
  8
0
100
AcDbLine
 62
7
  6
BYLAYER
 10
42.6590723772
 20
55.4137410412
 11
50.2155901467
 21
62.6557051912
  0
LINE
  5
240
100
AcDbEntity
  8
0
100
AcDbLine
 62
7
  6
BYLAYER
 10
46.5648879817
 20
36.5020981474
 11
46.9679316931
 21
36.2694060163
  0
LINE
  5
241
100
AcDbEntity
  8
0
100
AcDbLine
 62
7
  6
BYLAYER
 10
49.7468552491
 20
35.2365190168
 11
49.0892432047
 21
35.6161829185
  0
LWPOLYLINE
  5
242
100
AcDbEntity
  8
0
100
AcDbPolyline
 62
7
  6
BYLAYER
 90
9
 70
0
 10
33.1122293827
 20
32.6340594497
 10
32.6863203356
 20
36.1449690895
 10
31.4474198684
 20
39.833762879
 10
29.4875153612
 20
43.4023060107
 10
26.9942991421
 20
46.4956401438
 10
24.2194171987
 20
48.8221863855
 10
22.7903683617
 20
49.6457949092
 10
20.0030633069
 20
50.5188172332
 10
19.023850985
 20
50.431328648
  0
LWPOLYLINE
  5
243
100
AcDbEntity
  8
0
100
AcDbPolyline
 62
7
  6
BYLAYER
 90
9
 70
0
 10
34.4202394812
 20
35.5938874175
 10
34.3155856397
 20
37.1142470461
 10
33.4933154266
 20
40.3553650787
 10
31.9359531236
 20
43.5637312458
 10
29.805365929
 20
46.3967872209
 10
27.348731648
 20
48.527113086
 10
26.0811865294
 20
49.2559389623
 10
23.6361735659
 20
49.9486140508
 10
22.479627631
 20
49.7431231849
  0
LINE
  5
244
100
AcDbEntity
  8
0
100
AcDbLine
 62
7
  6
BYLAYER
 10
32.7763148749
 20
22.6752996774
 11
32.7763148749
 21
27.3981215534
  0
LINE
  5
245
100
AcDbEntity
  8
0
100
AcDbLine
 62
7
  6
BYLAYER
 10
48.3631795756
 20
68.3769893622
 11
46.4273111188
 21
65.5023052858
  0
LINE
  5
246
100
AcDbEntity
  8
0
100
AcDbLine
 62
7
  6
BYLAYER
 10
42.8172376444
 20
50.5868335948
 11
46.9184399003
 21
52.9546496873
  0
LINE
  5
247
100
AcDbEntity
  8
0
100
AcDbLine
 62
7
  6
BYLAYER
 10
36.6053140366
 20
45.9412553197
 11
36.0820540176
 21
45.6391528101
  0
LINE
  5
248
100
AcDbEntity
  8
0
100
AcDbLine
 62
7
  6
BYLAYER
 10
35.427891558
 20
59.5885707865
 11
35.427891558
 21
61.3031715015
  0
LINE
  5
249
100
AcDbEntity
  8
0
100
AcDbLine
 62
7
  6
BYLAYER
 10
36.0820540176
 20
45.6391528101
 11
36.0820540176
 21
29.4088111299
  0
LINE
  5
24A
100
AcDbEntity
  8
0
100
AcDbLine
 62
7
  6
BYLAYER
 10
36.6053140366
 20
54.4999346426
 11
36.6053140366
 21
27.637005119
  0
LINE
  5
24B
100
AcDbEntity
  8
0
100
AcDbLine
 62
7
  6
BYLAYER
 10
37.0189378982
 20
25.1247646007
 11
37.0189378982
 21
25.4196860284
  0
LINE
  5
24C
100
AcDbEntity
  8
0
100
AcDbLine
 62
7
  6
BYLAYER
 10
32.8466704946
 20
51.2810276398
 11
36.0820540176
 21
45.6391528101
  0
LINE
  5
24D
100
AcDbEntity
  8
0
100
AcDbLine
 62
7
  6
BYLAYER
 10
38.3730883495
 20
27.2696051664
 11
38.3730883495
 21
53.4793327563
  0
LINE
  5
24E
100
AcDbEntity
  8
0
100
AcDbLine
 62
7
  6
BYLAYER
 10
46.9184399003
 20
47.8106844594
 11
47.6255437375
 21
48.2189286133
  0
LINE
  5
24F
100
AcDbEntity
  8
0
100
AcDbLine
 62
7
  6
BYLAYER
 10
21.851470799
 20
57.6289655343
 11
32.8466704946
 21
51.2810276398
  0
LINE
  5
250
100
AcDbEntity
  8
0
100
AcDbLine
 62
7
  6
BYLAYER
 10
21.1690940168
 20
65.4530425847
 11
23.6439574471
 21
62.7993850376
  0
LINE
  5
251
100
AcDbEntity
  8
0
100
AcDbLine
 62
7
  6
BYLAYER
 10
40.8373098062
 20
27.407115667
 11
40.8373098062
 21
26.663222221
  0
LINE
  5
252
100
AcDbEntity
  8
0
100
AcDbLine
 62
7
  6
BYLAYER
 10
40.9433474141
 20
58.1188936163
 11
40.9433474141
 21
56.4042929012
  0
LINE
  5
253
100
AcDbEntity
  8
0
100
AcDbLine
 62
7
  6
BYLAYER
 10
42.6157113728
 20
29.7190700897
 11
42.6157113728
 21
51.8462855939
  0
LINE
  5
254
100
AcDbEntity
  8
0
100
AcDbLine
 62
7
  6
BYLAYER
 10
42.8172376444
 20
27.8064161569
 11
42.8172376444
 21
50.5868335948
  0
LWPOLYLINE
  5
255
100
AcDbEntity
  8
0
100
AcDbPolyline
 62
7
  6
BYLAYER
 90
4
 70
0
 10
32.931223391
 20
31.3554685943
 10
33.4887995635
 20
31.8956925963
 10
34.3142744074
 20
34.186072502
 10
34.4202394812
 20
35.5938874175
  0
LINE
  5
256
100
AcDbEntity
  8
0
100
AcDbLine
 62
7
  6
BYLAYER
 10
34.4503521741
 20
33.5208104253
 11
33.9757521954
 21
33.2468016355
  0
LINE
  5
257
100
AcDbEntity
  8
0
100
AcDbLine
 62
7
  6
BYLAYER
 10
23.6439574471
 20
61.6562816537
 11
26.2355145897
 21
60.1600792883
  0
LINE
  5
258
100
AcDbEntity
  8
0
100
AcDbLine
 62
7
  6
BYLAYER
 10
42.6157113728
 20
50.7031822099
 11
42.8172376444
 21
50.5868335948
  0
LINE
  5
259
100
AcDbEntity
  8
0
100
AcDbLine
 62
7
  6
BYLAYER
 10
38.3730883495
 20
53.4793327563
 11
36.6053140366
 21
54.4999346426
  0
LINE
  5
25A
100
AcDbEntity
  8
0
100
AcDbLine
 62
7
  6
BYLAYER
 10
19.4013344238
 20
64.4324322001
 11
17.6335601109
 21
65.4530340864
  0
LINE
  5
25B
100
AcDbEntity
  8
0
100
AcDbLine
 62
7
  6
BYLAYER
 10
46.9184399003
 20
48.6271659685
 11
47.6255437375
 21
48.2189286133
  0
LINE
  5
25C
100
AcDbEntity
  8
0
100
AcDbLine
 62
7
  6
BYLAYER
 10
45.2921010747
 20
25.3160590933
 11
45.2921010747
 21
27.9438630273
  0
LINE
  5
25D
100
AcDbEntity
  8
0
100
AcDbLine
 62
7
  6
BYLAYER
 10
46.5648879817
 20
41.8653735272
 11
46.5648879817
 21
36.2163536635
  0
LINE
  5
25E
100
AcDbEntity
  8
0
100
AcDbLine
 62
7
  6
BYLAYER
 10
47.6255437375
 20
43.0588827419
 11
46.5648879817
 21
41.8653735272
  0
LINE
  5
25F
100
AcDbEntity
  8
0
100
AcDbLine
 62
7
  6
BYLAYER
 10
33.8988980354
 20
30.6692283095
 11
33.7117955328
 21
30.554258498
  0
LINE
  5
260
100
AcDbEntity
  8
0
100
AcDbLine
 62
7
  6
BYLAYER
 10
32.6841018124
 20
29.6098501902
 11
33.4926152331
 21
30.0766428449
  0
LINE
  5
261
100
AcDbEntity
  8
0
100
AcDbLine
 62
7
  6
BYLAYER
 10
19.4013197039
 20
66.473644471
 11
21.1690940168
 21
65.4530425847
  0
LINE
  5
262
100
AcDbEntity
  8
0
100
AcDbLine
 62
7
  6
BYLAYER
 10
38.3730736296
 20
55.5205450273
 11
40.1408479425
 21
54.499943141
  0
LINE
  5
263
100
AcDbEntity
  8
0
100
AcDbLine
 62
7
  6
BYLAYER
 10
46.9184399003
 20
52.9546496873
 11
25.7758591184
 21
65.1610482475
  0
LINE
  5
264
100
AcDbEntity
  8
0
100
AcDbLine
 62
7
  6
BYLAYER
 10
40.1408479425
 20
54.499943141
 11
42.6157113728
 21
51.8462855939
  0
LINE
  5
265
100
AcDbEntity
  8
0
100
AcDbLine
 62
7
  6
BYLAYER
 10
46.9184399003
 20
52.9546496873
 11
46.9184399003
 21
47.8106844594
  0
LINE
  5
266
100
AcDbEntity
  8
0
100
AcDbLine
 62
7
  6
BYLAYER
 10
47.6255437375
 20
48.2189286133
 11
47.6255437375
 21
43.0588827419
  0
LINE
  5
267
100
AcDbEntity
  8
0
100
AcDbLine
 62
7
  6
BYLAYER
 10
35.3219416111
 20
29.8476523045
 11
33.6955575176
 21
28.9086646153
  0
LINE
  5
268
100
AcDbEntity
  8
0
100
AcDbLine
 62
7
  6
BYLAYER
 10
36.0820540176
 20
29.4088111299
 11
36.6053140366
 21
29.7109136395
  0
LINE
  5
269
100
AcDbEntity
  8
0
100
AcDbLine
 62
7
  6
BYLAYER
 10
29.5712936633
 20
25.233477926
 11
27.1627788908
 21
23.8429295742
  0
LINE
  5
26A
100
AcDbEntity
  8
0
100
AcDbLine
 62
7
  6
BYLAYER
 10
27.1026482461
 20
23.7938534087
 11
24.8794966453
 21
22.5103238951
  0
LINE
  5
26B
100
AcDbEntity
  8
0
100
AcDbLine
 62
7
  6
BYLAYER
 10
54.3633242028
 20
38.9223089226
 11
50.2155901467
 21
36.527627843
  0
LINE
  5
26C
100
AcDbEntity
  8
0
100
AcDbLine
 62
7
  6
BYLAYER
 10
54.3633242028
 20
65.0503862707
 11
57.2774519417
 21
65.5080950366
  0
LINE
  5
26D
100
AcDbEntity
  8
0
100
AcDbLine
 62
7
  6
BYLAYER
 10
40.9433474141
 20
58.1188936163
 11
35.427891558
 21
61.3031715015
  0
LINE
  5
26E
100
AcDbEntity
  8
0
100
AcDbLine
 62
7
  6
BYLAYER
 10
49.7468552491
 20
35.2365190168
 11
49.7468552491
 21
28.524869148
  0
LINE
  5
26F
100
AcDbEntity
  8
0
100
AcDbLine
 62
7
  6
BYLAYER
 10
36.251759174
 20
27.4328742877
 11
36.6053170914
 21
27.636999828
  0
LINE
  5
270
100
AcDbEntity
  8
0
100
AcDbLine
 62
7
  6
BYLAYER
 10
38.3730883495
 20
27.2696051664
 11
42.6157113728
 21
29.7190700897
  0
LINE
  5
271
100
AcDbEntity
  8
0
100
AcDbLine
 62
7
  6
BYLAYER
 10
57.2774519417
 20
41.8295249398
 11
54.3633242028
 21
38.9223089226
  0
LINE
  5
272
100
AcDbEntity
  8
0
100
AcDbLine
 62
7
  6
BYLAYER
 10
41.82868094
 20
27.9794921196
 11
42.1195937687
 21
28.2091919243
  0
LINE
  5
273
100
AcDbEntity
  8
0
100
AcDbLine
 62
7
  6
BYLAYER
 10
30.6549856995
 20
22.2541249633
 11
31.0085436168
 21
22.4582505036
  0
LINE
  5
274
100
AcDbEntity
  8
0
100
AcDbLine
 62
7
  6
BYLAYER
 10
37.5860628878
 20
25.5300185883
 11
41.8286859111
 21
27.9794835115
  0
LINE
  5
275
100
AcDbEntity
  8
0
100
AcDbLine
 62
7
  6
BYLAYER
 10
32.7763148749
 20
22.6752996774
 11
37.0189378982
 21
25.1247646007
  0
LINE
  5
276
100
AcDbEntity
  8
0
100
AcDbLine
 62
7
  6
BYLAYER
 10
44.2314453189
 20
28.6229044647
 11
42.8172376444
 21
27.8064161569
  0
LINE
  5
277
100
AcDbEntity
  8
0
100
AcDbLine
 62
7
  6
BYLAYER
 10
41.8979927228
 20
27.275604133
 11
40.8373098062
 21
26.663222221
  0
LINE
  5
278
100
AcDbEntity
  8
0
100
AcDbLine
 62
7
  6
BYLAYER
 10
31.9892894133
 20
20.9357130993
 11
36.2319124366
 21
23.3851780225
  0
LINE
  5
279
100
AcDbEntity
  8
0
100
AcDbLine
 62
7
  6
BYLAYER
 10
49.7468552491
 20
28.524869148
 11
49.4284229083
 21
27.7041513624
  0
LINE
  5
27A
100
AcDbEntity
  8
0
100
AcDbLine
 62
7
  6
BYLAYER
 10
50.3477766353
 20
69.5088544309
 11
47.4336488963
 21
69.051145665
  0
LINE
  5
27B
100
AcDbEntity
  8
0
100
AcDbLine
 62
7
  6
BYLAYER
 10
57.2774519417
 20
65.5080950366
 11
57.2774519417
 21
41.8295249398
  0
LINE
  5
27C
100
AcDbEntity
  8
0
100
AcDbLine
 62
7
  6
BYLAYER
 10
49.4284229083
 20
27.7041513624
 11
45.2921010747
 21
25.3160590933
  0
LINE
  5
27D
100
AcDbEntity
  8
0
100
AcDbLine
 62
7
  6
BYLAYER
 10
50.2155901467
 20
62.6557051912
 11
49.5084804215
 21
63.0639459457
  0
LINE
  5
27E
100
AcDbEntity
  8
0
100
AcDbLine
 62
7
  6
BYLAYER
 10
43.9930245654
 20
66.248223831
 11
43.2859148402
 21
66.6564645855
  0
LINE
  5
27F
100
AcDbEntity
  8
0
100
AcDbLine
 62
7
  6
BYLAYER
 10
44.8938944775
 20
66.3933737196
 11
49.3352672453
 21
63.8124919361
  0
LINE
  5
280
100
AcDbEntity
  8
0
100
AcDbLine
 62
7
  6
BYLAYER
 10
52.857836294
 20
65.8265734743
 11
48.3631795756
 21
68.3769893622
  0
LINE
  5
281
100
AcDbEntity
  8
0
100
AcDbLine
 62
7
  6
BYLAYER
 10
47.4336488963
 20
69.051145665
 11
54.3633242028
 21
65.0503862707
  0
LINE
  5
282
100
AcDbEntity
  8
0
100
AcDbLine
 62
7
  6
BYLAYER
 10
57.2774519417
 20
65.5080950366
 11
50.3477766353
 21
69.5088544309
  0
ARC
  5
283
100
AcDbEntity
  8
0
100
AcDbCircle
 62
7
  6
BYLAYER
 10
21.06586273
 20
40.2612446802
 40
13.680477327
100
AcDbArc
 50
180.0037729308
 51
180.9956268621
  0
ARC
  5
284
100
AcDbEntity
  8
0
100
AcDbCircle
 62
7
  6
BYLAYER
 10
33.8709367469
 20
36.4827505786
 40
6.6045229906
100
AcDbArc
 50
260.3498685484
 51
264.3450038908
  0
ARC
  5
285
100
AcDbEntity
  8
0
100
AcDbCircle
 62
7
  6
BYLAYER
 10
24.7276189226
 20
27.9079898771
 40
4.7504459112
100
AcDbArc
 50
299.9971958466
 51
300.9220360219
  0
ARC
  5
286
100
AcDbEntity
  8
0
100
AcDbCircle
 62
7
  6
BYLAYER
 10
31.7293267677
 20
33.9958789669
 40
3.9719167351
100
AcDbArc
 50
285.9318188109
 51
299.9431368244
  0
ARC
  5
287
100
AcDbEntity
  8
0
100
AcDbCircle
 62
7
  6
BYLAYER
 10
31.5734634728
 20
34.263174727
 40
3.7813411878
100
AcDbArc
 50
289.8425169023
 51
299.9604988779
  0
ARC
  5
288
100
AcDbEntity
  8
0
100
AcDbCircle
 62
7
  6
BYLAYER
 10
24.1424630073
 20
47.1303026915
 40
3.7598900102
100
AcDbArc
 50
120.0103296268
 51
130.1816776193
  0
SPLINE
  5
289
100
AcDbEntity
  8
0
100
AcDbSpline
 62
7
  6
BYLAYER
 70
0
 71
3
 72
14
 73
10
 74
0
 42
0.0000001
 43
0.0000001
 44
0.0000000001
 40
0.0
 40
0.0
 40
0.0
 40
0.0
 40
0.1084181239
 40
0.2204233792
 40
0.3368251005
 40
0.4582328946
 40
0.7174292274
 40
0.8558664275
 40
1.0
 40
1.0
 40
1.0
 40
1.0
 10
31.3659121451
 20
27.2677070813
 30
0.0
 10
31.5087198358
 20
27.4198119068
 30
0.0
 10
31.7795926076
 20
27.7478732653
 30
0.0
 10
32.1310593436
 20
28.2940670761
 30
0.0
 10
32.4313959463
 20
28.8979999932
 30
0.0
 10
32.7688852454
 20
29.7943118765
 30
0.0
 10
32.9862405773
 20
30.7752275597
 30
0.0
 10
33.0945160282
 20
31.8126182664
 30
0.0
 10
33.1122293827
 20
32.356690929
 30
0.0
 10
33.1122293827
 20
32.6340594497
 30
0.0
  0
SPLINE
  5
28A
100
AcDbEntity
  8
0
100
AcDbSpline
 62
7
  6
BYLAYER
 70
0
 71
3
 72
15
 73
11
 74
0
 42
0.0000001
 43
0.0000001
 44
0.0000000001
 40
0.0
 40
0.0
 40
0.0
 40
0.0
 40
0.108012599
 40
0.2180608495
 40
0.3319980984
 40
0.4513586189
 40
0.5772757445
 40
0.7104913451
 40
0.8514208159
 40
1.0
 40
1.0
 40
1.0
 40
1.0
 10
29.5712859527
 20
25.2334913019
 30
0.0
 10
29.8047243552
 20
25.3682518147
 30
0.0
 10
30.2535078846
 20
25.681453467
 30
0.0
 10
30.8465484812
 20
26.2650361313
 30
0.0
 10
31.3565581157
 20
26.9577252443
 30
0.0
 10
31.7788244259
 20
27.7516879842
 30
0.0
 10
32.1101267419
 20
28.6387926104
 30
0.0
 10
32.3478605309
 20
29.6105439988
 30
0.0
 10
32.4901446634
 20
30.6574815379
 30
0.0
 10
32.5200570485
 20
31.3804431512
 30
0.0
 10
32.5200570485
 20
31.7512203082
 30
0.0
  0
SPLINE
  5
28B
100
AcDbEntity
  8
0
100
AcDbSpline
 62
7
  6
BYLAYER
 70
0
 71
3
 72
15
 73
11
 74
0
 42
0.0000001
 43
0.0000001
 44
0.0000000001
 40
0.0
 40
0.0
 40
0.0
 40
0.0
 40
0.1079323923
 40
0.2180338306
 40
0.332091374
 40
0.4515775481
 40
0.5775746267
 40
0.7107918626
 40
0.851624536
 40
1.0
 40
1.0
 40
1.0
 40
1.0
 10
27.1687363908
 20
23.8327375093
 30
0.0
 10
27.3976393856
 20
23.9698528257
 30
0.0
 10
27.8373487111
 20
24.2867537025
 30
0.0
 10
28.4176114922
 20
24.8723122375
 30
0.0
 10
28.9164381076
 20
25.5639858276
 30
0.0
 10
29.3293299396
 20
26.3541990827
 30
0.0
 10
29.6532348572
 20
27.2350765483
 30
0.0
 10
29.8856345434
 20
28.1984069521
 30
0.0
 10
30.0247236071
 20
29.2350258588
 30
0.0
 10
30.0539872926
 20
29.95047839
 30
0.0
 10
30.0539872926
 20
30.3172888543
 30
0.0
  0
SPLINE
  5
28C
100
AcDbEntity
  8
0
100
AcDbSpline
 62
7
  6
BYLAYER
 70
0
 71
3
 72
26
 73
22
 74
0
 42
0.0000001
 43
0.0000001
 44
0.0000000001
 40
0.0
 40
0.0
 40
0.0
 40
0.0
 40
0.023637967
 40
0.0473695517
 40
0.0713721763
 40
0.0957767507
 40
0.1206875101
 40
0.1462250385
 40
0.1995155664
 40
0.2562719384
 40
0.3167001064
 40
0.3806666794
 40
0.4477498975
 40
0.5173037227
 40
0.5885213561
 40
0.6604955224
 40
0.7322745269
 40
0.8029188017
 40
0.871553616
 40
0.9374309177
 40
1.0
 40
1.0
 40
1.0
 40
1.0
 10
24.8794811113
 20
22.510350801
 30
0.0
 10
24.686419658
 20
22.3988873843
 30
0.0
 10
24.2852545657
 20
22.1992885183
 30
0.0
 10
23.6490351702
 20
21.9747691966
 30
0.0
 10
22.9835576966
 20
21.8260270779
 30
0.0
 10
22.2946443802
 20
21.7522819516
 30
0.0
 10
21.5874131893
 20
21.7529416353
 30
0.0
 10
20.6126810603
 20
21.8517504349
 30
0.0
 10
19.3644008892
 20
22.1597185698
 30
0.0
 10
17.8782825759
 20
22.7869693297
 30
0.0
 10
16.4034492091
 20
23.6581373906
 30
0.0
 10
14.9631398394
 20
24.7533147893
 30
0.0
 10
13.5813707372
 20
26.0500527831
 30
0.0
 10
12.2831033594
 20
27.5223902919
 30
0.0
 10
11.0929808386
 20
29.1408168514
 30
0.0
 10
10.0343856421
 20
30.8727169485
 30
0.0
 10
9.1285330989
 20
32.6831651554
 30
0.0
 10
8.3938783769
 20
34.5358603099
 30
0.0
 10
7.8456111505
 20
36.3943959753
 30
0.0
 10
7.4955876382
 20
38.2228663519
 30
0.0
 10
7.3976914208
 20
39.4335361521
 30
0.0
 10
7.3874508226
 20
40.0235314427
 30
0.0
  0
SPLINE
  5
28D
100
AcDbEntity
  8
0
100
AcDbSpline
 62
7
  6
BYLAYER
 70
0
 71
3
 72
26
 73
22
 74
0
 42
0.0000001
 43
0.0000001
 44
0.0000000001
 40
0.0
 40
0.0
 40
0.0
 40
0.0
 40
0.0623792451
 40
0.1287164078
 40
0.1983048448
 40
0.2702774863
 40
0.3436511793
 40
0.4173801043
 40
0.4904015052
 40
0.5616849172
 40
0.6302789422
 40
0.6953633315
 40
0.7563079221
 40
0.8127425132
 40
0.8392666751
 40
0.8646885165
 40
0.9124612882
 40
0.9351048233
 40
0.9571093169
 40
0.9786687732
 40
1.0
 40
1.0
 40
1.0
 40
1.0
 10
35.7815323844
 20
36.1143327877
 30
0.0
 10
35.7815323844
 20
36.5789703713
 30
0.0
 10
35.7185790695
 20
37.5383658344
 30
0.0
 10
35.4595669503
 20
38.9950727585
 30
0.0
 10
35.0384287874
 20
40.4877269952
 30
0.0
 10
34.4642245705
 20
41.9844044913
 30
0.0
 10
33.7491311236
 20
43.4533893049
 30
0.0
 10
32.9084243689
 20
44.8633410613
 30
0.0
 10
31.9600285685
 20
46.1841765002
 30
0.0
 10
30.9241516293
 20
47.3877456289
 30
0.0
 10
29.8227906008
 20
48.448451434
 30
0.0
 10
28.6790504174
 20
49.3438490382
 30
0.0
 10
27.5169318945
 20
50.0548399809
 30
0.0
 10
26.5327308022
 20
50.48983658
 30
0.0
 10
25.7596612392
 20
50.7256325598
 30
0.0
 10
25.0327364223
 20
50.8809341948
 30
0.0
 10
24.3149323634
 20
50.9336224981
 30
0.0
 10
23.6282716381
 20
50.8691354792
 30
0.0
 10
23.1447534334
 20
50.7660548005
 30
0.0
 10
22.686793217
 20
50.6076980235
 30
0.0
 10
22.3995319155
 20
50.4655674214
 30
0.0
 10
22.2619309927
 20
50.3861239751
 30
0.0
  0
SPLINE
  5
28E
100
AcDbEntity
  8
0
100
AcDbSpline
 62
7
  6
BYLAYER
 70
0
 71
3
 72
16
 73
12
 74
0
 42
0.0000001
 43
0.0000001
 44
0.0000000001
 40
0.0
 40
0.0
 40
0.0
 40
0.0
 40
0.1420403163
 40
0.2781206414
 40
0.4084038777
 40
0.4715801629
 40
0.5335415269
 40
0.654188578
 40
0.7714107209
 40
0.886263006
 40
1.0
 40
1.0
 40
1.0
 40
1.0
 10
7.3853854327
 20
40.2603438199
 30
0.0
 10
7.3853854327
 20
40.6397822717
 30
0.0
 10
7.4167180526
 20
41.383272185
 30
0.0
 10
7.5660238243
 20
42.4656990683
 30
0.0
 10
7.7784868903
 20
43.3221121242
 30
0.0
 10
8.0015538274
 20
43.9673576997
 30
0.0
 10
8.254540377
 20
44.5736142947
 30
0.0
 10
8.6351402749
 20
45.281469497
 30
0.0
 10
9.1993769284
 20
46.0406062012
 30
0.0
 10
9.862487719
 20
46.6893167857
 30
0.0
 10
10.3664816659
 20
47.0400894172
 30
0.0
 10
10.6296070423
 20
47.1920040173
 30
0.0
  0
SPLINE
  5
28F
100
AcDbEntity
  8
0
100
AcDbSpline
 62
7
  6
BYLAYER
 70
0
 71
3
 72
15
 73
11
 74
0
 42
0.0000001
 43
0.0000001
 44
0.0000000001
 40
0.0
 40
0.0
 40
0.0
 40
0.0
 40
0.1080135245
 40
0.2180610388
 40
0.3319968399
 40
0.4513579705
 40
0.5772718308
 40
0.7104887959
 40
0.8514266019
 40
1.0
 40
1.0
 40
1.0
 40
1.0
 10
33.4618759328
 20
30.9871345015
 30
0.0
 10
33.6455076132
 20
31.0931536564
 30
0.0
 10
33.9985456203
 20
31.3395329418
 30
0.0
 10
34.465051023
 20
31.7986171973
 30
0.0
 10
34.8662723264
 20
32.343504425
 30
0.0
 10
35.1984213236
 20
32.9680843068
 30
0.0
 10
35.4590590553
 20
33.6659165662
 30
0.0
 10
35.6460781562
 20
34.4303611554
 30
0.0
 10
35.7579899053
 20
35.2539470959
 30
0.0
 10
35.7815323844
 20
35.8226712003
 30
0.0
 10
35.7815323844
 20
36.1143327877
 30
0.0
  0
SPLINE
  5
290
100
AcDbEntity
  8
0
100
AcDbSpline
 62
7
  6
BYLAYER
 70
0
 71
3
 72
11
 73
7
 74
0
 42
0.0000001
 43
0.0000001
 44
0.0000000001
 40
0.0
 40
0.0
 40
0.0
 40
0.0
 40
0.217745073
 40
0.4508830113
 40
0.7104597664
 40
1.0
 40
1.0
 40
1.0
 40
1.0
 10
36.5017440665
 20
27.4081363765
 30
0.0
 10
36.5182341388
 20
27.4176568752
 30
0.0
 10
36.549118271
 20
27.4435615461
 30
0.0
 10
36.5819714764
 20
27.4973021549
 30
0.0
 10
36.6014480419
 20
27.5635075531
 30
0.0
 10
36.6053140366
 20
27.6116858039
 30
0.0
 10
36.6053140366
 20
27.637005119
 30
0.0
  0
SPLINE
  5
291
100
AcDbEntity
  8
0
100
AcDbSpline
 62
7
  6
BYLAYER
 70
0
 71
3
 72
14
 73
10
 74
0
 42
0.0000001
 43
0.0000001
 44
0.0000000001
 40
0.0
 40
0.0
 40
0.0
 40
0.0
 40
0.1080471438
 40
0.2181317193
 40
0.3321125724
 40
0.4515014986
 40
0.5774450424
 40
0.710727948
 40
1.0
 40
1.0
 40
1.0
 40
1.0
 10
37.5860596442
 20
25.5300242065
 30
0.0
 10
37.5237585036
 20
25.4940548409
 30
0.0
 10
37.3914720853
 20
25.4321361958
 30
0.0
 10
37.1774484898
 20
25.372909595
 30
0.0
 10
36.9492798309
 20
25.3475109827
 30
0.0
 10
36.7094341226
 20
25.3558061945
 30
0.0
 10
36.4601589733
 20
25.3976337534
 30
0.0
 10
36.1089617234
 20
25.5000250806
 30
0.0
 10
35.8528694523
 20
25.6219121232
 30
0.0
 10
35.6860713939
 20
25.7182108485
 30
0.0
  0
SPLINE
  5
292
100
AcDbEntity
  8
0
100
AcDbSpline
 62
7
  6
BYLAYER
 70
0
 71
3
 72
14
 73
10
 74
0
 42
0.0000001
 43
0.0000001
 44
0.0000000001
 40
0.0
 40
0.0
 40
0.0
 40
0.0
 40
0.1080466357
 40
0.2181307812
 40
0.3321113461
 40
0.4515001674
 40
0.5774437985
 40
0.7107269735
 40
1.0
 40
1.0
 40
1.0
 40
1.0
 10
36.2319091929
 20
23.3851836407
 30
0.0
 10
36.2942117127
 20
23.4211537951
 30
0.0
 10
36.4139810322
 20
23.5047593906
 30
0.0
 10
36.5722882016
 20
23.6604996372
 30
0.0
 10
36.7083710892
 20
23.8454051812
 30
0.0
 10
36.8211118088
 20
24.0572714182
 30
0.0
 10
36.9095263627
 20
24.2940709674
 30
0.0
 10
36.9964510608
 20
24.6494234923
 30
0.0
 10
37.0189378982
 20
24.9321580737
 30
0.0
 10
37.0189378982
 20
25.1247646007
 30
0.0
  0
SPLINE
  5
293
100
AcDbEntity
  8
0
100
AcDbSpline
 62
7
  6
BYLAYER
 70
0
 71
3
 72
14
 73
10
 74
0
 42
0.0000001
 43
0.0000001
 44
0.0000000001
 40
0.0
 40
0.0
 40
0.0
 40
0.0
 40
0.1080471438
 40
0.2181317193
 40
0.3321125724
 40
0.4515014986
 40
0.5774450424
 40
0.710727948
 40
1.0
 40
1.0
 40
1.0
 40
1.0
 10
31.9892861696
 20
20.9357187175
 30
0.0
 10
31.9269850291
 20
20.8997493519
 30
0.0
 10
31.7946986107
 20
20.8378307068
 30
0.0
 10
31.5806750153
 20
20.778604106
 30
0.0
 10
31.3525063563
 20
20.7532054937
 30
0.0
 10
31.112660648
 20
20.7615007055
 30
0.0
 10
30.8633854988
 20
20.8033282644
 30
0.0
 10
30.5121882488
 20
20.9057195916
 30
0.0
 10
30.2560959777
 20
21.0276066342
 30
0.0
 10
30.0892979194
 20
21.1239053595
 30
0.0
  0
SPLINE
  5
294
100
AcDbEntity
  8
0
100
AcDbSpline
 62
7
  6
BYLAYER
 70
0
 71
3
 72
11
 73
7
 74
0
 42
0.0000001
 43
0.0000001
 44
0.0000000001
 40
0.0
 40
0.0
 40
0.0
 40
0.0
 40
0.217745073
 40
0.4508830113
 40
0.7104597664
 40
1.0
 40
1.0
 40
1.0
 40
1.0
 10
30.9049705919
 20
22.2293870521
 30
0.0
 10
30.9214606642
 20
22.2389075508
 30
0.0
 10
30.9523447965
 20
22.2648122217
 30
0.0
 10
30.9851980019
 20
22.3185528305
 30
0.0
 10
31.0046745673
 20
22.3847582287
 30
0.0
 10
31.0085405621
 20
22.4329364795
 30
0.0
 10
31.0085405621
 20
22.4582557946
 30
0.0
  0
SPLINE
  5
295
100
AcDbEntity
  8
0
100
AcDbSpline
 62
7
  6
BYLAYER
 70
0
 71
3
 72
27
 73
23
 74
0
 42
0.0000001
 43
0.0000001
 44
0.0000000001
 40
0.0
 40
0.0
 40
0.0
 40
0.0
 40
0.0623773971
 40
0.1287099911
 40
0.1982957021
 40
0.2702648835
 40
0.3436347614
 40
0.4173591253
 40
0.4903761233
 40
0.5616553596
 40
0.6302456801
 40
0.6953268723
 40
0.7562686493
 40
0.7850764797
 40
0.8127378796
 40
0.8646337039
 40
0.8890181499
 40
0.9124655293
 40
0.9351080674
 40
0.9571114407
 40
0.9786698674
 40
1.0
 40
1.0
 40
1.0
 40
1.0
 10
30.0539872926
 20
30.3172888543
 30
0.0
 10
30.0539872926
 20
30.9084685863
 30
0.0
 10
29.9738969172
 20
32.1291277091
 30
0.0
 10
29.6443330758
 20
33.9825290558
 30
0.0
 10
29.1085276216
 20
35.8816640095
 30
0.0
 10
28.377941812
 20
37.7859191124
 30
0.0
 10
27.4681242901
 20
39.6549334551
 30
0.0
 10
26.398483371
 20
41.4488266531
 30
0.0
 10
25.1918311066
 20
43.129339331
 30
0.0
 10
23.87389126
 20
44.6606433638
 30
0.0
 10
22.4725603382
 20
46.010233914
 30
0.0
 10
21.0175473008
 20
47.1493412043
 30
0.0
 10
19.7622767927
 20
47.9173564994
 30
0.0
 10
18.7581057216
 20
48.3989735268
 30
0.0
 10
17.8018720828
 20
48.7751444922
 30
0.0
 10
16.8441214434
 20
49.0294428696
 30
0.0
 10
15.9041214547
 20
49.1399723058
 30
0.0
 10
15.235018092
 20
49.1505242042
 30
0.0
 10
14.5911320162
 20
49.0901279585
 30
0.0
 10
13.9759946044
 20
48.9589229135
 30
0.0
 10
13.3932907292
 20
48.7575000334
 30
0.0
 10
13.0278276786
 20
48.5766163083
 30
0.0
 10
12.8527508264
 20
48.4755470493
 30
0.0
  0
SPLINE
  5
296
100
AcDbEntity
  8
0
100
AcDbSpline
 62
7
  6
BYLAYER
 70
0
 71
3
 72
27
 73
23
 74
0
 42
0.0000001
 43
0.0000001
 44
0.0000000001
 40
0.0
 40
0.0
 40
0.0
 40
0.0
 40
0.0623773969
 40
0.1287099907
 40
0.1982957022
 40
0.2702648832
 40
0.3436347602
 40
0.4173591236
 40
0.4903761213
 40
0.5616553576
 40
0.6302456784
 40
0.6953268713
 40
0.756268649
 40
0.7850764796
 40
0.8127378798
 40
0.8646337044
 40
0.8890181503
 40
0.9124655297
 40
0.9351080677
 40
0.9571114409
 40
0.9786698675
 40
1.0
 40
1.0
 40
1.0
 40
1.0
 10
32.5200570485
 20
31.7512203082
 30
0.0
 10
32.5200570485
 20
32.3418841103
 30
0.0
 10
32.4400365694
 20
33.5614779492
 30
0.0
 10
32.110760342
 20
35.4132618155
 30
0.0
 10
31.5754224907
 20
37.3107393756
 30
0.0
 10
30.8454742737
 20
39.2133326094
 30
0.0
 10
29.9364507678
 20
41.0807158316
 30
0.0
 10
28.8677433457
 20
42.87304347
 30
0.0
 10
27.6621441464
 20
44.5520895454
 30
0.0
 10
26.3453544817
 20
46.0820571986
 30
0.0
 10
24.9452465115
 20
47.4304699584
 30
0.0
 10
23.4915032676
 20
48.5685831519
 30
0.0
 10
22.2373282339
 20
49.3359282028
 30
0.0
 10
21.2340335018
 20
49.8171249234
 30
0.0
 10
20.27863437
 20
50.1929676041
 30
0.0
 10
19.3217195633
 20
50.4470440524
 30
0.0
 10
18.3825399191
 20
50.5574770288
 30
0.0
 10
17.7140204901
 20
50.5680197158
 30
0.0
 10
17.0706963419
 20
50.507676179
 30
0.0
 10
16.4560957694
 20
50.3765856365
 30
0.0
 10
15.8739004285
 20
50.1753385408
 30
0.0
 10
15.5087563229
 20
49.9946126752
 30
0.0
 10
15.3338322629
 20
49.8936316208
 30
0.0
  0
SPLINE
  5
297
100
AcDbEntity
  8
0
100
AcDbSpline
 62
7
  6
BYLAYER
 70
0
 71
3
 72
27
 73
23
 74
0
 42
0.0000001
 43
0.0000001
 44
0.0000000001
 40
0.0
 40
0.0
 40
0.0
 40
0.0
 40
0.0213301474
 40
0.0428886036
 40
0.064892002
 40
0.0875345794
 40
0.1109819867
 40
0.1353664693
 40
0.1872623317
 40
0.2149237337
 40
0.2437315692
 40
0.304673338
 40
0.3697545517
 40
0.4383449796
 40
0.5096243586
 40
0.5826413658
 40
0.65636556
 40
0.729735345
 40
0.8017048017
 40
0.8712903567
 40
0.9376227268
 40
1.0
 40
1.0
 40
1.0
 40
1.0
 10
10.629596616
 20
47.1920220761
 30
0.0
 10
10.8046735346
 20
47.2930916505
 30
0.0
 10
11.1701362397
 20
47.47397752
 30
0.0
 10
11.752841566
 20
47.6753989446
 30
0.0
 10
12.3679795387
 20
47.8066066198
 30
0.0
 10
13.0118669473
 20
47.8670012056
 30
0.0
 10
13.6809715123
 20
47.8564508512
 30
0.0
 10
14.6209727274
 20
47.7459196907
 30
0.0
 10
15.5787243001
 20
47.4916211496
 30
0.0
 10
16.5349588024
 20
47.1154500427
 30
0.0
 10
17.5391297314
 20
46.6338317851
 30
0.0
 10
18.794400696
 20
45.8658159315
 30
0.0
 10
20.2494146228
 20
44.7267067579
 30
0.0
 10
21.650747245
 20
43.3771132255
 30
0.0
 10
22.9686882292
 20
41.8458059135
 30
0.0
 10
24.1753395289
 20
40.1652918098
 30
0.0
 10
25.244978395
 20
38.3713992863
 30
0.0
 10
26.1547949771
 20
36.5023835224
 30
0.0
 10
26.8853803129
 20
34.5981271221
 30
0.0
 10
27.4211836969
 20
32.6989918624
 30
0.0
 10
27.7507459032
 20
30.8455944051
 30
0.0
 10
27.8308356918
 20
29.6249381174
 30
0.0
 10
27.8308356918
 20
29.0337593407
 30
0.0
  0
SPLINE
  5
298
100
AcDbEntity
  8
0
100
AcDbSpline
 62
7
  6
BYLAYER
 70
0
 71
3
 72
11
 73
7
 74
0
 42
0.0000001
 43
0.0000001
 44
0.0000000001
 40
0.0
 40
0.0
 40
0.0
 40
0.0
 40
0.2253606104
 40
0.466292038
 40
0.72449733
 40
1.0
 40
1.0
 40
1.0
 40
1.0
 10
32.459735685
 20
29.274495389
 30
0.0
 10
32.5576400751
 20
29.2765304439
 30
0.0
 10
32.7608652524
 20
29.2624485171
 30
0.0
 10
33.0688492925
 20
29.1925138095
 30
0.0
 10
33.3850179072
 20
29.0745287038
 30
0.0
 10
33.591881846
 20
28.9685204381
 30
0.0
 10
33.6955575176
 20
28.9086646153
 30
0.0
  0
SPLINE
  5
299
100
AcDbEntity
  8
0
100
AcDbSpline
 62
7
  6
BYLAYER
 70
0
 71
3
 72
12
 73
8
 74
0
 42
0.0000001
 43
0.0000001
 44
0.0000000001
 40
0.0
 40
0.0
 40
0.0
 40
0.0
 40
0.2787854154
 40
0.5343904702
 40
0.7719082208
 40
0.8865848605
 40
1.0
 40
1.0
 40
1.0
 40
1.0
 10
34.9235177347
 20
30.1116051908
 30
0.0
 10
34.7948801848
 20
30.1595185314
 30
0.0
 10
34.5406104463
 20
30.2329757877
 30
0.0
 10
34.1596243916
 20
30.2681285667
 30
0.0
 10
33.8598002327
 20
30.2279483051
 30
0.0
 10
33.6421065431
 20
30.1543258026
 30
0.0
 10
33.5409912716
 20
30.1045419146
 30
0.0
 10
33.4926319434
 20
30.0766139498
 30
0.0
  0
SPLINE
  5
29A
100
AcDbEntity
  8
0
100
AcDbSpline
 62
7
  6
BYLAYER
 70
0
 71
3
 72
14
 73
10
 74
0
 42
0.0000001
 43
0.0000001
 44
0.0000000001
 40
0.0
 40
0.0
 40
0.0
 40
0.0
 40
0.2892730352
 40
0.4225562199
 40
0.5484998506
 40
0.6678886669
 40
0.7818692291
 40
0.8919533702
 40
1.0
 40
1.0
 40
1.0
 40
1.0
 10
38.3730883495
 20
27.2696051664
 30
0.0
 10
38.3730883495
 20
27.0769986338
 30
0.0
 10
38.3506015059
 20
26.7942640408
 30
0.0
 10
38.2636768048
 20
26.4389115047
 30
0.0
 10
38.1752622475
 20
26.2021119536
 30
0.0
 10
38.0625215209
 20
25.9902457266
 30
0.0
 10
37.9264386375
 20
25.8053401908
 30
0.0
 10
37.7681314758
 20
25.6495999476
 30
0.0
 10
37.6483621573
 20
25.5659943645
 30
0.0
 10
37.5860596442
 20
25.5300242065
 30
0.0
  0
SPLINE
  5
29B
100
AcDbEntity
  8
0
100
AcDbSpline
 62
7
  6
BYLAYER
 70
0
 71
3
 72
39
 73
35
 74
0
 42
0.0000001
 43
0.0000001
 44
0.0000000001
 40
0.0
 40
0.0
 40
0.0
 40
0.0
 40
0.0309862673
 40
0.060375975
 40
0.0881572432
 40
0.1014753575
 40
0.1144295899
 40
0.1393216624
 40
0.1630832012
 40
0.1860341482
 40
0.2085607263
 40
0.231087432
 40
0.2540390168
 40
0.2778015473
 40
0.3026945666
 40
0.3156494578
 40
0.328969134
 40
0.3567537556
 40
0.3861384666
 40
0.4171316
 40
0.449682444
 40
0.4836924443
 40
0.5190216081
 40
0.5554970545
 40
0.592920069
 40
0.6310705529
 40
0.7085745929
 40
0.7860764664
 40
0.8242240824
 40
0.861644272
 40
0.8981166568
 40
0.9334410167
 40
0.9674554749
 40
1.0
 40
1.0
 40
1.0
 40
1.0
 10
7.4748218853
 20
40.0216890065
 30
0.0
 10
7.4748218853
 20
40.3758942164
 30
0.0
 10
7.5033959145
 20
41.0665449508
 30
0.0
 10
7.6392990476
 20
42.0665994446
 30
0.0
 10
7.8312104427
 20
42.8510860626
 30
0.0
 10
8.0311698549
 20
43.436106665
 30
0.0
 10
8.2544445395
 20
43.9770007902
 30
0.0
 10
8.5862579876
 20
44.6008970248
 30
0.0
 10
9.0733693374
 20
45.2625781847
 30
0.0
 10
9.6400281758
 20
45.8202331013
 30
0.0
 10
10.2805574221
 20
46.2673110897
 30
0.0
 10
10.9879613284
 20
46.598604606
 30
0.0
 10
11.7542462988
 20
46.8105523471
 30
0.0
 10
12.5708502809
 20
46.9016655582
 30
0.0
 10
13.277101471
 20
46.8771379923
 30
0.0
 10
13.8572066098
 20
46.8000743193
 30
0.0
 10
14.4638896536
 20
46.6807021617
 30
0.0
 10
15.2392247052
 20
46.4547021146
 30
0.0
 10
16.1733939494
 20
46.0723984134
 30
0.0
 10
17.1157451152
 20
45.5790300032
 30
0.0
 10
18.0574284053
 20
44.9794771358
 30
0.0
 10
18.989596166
 20
44.2794151795
 30
0.0
 10
19.9034490156
 20
43.4855456742
 30
0.0
 10
20.7903398768
 20
42.6054755464
 30
0.0
 10
21.6418046584
 20
41.6475267201
 30
0.0
 10
22.7244570129
 20
40.2717263415
 30
0.0
 10
23.9366037742
 20
38.4201607958
 30
0.0
 10
24.9339785839
 20
36.4446371449
 30
0.0
 10
25.584059724
 20
34.819200993
 30
0.0
 10
25.9878639754
 20
33.6029174611
 30
0.0
 10
26.3065787587
 20
32.394944995
 30
0.0
 10
26.5371587142
 20
31.2066062218
 30
0.0
 10
26.6772738597
 20
30.0494371396
 30
0.0
 10
26.7103464914
 20
29.2883226491
 30
0.0
 10
26.7103464914
 20
28.9163049345
 30
0.0
  0
SPLINE
  5
29C
100
AcDbEntity
  8
0
100
AcDbSpline
 62
7
  6
BYLAYER
 70
0
 71
3
 72
39
 73
35
 74
0
 42
0.0000001
 43
0.0000001
 44
0.0000000001
 40
0.0
 40
0.0
 40
0.0
 40
0.0
 40
0.0309862707
 40
0.0603759801
 40
0.0881572494
 40
0.1014753643
 40
0.1144295977
 40
0.1393216735
 40
0.1630832031
 40
0.1860341045
 40
0.2085606117
 40
0.2310872486
 40
0.2540387965
 40
0.2778013355
 40
0.3026944024
 40
0.3156493255
 40
0.3289690351
 40
0.3567537179
 40
0.3861384709
 40
0.4171316217
 40
0.4496824616
 40
0.4836924441
 40
0.5190215867
 40
0.5554970171
 40
0.5929200257
 40
0.6310705136
 40
0.7085745705
 40
0.7860764488
 40
0.8242240675
 40
0.8616442606
 40
0.898116648
 40
0.9334410104
 40
0.9674554713
 40
1.0
 40
1.0
 40
1.0
 40
1.0
 10
26.7103464914
 20
28.9163049345
 30
0.0
 10
26.7103464914
 20
28.5620997383
 30
0.0
 10
26.6817725184
 20
27.8714490486
 30
0.0
 10
26.5458695244
 20
26.8713946156
 30
0.0
 10
26.353958239
 20
26.0869080521
 30
0.0
 10
26.153998897
 20
25.501887489
 30
0.0
 10
25.9307242589
 20
24.9609933746
 30
0.0
 10
25.5989108452
 20
24.3370973031
 30
0.0
 10
25.1118000773
 20
23.675416626
 30
0.0
 10
24.5451427646
 20
23.117762394
 30
0.0
 10
23.9046154922
 20
22.6706854454
 30
0.0
 10
23.1972133825
 20
22.3393930898
 30
0.0
 10
22.4309294721
 20
22.1274461721
 30
0.0
 10
21.6143254289
 20
22.036332988
 30
0.0
 10
20.9080733449
 20
22.0608597935
 30
0.0
 10
20.3279668751
 20
22.1379225807
 30
0.0
 10
19.7212822535
 20
22.2572937255
 30
0.0
 10
18.9459452984
 20
22.4832924247
 30
0.0
 10
18.011774222
 20
22.8655949745
 30
0.0
 10
17.0694222696
 20
23.3589629883
 30
0.0
 10
16.1277394569
 20
23.9585162715
 30
0.0
 10
15.1955733532
 20
24.6585793711
 30
0.0
 10
14.2817229152
 20
25.4524504347
 30
0.0
 10
13.3948345368
 20
26.3325220881
 30
0.0
 10
12.5433715241
 20
27.290471924
 30
0.0
 10
11.4607196814
 20
28.6662725339
 30
0.0
 10
10.2485699815
 20
30.5178359289
 30
0.0
 10
9.2511915208
 20
32.4933578135
 30
0.0
 10
8.601109719
 20
34.1187935837
 30
0.0
 10
8.1973052289
 20
35.3350769402
 30
0.0
 10
7.878590109
 20
36.5430492283
 30
0.0
 10
7.6480099072
 20
37.7313878652
 30
0.0
 10
7.5078945755
 20
38.8885568542
 30
0.0
 10
7.4748218853
 20
39.6496713051
 30
0.0
 10
7.4748218853
 20
40.0216890065
 30
0.0
  0
SPLINE
  5
29D
100
AcDbEntity
  8
0
100
AcDbSpline
 62
7
  6
BYLAYER
 70
0
 71
3
 72
15
 73
11
 74
0
 42
0.0000001
 43
0.0000001
 44
0.0000000001
 40
0.0
 40
0.0
 40
0.0
 40
0.0
 40
0.1485792388
 40
0.2895078844
 40
0.4227228411
 40
0.5486397157
 40
0.6680003259
 40
0.7819383288
 40
0.8919870591
 40
1.0
 40
1.0
 40
1.0
 40
1.0
 10
27.8308356918
 20
29.0337593407
 30
0.0
 10
27.8308356918
 20
28.6626580412
 30
0.0
 10
27.8008979357
 20
27.9390665679
 30
0.0
 10
27.6584898574
 20
26.8912176154
 30
0.0
 10
27.4205500227
 20
25.9186212786
 30
0.0
 10
27.0889634836
 20
25.030741497
 30
0.0
 10
26.6663263899
 20
24.2360842124
 30
0.0
 10
26.1558726615
 20
23.5427847204
 30
0.0
 10
25.5623123388
 20
22.9586875977
 30
0.0
 10
25.1131345113
 20
22.6452117205
 30
0.0
 10
24.8794915377
 20
22.5103327421
 30
0.0
  0
SPLINE
  5
29E
100
AcDbEntity
  8
0
100
AcDbSpline
 62
7
  6
BYLAYER
 70
0
 71
3
 72
14
 73
10
 74
0
 42
0.0000001
 43
0.0000001
 44
0.0000000001
 40
0.0
 40
0.0
 40
0.0
 40
0.0
 40
0.2892730352
 40
0.4225562199
 40
0.5484998506
 40
0.6678886669
 40
0.7818692291
 40
0.8919533702
 40
1.0
 40
1.0
 40
1.0
 40
1.0
 10
32.7763148749
 20
22.6752996774
 30
0.0
 10
32.7763148749
 20
22.4826931448
 30
0.0
 10
32.7538280313
 20
22.1999585518
 30
0.0
 10
32.6669033303
 20
21.8446060157
 30
0.0
 10
32.578488773
 20
21.6078064646
 30
0.0
 10
32.4657480464
 20
21.3959402376
 30
0.0
 10
32.3296651629
 20
21.2110347018
 30
0.0
 10
32.1713580012
 20
21.0552944586
 30
0.0
 10
32.0515886827
 20
20.9716888755
 30
0.0
 10
31.9892861696
 20
20.9357187175
 30
0.0
  0
SPLINE
  5
29F
100
AcDbEntity
  8
0
100
AcDbSpline
 62
7
  6
BYLAYER
 70
0
 71
3
 72
11
 73
7
 74
0
 42
0.0000001
 43
0.0000001
 44
0.0000000001
 40
0.0
 40
0.0
 40
0.0
 40
0.0
 40
0.2895391946
 40
0.5491157945
 40
0.7822541179
 40
1.0
 40
1.0
 40
1.0
 40
1.0
 10
30.6549856995
 20
22.2541249633
 30
0.0
 10
30.6769123284
 20
22.2414659046
 30
0.0
 10
30.7205678575
 20
22.2207258751
 30
0.0
 10
30.7876399503
 20
22.2044913415
 30
0.0
 10
30.8506056559
 20
22.2060730689
 30
0.0
 10
30.8884808994
 20
22.2198667726
 30
0.0
 10
30.9049705919
 20
22.2293870521
 30
0.0
  0
SPLINE
  5
2A0
100
AcDbEntity
  8
0
100
AcDbSpline
 62
7
  6
BYLAYER
 70
0
 71
3
 72
11
 73
7
 74
0
 42
0.0000001
 43
0.0000001
 44
0.0000000001
 40
0.0
 40
0.0
 40
0.0
 40
0.0
 40
0.2444231389
 40
0.4911352804
 40
0.7423305657
 40
1.0
 40
1.0
 40
1.0
 40
1.0
 10
34.4503436218
 20
33.5208251056
 30
0.0
 10
34.5595195453
 20
33.5838668142
 30
0.0
 10
34.7715199691
 20
33.7238166584
 30
0.0
 10
35.064498843
 20
33.9716278828
 30
0.0
 10
35.3316252812
 20
34.2564995063
 30
0.0
 10
35.4893737978
 20
34.4670025014
 30
0.0
 10
35.5635184196
 20
34.5773001777
 30
0.0
  0
SPLINE
  5
2A1
100
AcDbEntity
  8
0
100
AcDbSpline
 62
7
  6
BYLAYER
 70
0
 71
3
 72
11
 73
7
 74
0
 42
0.0000001
 43
0.0000001
 44
0.0000000001
 40
0.0
 40
0.0
 40
0.0
 40
0.0
 40
0.2588607553
 40
0.5102580762
 40
0.7564638668
 40
1.0
 40
1.0
 40
1.0
 40
1.0
 10
26.5544844048
 20
50.4178880957
 30
0.0
 10
26.4096196612
 20
50.4128615268
 30
0.0
 10
26.1242971879
 20
50.387497363
 30
0.0
 10
25.7087320501
 20
50.3003705639
 30
0.0
 10
25.3151821715
 20
50.165346112
 30
0.0
 10
25.0684995792
 20
50.0434956072
 30
0.0
 10
24.9504032563
 20
49.9753029716
 30
0.0
  0
SPLINE
  5
2A2
100
AcDbEntity
  8
0
100
AcDbSpline
 62
7
  6
BYLAYER
 70
0
 71
3
 72
11
 73
7
 74
0
 42
0.0000001
 43
0.0000001
 44
0.0000000001
 40
0.0
 40
0.0
 40
0.0
 40
0.0
 40
0.2895391946
 40
0.5491157945
 40
0.7822541179
 40
1.0
 40
1.0
 40
1.0
 40
1.0
 10
36.251759174
 20
27.4328742877
 30
0.0
 10
36.2736858029
 20
27.420215229
 30
0.0
 10
36.317341332
 20
27.3994751995
 30
0.0
 10
36.3844134248
 20
27.3832406659
 30
0.0
 10
36.4473791304
 20
27.3848223933
 30
0.0
 10
36.4852543739
 20
27.398616097
 30
0.0
 10
36.5017440665
 20
27.4081363765
 30
0.0
  0
SPLINE
  5
2A3
100
AcDbEntity
  8
0
100
AcDbSpline
 62
7
  6
BYLAYER
 70
0
 71
3
 72
11
 73
7
 74
0
 42
0.0000001
 43
0.0000001
 44
0.0000000001
 40
0.0
 40
0.0
 40
0.0
 40
0.0
 40
0.2200625142
 40
0.4576836033
 40
0.7171949095
 40
1.0
 40
1.0
 40
1.0
 40
1.0
 10
42.1195937687
 20
28.2091919243
 30
0.0
 10
42.2018546124
 20
28.2954752329
 30
0.0
 10
42.3496733567
 20
28.4980520372
 30
0.0
 10
42.5044557365
 20
28.8571763132
 30
0.0
 10
42.5969367785
 20
29.2715259954
 30
0.0
 10
42.6157113728
 20
29.5658684225
 30
0.0
 10
42.6157113728
 20
29.7190700897
 30
0.0
  0
ENDSEC
  0
SECTION
  2
OBJECTS
  0
DICTIONARY
  5
C
100
AcDbDictionary
280
0
281
1
  3
ACAD_GROUP
350
D
  3
ACAD_MLINESTYLE
350
17
  3
ACAD_LAYOUT
350
1A
  3
ACAD_PLOTSETTINGS
350
19
  3
ACAD_PLOTSTYLENAME
350
E
  0
DICTIONARY
  5
D
102
{ACAD_REACTORS
330
C
102
}
100
AcDbDictionary
280
0
281
1
  0
ACDBDICTIONARYWDFLT
  5
E
102
{ACAD_REACTORS
330
C
102
}
100
AcDbDictionary
281
1
  3
Normal
350
F
100
AcDbDictionaryWithDefault
340
F
  0
DICTIONARY
  5
17
102
{ACAD_REACTORS
330
C
102
}
100
AcDbDictionary
280
0
281
1
  3
Standard
350
18
  0
DICTIONARY
  5
19
102
{ACAD_REACTORS
330
C
102
}
100
AcDbDictionary
281
1
  0
DICTIONARY
  5
1A
102
{ACAD_REACTORS
330
C
102
}
100
AcDbDictionary
281
1
  3
Model
350
2A4
  3
Layout1
350
2A5
  0
ACDBPLACEHOLDER
  5
F
102
{ACAD_REACTORS
330
E
102
}
  0
MLINESTYLE
  5
18
102
{ACAD_REACTORS
330
17
102
}
100
AcDbMlineStyle
  2
STANDARD
 70
0
  3

 62
256
 51
90.0
 52
90.0
 71
2
 49
0.5
 62
256
  6
BYLAYER
 49
-0.5
 62
256
  6
BYLAYER
  0
LAYOUT
  5
2A4
102
{ACAD_REACTORS
330
1A
102
}
100
AcDbPlotSettings
  1

  2
none_device
  4

  6

 40
0.0
 41
0.0
 42
0.0
 43
0.0
 44
210.0
 45
297.0
 46
0.0
 47
0.0
 48
0.0
 49
0.0
140
0.0
141
0.0
142
1.0
143
1.0
 70
1024
 72
1
 73
0
 74
0
  7

 75
0
147
1.0
148
0.0
149
0.0
100
AcDbLayout
  1
Model
 70
0
 71
0
 10
0.0
 20
0.0
 11
210.0
 21
297.0
 12
0.0
 22
0.0
 32
0.0
 14
0.0
 24
0.0
 34
0.0
 15
0.0
 25
0.0
 35
0.0
146
0.0
 13
0.0
 23
0.0
 33
0.0
 16
1.0
 26
0.0
 36
0.0
 17
0.0
 27
1.0
 37
0.0
 76
0
330
210
345
0
346
0
  0
LAYOUT
  5
2A5
102
{ACAD_REACTORS
330
1A
102
}
100
AcDbPlotSettings
  1

  2
none_device
  4

  6

 40
0.0
 41
0.0
 42
0.0
 43
0.0
 44
210.0
 45
297.0
 46
0.0
 47
0.0
 48
0.0
 49
0.0
140
0.0
141
0.0
142
1.0
143
1.0
 70
0
 72
1
 73
0
 74
0
  7

 75
0
147
1.0
148
0.0
149
0.0
100
AcDbLayout
  1
Layout1
 70
0
 71
1
 10
0.0
 20
0.0
 11
210.0
 21
297.0
 12
0.0
 22
0.0
 32
0.0
 14
0.0
 24
0.0
 34
0.0
 15
0.0
 25
0.0
 35
0.0
146
0.0
 13
0.0
 23
0.0
 33
0.0
 16
1.0
 26
0.0
 36
0.0
 17
0.0
 27
1.0
 37
0.0
 76
0
330
211
345
0
346
0
  0
ENDSEC
  0
EOF
