999
DXF file: C:\Users\sesa63760\Dev\_Creo\CAD\MCADPD0004667_3D-CAD\drw0001_1.dxf
999
Pro/ENGINEER 2019471 by Parametric Technology Corporation
  0
SECTION
  2
HEADER
  9
$ACADVER
  1
AC1024
  9
$DWGCODEPAGE
  3
ANSI_1252
  9
$EXTMAX
 10
230.3864248001
 20
325.8322293601
 30
0.0
  9
$EXTMIN
 10
0.0
 20
0.0
 30
0.0
  9
$LIMMIN
 10
0.0
 20
0.0
  9
$LIMMAX
 10
230.3864248001
 20
325.8322293601
  9
$VIEWCTR
 10
115.1932124
 20
162.9161146801
  9
$VIEWSIZE
 40
325.8322293601
  9
$CLAYER
  8
0
  9
$LTSCALE
 40
21.2394342101
  9
$CELTYPE
  6
BYLAYER
  9
$DIMSCALE
 40
1.0
  9
$DIMASZ
 40
2.7426955333
  9
$DIMEXO
 40
1.0
  9
$DIMDLI
 40
14.6745181816
  9
$DIMEXE
 40
1.0
  9
$DIMCEN
 40
3.4755437798
  9
$DIMLFAC
 40
1.0
  9
$DIMBLK
  1
_FILLED
  9
$DIMALT
 70
0
  9
$DIMALTF
 40
0.0393700787
  9
$DIMTXT
 40
3.8397737467
  9
$DIMTOL
 70
1
  9
$DIMLIM
 70
0
  9
$DIMTFAC
 40
1.0
  9
$DIMTP
 40
0.01
  9
$DIMTM
 40
0.01
  9
$DIMGAP
 40
0.625
  9
$DIMDSEP
 70
46
  9
$AUNITS
 70
0
  9
$PDMODE
 70
3
  9
$PDSIZE
 40
0.3125
  9
$HANDSEED
  5
378
  9
$TILEMODE
 70
1
  9
$MEASUREMENT
 70
1
  9
$INSUNITS
 70
4
  0
ENDSEC
  0
SECTION
  2
CLASSES
  0
CLASS
  1
ACDBDICTIONARYWDFLT
  2
AcDbDictionaryWithDefault
  3
AutoCAD 2000
 90
0
 91
1
280
0
281
0
  0
CLASS
  1
ACDBPLACEHOLDER
  2
AcDbPlaceHolder
  3
AutoCAD 2000
 90
0
 91
1
280
0
281
0
  0
CLASS
  1
LAYOUT
  2
AcDbLayout
  3
AutoCAD 2000
 90
0
 91
0
280
0
281
0
  0
ENDSEC
  0
SECTION
  2
TABLES
  0
TABLE
  2
VPORT
  5
8
100
AcDbSymbolTable
 70
2
  0
VPORT
  5
1F4
100
AcDbSymbolTableRecord
100
AcDbViewportTableRecord
  2
*ACTIVE
 70
0
 10
0.0
 20
0.0
 11
1.0
 21
1.0
 12
115.1932124
 22
162.9161146801
 13
0.0
 23
0.0
 14
1.0
 24
1.0
 15
0.0
 25
0.0
 16
0.0
 26
0.0
 36
1.0
 17
0.0
 27
0.0
 37
0.0
 40
325.8322293601
 41
0.7070707071
 42
50.0
 43
0.0
 44
0.0
 50
0.0
 51
0.0
 71
0
 72
100
 73
1
 74
1
 75
0
 76
0
 77
0
 78
0
  0
ENDTAB
  0
TABLE
  2
LTYPE
  5
5
100
AcDbSymbolTable
 70
6
  0
LTYPE
  5
14
100
AcDbSymbolTableRecord
100
AcDbLinetypeTableRecord
  2
BYBLOCK
 70
0
  3

 72
65
 73
0
 40
0.0
  0
LTYPE
  5
15
100
AcDbSymbolTableRecord
100
AcDbLinetypeTableRecord
  2
BYLAYER
 70
0
  3

 72
65
 73
0
 40
0.0
  0
LTYPE
  5
16
100
AcDbSymbolTableRecord
100
AcDbLinetypeTableRecord
  2
CONTINUOUS
 70
64
  3
Solid line
 72
65
 73
0
 40
0.0
  0
LTYPE
  5
1F5
100
AcDbSymbolTableRecord
100
AcDbLinetypeTableRecord
  2
CENTER
 70
64
  3
____ _ ____ _ ____ _ ____ _ ____ _ ____ _ ____
 72
65
 73
4
 40
0.6
 49
0.375
 74
0
 49
-0.075
 74
0
 49
0.075
 74
0
 49
-0.075
 74
0
  0
LTYPE
  5
1F6
100
AcDbSymbolTableRecord
100
AcDbLinetypeTableRecord
  2
HIDDEN
 70
64
  3
- - - - - - - - - - - - - - - - - - - -
 72
65
 73
2
 40
0.2
 49
0.1
 74
0
 49
-0.1
 74
0
  0
LTYPE
  5
1F7
100
AcDbSymbolTableRecord
100
AcDbLinetypeTableRecord
  2
PHANTOM
 70
64
  3
_____ _ _ _____ _ _ _____ _ _ _____
 72
65
 73
6
 40
0.8
 49
0.45
 74
0
 49
-0.05
 74
0
 49
0.1
 74
0
 49
-0.05
 74
0
 49
0.1
 74
0
 49
-0.05
 74
0
  0
LTYPE
  5
1F8
100
AcDbSymbolTableRecord
100
AcDbLinetypeTableRecord
  2
DOT
 70
64
  3
. . . . . . . . . . . . . . . . . . . .
 72
65
 73
2
 40
0.2
 49
0.1
 74
0
 49
-0.1
 74
0
  0
LTYPE
  5
1F9
100
AcDbSymbolTableRecord
100
AcDbLinetypeTableRecord
  2
DASHED
 70
64
  3
- - - - - - - - - - - - - - - - - - - -
 72
65
 73
2
 40
0.2
 49
0.1
 74
0
 49
-0.1
 74
0
  0
ENDTAB
  0
TABLE
  2
LAYER
  5
2
100
AcDbSymbolTable
 70
36
  0
LAYER
  5
10
100
AcDbSymbolTableRecord
100
AcDbLayerTableRecord
  2
0
 70
0
 62
7
  6
CONTINUOUS
370
-3
390
F
  0
LAYER
  5
1FA
100
AcDbSymbolTableRecord
100
AcDbLayerTableRecord
  2
DEFAULT_1
 70
0
 62
7
  6
CENTER
370
-3
390
F
  0
LAYER
  5
1FB
100
AcDbSymbolTableRecord
100
AcDbLayerTableRecord
  2
DEFAULT_2
 70
0
 62
7
  6
HIDDEN
370
-3
390
F
  0
LAYER
  5
1FC
100
AcDbSymbolTableRecord
100
AcDbLayerTableRecord
  2
DEFAULT_3
 70
0
 62
7
  6
PHANTOM
370
-3
390
F
  0
LAYER
  5
1FD
100
AcDbSymbolTableRecord
100
AcDbLayerTableRecord
  2
00_COMPONENTS
 70
0
 62
7
  6
CONTINUOUS
370
-3
390
F
  0
LAYER
  5
1FE
100
AcDbSymbolTableRecord
100
AcDbLayerTableRecord
  2
01_1_DEFAULT_DATUMS
 70
0
 62
7
  6
CONTINUOUS
370
-3
390
F
  0
LAYER
  5
1FF
100
AcDbSymbolTableRecord
100
AcDbLayerTableRecord
  2
01_PLANES
 70
0
 62
7
  6
CONTINUOUS
370
-3
390
F
  0
LAYER
  5
200
100
AcDbSymbolTableRecord
100
AcDbLayerTableRecord
  2
02_COORD_SYS
 70
0
 62
7
  6
CONTINUOUS
370
-3
390
F
  0
LAYER
  5
201
100
AcDbSymbolTableRecord
100
AcDbLayerTableRecord
  2
03_AXES
 70
0
 62
7
  6
CONTINUOUS
370
-3
390
F
  0
LAYER
  5
202
100
AcDbSymbolTableRecord
100
AcDbLayerTableRecord
  2
04_POINTS
 70
0
 62
7
  6
CONTINUOUS
370
-3
390
F
  0
LAYER
  5
203
100
AcDbSymbolTableRecord
100
AcDbLayerTableRecord
  2
05_CURVES
 70
0
 62
7
  6
CONTINUOUS
370
-3
390
F
  0
LAYER
  5
204
100
AcDbSymbolTableRecord
100
AcDbLayerTableRecord
  2
06_SURFS
 70
0
 62
7
  6
CONTINUOUS
370
-3
390
F
  0
LAYER
  5
205
100
AcDbSymbolTableRecord
100
AcDbLayerTableRecord
  2
07_COSMETICS
 70
0
 62
7
  6
CONTINUOUS
370
-3
390
F
  0
LAYER
  5
206
100
AcDbSymbolTableRecord
100
AcDbLayerTableRecord
  2
10_NOTES
 70
0
 62
7
  6
CONTINUOUS
370
-3
390
F
  0
LAYER
  5
207
100
AcDbSymbolTableRecord
100
AcDbLayerTableRecord
  2
11_NOTES_PUB
 70
0
 62
7
  6
CONTINUOUS
370
-3
390
F
  0
LAYER
  5
208
100
AcDbSymbolTableRecord
100
AcDbLayerTableRecord
  2
13_REF_GTOL
 70
0
 62
7
  6
CONTINUOUS
370
-3
390
F
  0
LAYER
  5
209
100
AcDbSymbolTableRecord
100
AcDbLayerTableRecord
  2
16_MISC
 70
0
 62
7
  6
CONTINUOUS
370
-3
390
F
  0
LAYER
  5
20A
100
AcDbSymbolTableRecord
100
AcDbLayerTableRecord
  2
17_NO_PRINT
 70
0
 62
7
  6
CONTINUOUS
370
-3
390
F
  0
LAYER
  5
20B
100
AcDbSymbolTableRecord
100
AcDbLayerTableRecord
  2
18_DATUM_CAMS_JOINTS
 70
0
 62
7
  6
CONTINUOUS
370
-3
390
F
  0
LAYER
  5
20C
100
AcDbSymbolTableRecord
100
AcDbLayerTableRecord
  2
19_DATUM_FUNCTIONAL
 70
0
 62
7
  6
CONTINUOUS
370
-3
390
F
  0
LAYER
  5
20D
100
AcDbSymbolTableRecord
100
AcDbLayerTableRecord
  2
20_DATUM_KINEMATIC_SCHEME
 70
0
 62
7
  6
CONTINUOUS
370
-3
390
F
  0
ENDTAB
  0
TABLE
  2
STYLE
  5
3
100
AcDbSymbolTable
 70
1
  0
STYLE
  5
11
100
AcDbSymbolTableRecord
100
AcDbTextStyleTableRecord
  2
STANDARD
 70
0
 40
0.0
 41
1.0
 50
0.0
 71
0
 42
0.2
  3
ARIAL.TTF
  4

  0
STYLE
  5
20E
100
AcDbSymbolTableRecord
100
AcDbTextStyleTableRecord
  2
TEXTSTYLE_1
 70
0
 40
0.0
 41
0.8
 50
0.0
 71
0
 42
0.2
  3
gdt
  4

  0
ENDTAB
  0
TABLE
  2
VIEW
  5
6
100
AcDbSymbolTable
 70
0
  0
ENDTAB
  0
TABLE
  2
UCS
  5
7
100
AcDbSymbolTable
 70
0
  0
ENDTAB
  0
TABLE
  2
APPID
  5
9
100
AcDbSymbolTable
 70
1
  0
APPID
  5
20F
100
AcDbSymbolTableRecord
100
AcDbRegAppTableRecord
  2
ACAD
 70
0
  0
ENDTAB
  0
TABLE
  2
BLOCK_RECORD
  5
1
100
AcDbSymbolTable
 70
0
  0
BLOCK_RECORD
  5
210
100
AcDbSymbolTableRecord
100
AcDbBlockTableRecord
  2
*Model_Space
  0
BLOCK_RECORD
  5
211
100
AcDbSymbolTableRecord
100
AcDbBlockTableRecord
  2
*Paper_Space
  0
BLOCK_RECORD
  5
212
100
AcDbSymbolTableRecord
100
AcDbBlockTableRecord
  2
_FILLED
  0
ENDTAB
  0
TABLE
  2
DIMSTYLE
  5
A
100
AcDbSymbolTable
 70
1
100
AcDbDimStyleTable
 71
0
  0
DIMSTYLE
105
213
100
AcDbSymbolTableRecord
100
AcDbDimStyleTableRecord
  2
STANDARD
 70
0
  3

  4

 40
1.0
 41
2.7426955333
 42
1.0
 43
0.38
 44
1.0
 45
0.0
 46
0.0
 47
0.01
 48
0.01
140
3.8397737467
141
0.09
142
0.0
143
25.4
144
1.0
145
0.0
146
1.0
147
0.625
 71
1
 72
0
 73
0
 74
0
 75
0
 76
0
 77
1
 78
8
 79
2
170
0
171
1
172
0
173
0
174
0
175
0
176
0
177
0
178
0
270
2
179
2
271
2
272
2
273
2
274
2
275
0
280
0
281
0
282
0
283
1
284
8
285
0
286
0
287
3
288
0
340
11
278
46
341
212
342
212
343
212
344
212
  0
ENDTAB
  0
ENDSEC
  0
SECTION
  2
BLOCKS
  0
BLOCK
  5
20
100
AcDbEntity
  8
0
100
AcDbBlockBegin
  2
*Model_Space
 70
0
 10
0.0
 20
0.0
 30
0.0
  3
*Model_Space
  1

  0
ENDBLK
  5
21
100
AcDbEntity
  8
0
100
AcDbBlockEnd
  0
BLOCK
  5
1C
100
AcDbEntity
  8
0
100
AcDbBlockBegin
  2
*Paper_Space
 70
0
 10
0.0
 20
0.0
 30
0.0
  3
*Paper_Space
  1

  0
ENDBLK
  5
1D
100
AcDbEntity
  8
0
100
AcDbBlockEnd
  0
BLOCK
  5
214
100
AcDbEntity
  8
0
100
AcDbBlockBegin
  2
_FILLED
 70
64
 10
0.0
 20
0.0
  3
_FILLED
  1

  0
SOLID
  5
215
100
AcDbEntity
  8
0
  6
BYBLOCK
 62
0
100
AcDbTrace
 10
0.0
 20
0.0
 11
-1.0
 21
0.25
 12
-1.0
 22
-0.25
 13
-1.0
 23
-0.25
  0
ENDBLK
  5
216
100
AcDbEntity
  8
0
  6
BYBLOCK
 62
0
100
AcDbBlockEnd
  0
ENDSEC
  0
SECTION
  2
ENTITIES
  0
LINE
  5
217
100
AcDbEntity
  8
0
100
AcDbLine
 62
7
  6
BYLAYER
 10
26.7274759356
 20
159.745395149
 11
26.7274759356
 21
142.3538936641
  0
LINE
  5
218
100
AcDbEntity
  8
0
100
AcDbLine
 62
7
  6
BYLAYER
 10
27.4887472467
 20
174.5629429594
 11
27.4887472467
 21
160.1389217161
  0
LINE
  5
219
100
AcDbEntity
  8
0
100
AcDbLine
 62
7
  6
BYLAYER
 10
81.0200141983
 20
245.4736056134
 11
75.3631717296
 21
242.2076173594
  0
LINE
  5
21A
100
AcDbEntity
  8
0
100
AcDbLine
 62
7
  6
BYLAYER
 10
96.1719161137
 20
241.2975159628
 11
100.7496405662
 21
243.9617551169
  0
LINE
  5
21B
100
AcDbEntity
  8
0
100
AcDbLine
 62
7
  6
BYLAYER
 10
48.4931552772
 20
200.9742838294
 11
48.4931552772
 21
186.689771244
  0
LINE
  5
21C
100
AcDbEntity
  8
0
100
AcDbLine
 62
7
  6
BYLAYER
 10
71.544790988
 20
214.3903147284
 11
48.4931552772
 21
200.9742450055
  0
LINE
  5
21D
100
AcDbEntity
  8
0
100
AcDbLine
 62
7
  6
BYLAYER
 10
99.4048670836
 20
234.859346014
 11
95.1622440675
 21
232.4098810866
  0
LINE
  5
21E
100
AcDbEntity
  8
0
100
AcDbLine
 62
7
  6
BYLAYER
 10
71.544790988
 20
217.8758238908
 11
75.3631717296
 21
220.0803538881
  0
LINE
  5
21F
100
AcDbEntity
  8
0
100
AcDbLine
 62
7
  6
BYLAYER
 10
74.5499955443
 20
217.7737705038
 11
75.3631717296
 21
218.2432551925
  0
LINE
  5
220
100
AcDbEntity
  8
0
100
AcDbLine
 62
7
  6
BYLAYER
 10
75.3631717296
 20
218.0391331152
 11
74.7267729759
 21
217.6717103154
  0
LINE
  5
221
100
AcDbEntity
  8
0
100
AcDbLine
 62
7
  6
BYLAYER
 10
100.8190865363
 20
232.4098596721
 11
96.5764635202
 21
229.9603947447
  0
LINE
  5
222
100
AcDbEntity
  8
0
100
AcDbLine
 62
7
  6
BYLAYER
 10
113.6882349832
 20
236.4918231653
 11
109.0920600491
 21
233.8382361606
  0
LINE
  5
223
100
AcDbEntity
  8
0
100
AcDbLine
 62
7
  6
BYLAYER
 10
54.7425452884
 20
124.2880151771
 11
54.7425452884
 21
141.679516662
  0
LINE
  5
224
100
AcDbEntity
  8
0
100
AcDbLine
 62
7
  6
BYLAYER
 10
56.2384939743
 20
142.4528225021
 11
56.2384939743
 21
125.0613210173
  0
LINE
  5
225
100
AcDbEntity
  8
0
100
AcDbLine
 62
7
  6
BYLAYER
 10
58.3184755138
 20
192.3623886859
 11
58.3666505781
 21
193.4516555486
  0
LINE
  5
226
100
AcDbEntity
  8
0
100
AcDbLine
 62
7
  6
BYLAYER
 10
96.1719161137
 20
241.2975159628
 11
94.2002699497
 21
237.8641535822
  0
LINE
  5
227
100
AcDbEntity
  8
0
100
AcDbLine
 62
7
  6
BYLAYER
 10
88.5280700846
 20
227.9867638214
 11
87.8167711275
 21
226.7481302747
  0
LINE
  5
228
100
AcDbEntity
  8
0
100
AcDbLine
 62
7
  6
BYLAYER
 10
79.2057387743
 20
210.2406708204
 11
69.4477058374
 21
204.6069014873
  0
LINE
  5
229
100
AcDbEntity
  8
0
100
AcDbLine
 62
7
  6
BYLAYER
 10
100.8190865363
 20
220.6983455971
 11
108.5063090667
 21
225.1365391171
  0
LINE
  5
22A
100
AcDbEntity
  8
0
100
AcDbLine
 62
7
  6
BYLAYER
 10
107.392159086
 20
95.9349771592
 11
75.7013175683
 21
114.2312790601
  0
LINE
  5
22B
100
AcDbEntity
  8
0
100
AcDbLine
 62
7
  6
BYLAYER
 10
68.2568120472
 20
197.8921008256
 11
68.2568120472
 21
201.9746323232
  0
LINE
  5
22C
100
AcDbEntity
  8
0
100
AcDbLine
 62
7
  6
BYLAYER
 10
98.1318592906
 20
240.1659678449
 11
96.1522664288
 21
236.7371933886
  0
LINE
  5
22D
100
AcDbEntity
  8
0
100
AcDbLine
 62
7
  6
BYLAYER
 10
89.5859288051
 20
225.3638998441
 11
89.3699586687
 21
224.9898265176
  0
LINE
  5
22E
100
AcDbEntity
  8
0
100
AcDbLine
 62
7
  6
BYLAYER
 10
60.7451638755
 20
194.8248826487
 11
58.3666505781
 21
193.4516555486
  0
LINE
  5
22F
100
AcDbEntity
  8
0
100
AcDbLine
 62
7
  6
BYLAYER
 10
114.9612810634
 20
225.8780494299
 11
109.3044385946
 21
222.6120611759
  0
LINE
  5
230
100
AcDbEntity
  8
0
100
AcDbLine
 62
7
  6
BYLAYER
 10
58.3184755138
 20
192.3623886859
 11
27.4887472467
 21
174.5629429594
  0
LINE
  5
231
100
AcDbEntity
  8
0
100
AcDbLine
 62
7
  6
BYLAYER
 10
100.8190865363
 20
212.8135970955
 11
109.3044385946
 21
217.7125881643
  0
LINE
  5
232
100
AcDbEntity
  8
0
100
AcDbLine
 62
7
  6
BYLAYER
 10
76.3885739003
 20
197.2798636543
 11
86.1466068372
 21
202.9136329873
  0
LINE
  5
233
100
AcDbEntity
  8
0
100
AcDbLine
 62
7
  6
BYLAYER
 10
94.0308685054
 20
206.526737736
 11
92.6166608334
 21
205.7102494269
  0
LINE
  5
234
100
AcDbEntity
  8
0
100
AcDbLine
 62
7
  6
BYLAYER
 10
65.5617503724
 20
192.0440880577
 11
72.5348258917
 21
195.4222054411
  0
LINE
  5
235
100
AcDbEntity
  8
0
100
AcDbLine
 62
7
  6
BYLAYER
 10
72.6857141195
 20
195.3350920533
 11
65.7126386002
 21
191.9569746698
  0
LINE
  5
236
100
AcDbEntity
  8
0
100
AcDbLine
 62
7
  6
BYLAYER
 10
119.1709002647
 20
102.7353959796
 11
125.069755023
 21
100.4255641247
  0
LINE
  5
237
100
AcDbEntity
  8
0
100
AcDbLine
 62
7
  6
BYLAYER
 10
103.7505684402
 20
106.5699399616
 11
96.3259163135
 21
110.8564678768
  0
LINE
  5
238
100
AcDbEntity
  8
0
100
AcDbLine
 62
7
  6
BYLAYER
 10
94.5581419976
 20
111.8770697613
 11
90.3154836395
 21
114.3265142843
  0
LINE
  5
239
100
AcDbEntity
  8
0
100
AcDbLine
 62
7
  6
BYLAYER
 10
107.392159086
 20
107.4476612407
 11
105.1647761122
 21
108.7336123037
  0
LINE
  5
23A
100
AcDbEntity
  8
0
100
AcDbLine
 62
7
  6
BYLAYER
 10
96.3259163135
 20
113.8366149251
 11
95.9723496696
 21
114.0407421034
  0
LINE
  5
23B
100
AcDbEntity
  8
0
100
AcDbLine
 62
7
  6
BYLAYER
 10
90.3154836395
 20
117.3066613325
 11
75.7013175683
 21
125.7439631416
  0
LINE
  5
23C
100
AcDbEntity
  8
0
100
AcDbLine
 62
7
  6
BYLAYER
 10
108.806366758
 20
108.2641495498
 11
105.1647761122
 21
110.3665291147
  0
LINE
  5
23D
100
AcDbEntity
  8
0
100
AcDbLine
 62
7
  6
BYLAYER
 10
90.3154836395
 20
118.9393897361
 11
77.120556291
 21
126.5571448093
  0
LINE
  5
23E
100
AcDbEntity
  8
0
100
AcDbLine
 62
7
  6
BYLAYER
 10
94.5581419976
 20
116.7760842641
 11
90.3154836395
 21
119.225528787
  0
LINE
  5
23F
100
AcDbEntity
  8
0
100
AcDbLine
 62
7
  6
BYLAYER
 10
96.3259163135
 20
115.7554823796
 11
103.7505684402
 21
111.4689544644
  0
LINE
  5
240
100
AcDbEntity
  8
0
100
AcDbLine
 62
7
  6
BYLAYER
 10
95.9723496696
 20
117.5925725733
 11
91.7296913115
 21
120.0420170962
  0
LINE
  5
241
100
AcDbEntity
  8
0
100
AcDbLine
 62
7
  6
BYLAYER
 10
97.7401239855
 20
116.5719706887
 11
105.1647761122
 21
112.2854427736
  0
LINE
  5
242
100
AcDbEntity
  8
0
100
AcDbLine
 62
7
  6
BYLAYER
 10
163.6811765514
 20
81.1538213778
 11
148.9732942432
 21
89.6452290574
  0
LINE
  5
243
100
AcDbEntity
  8
0
100
AcDbLine
 62
7
  6
BYLAYER
 10
98.2704318353
 20
118.9193503177
 11
95.3005709846
 21
120.6339614838
  0
LINE
  5
244
100
AcDbEntity
  8
0
100
AcDbLine
 62
7
  6
BYLAYER
 10
71.544790988
 20
217.8758238908
 11
71.544790988
 21
207.2612730562
  0
LINE
  5
245
100
AcDbEntity
  8
0
100
AcDbLine
 62
7
  6
BYLAYER
 10
72.5348258917
 20
195.2619940144
 11
72.5348258917
 21
195.422244265
  0
LINE
  5
246
100
AcDbEntity
  8
0
100
AcDbLine
 62
7
  6
BYLAYER
 10
75.3631717296
 20
242.2076173594
 11
75.3631717296
 21
217.3042936369
  0
LINE
  5
247
100
AcDbEntity
  8
0
100
AcDbLine
 62
7
  6
BYLAYER
 10
75.7013175683
 20
125.7439631416
 11
75.7013175683
 21
114.2312790601
  0
LINE
  5
248
100
AcDbEntity
  8
0
100
AcDbLine
 62
7
  6
BYLAYER
 10
76.3885739003
 20
197.2798636543
 11
76.3885739003
 21
193.1973127447
  0
LINE
  5
249
100
AcDbEntity
  8
0
100
AcDbLine
 62
7
  6
BYLAYER
 10
77.1257714408
 20
145.905643224
 11
77.1209044631
 21
126.5573458253
  0
LINE
  5
24A
100
AcDbEntity
  8
0
100
AcDbLine
 62
7
  6
BYLAYER
 10
100.8190865363
 20
223.5914399503
 11
107.3242857332
 21
234.8588380452
  0
LINE
  5
24B
100
AcDbEntity
  8
0
100
AcDbLine
 62
7
  6
BYLAYER
 10
109.0920600491
 20
233.8382361606
 11
101.8491362185
 21
221.2930415106
  0
LINE
  5
24C
100
AcDbEntity
  8
0
100
AcDbLine
 62
7
  6
BYLAYER
 10
109.3044385946
 20
213.6300178428
 11
100.8190865363
 21
208.7310267741
  0
LINE
  5
24D
100
AcDbEntity
  8
0
100
AcDbLine
 62
7
  6
BYLAYER
 10
100.8190865363
 20
207.5065359497
 11
96.5764635202
 21
205.0570710222
  0
LINE
  5
24E
100
AcDbEntity
  8
0
100
AcDbLine
 62
7
  6
BYLAYER
 10
76.3885739003
 20
193.1973127447
 11
86.1466068372
 21
198.8311014897
  0
LINE
  5
24F
100
AcDbEntity
  8
0
100
AcDbLine
 62
7
  6
BYLAYER
 10
99.8998303442
 20
199.3005745604
 11
92.6166608334
 21
195.0956597684
  0
LINE
  5
250
100
AcDbEntity
  8
0
100
AcDbLine
 62
7
  6
BYLAYER
 10
103.0080670019
 20
119.1235459688
 11
108.806366758
 21
115.7759717874
  0
LINE
  5
251
100
AcDbEntity
  8
0
100
AcDbLine
 62
7
  6
BYLAYER
 10
133.3461339486
 20
215.2637898305
 11
129.1035109326
 21
212.8143249031
  0
LINE
  5
252
100
AcDbEntity
  8
0
100
AcDbLine
 62
7
  6
BYLAYER
 10
90.684657984
 20
189.5916268965
 11
92.0422973491
 21
190.3754556732
  0
LINE
  5
253
100
AcDbEntity
  8
0
100
AcDbLine
 62
7
  6
BYLAYER
 10
92.0466607635
 20
190.3678979728
 11
109.3044385946
 21
200.3316212078
  0
LINE
  5
254
100
AcDbEntity
  8
0
100
AcDbLine
 62
7
  6
BYLAYER
 10
121.598238119
 20
207.4294073288
 11
122.6691411395
 21
208.0476897874
  0
LINE
  5
255
100
AcDbEntity
  8
0
100
AcDbLine
 62
7
  6
BYLAYER
 10
109.3044385946
 20
198.6068195725
 11
104.3546822908
 21
195.7490934866
  0
LINE
  5
256
100
AcDbEntity
  8
0
100
AcDbLine
 62
7
  6
BYLAYER
 10
134.7603534013
 20
212.8143034886
 11
130.5177303853
 21
210.3648385612
  0
LINE
  5
257
100
AcDbEntity
  8
0
100
AcDbLine
 62
7
  6
BYLAYER
 10
107.9609418953
 20
196.8514250689
 11
109.3751495673
 21
197.6679133781
  0
LINE
  5
258
100
AcDbEntity
  8
0
100
AcDbLine
 62
7
  6
BYLAYER
 10
28.2234246215
 20
160.5187009892
 11
26.7274759356
 21
159.745395149
  0
LINE
  5
259
100
AcDbEntity
  8
0
100
AcDbLine
 62
7
  6
BYLAYER
 10
77.1284974025
 20
145.9040694248
 11
103.0080670019
 21
130.9628310172
  0
LINE
  5
25A
100
AcDbEntity
  8
0
100
AcDbLine
 62
7
  6
BYLAYER
 10
154.5596142305
 20
103.1588236447
 11
142.1816678175
 21
110.3050726441
  0
LINE
  5
25B
100
AcDbEntity
  8
0
100
AcDbLine
 62
7
  6
BYLAYER
 10
86.1466068372
 20
202.9136329873
 11
86.1466068372
 21
198.8311014897
  0
LINE
  5
25C
100
AcDbEntity
  8
0
100
AcDbLine
 62
7
  6
BYLAYER
 10
89.6265795313
 20
187.252923557
 11
89.6265795313
 21
183.9868556527
  0
LINE
  5
25D
100
AcDbEntity
  8
0
100
AcDbLine
 62
7
  6
BYLAYER
 10
90.3154836395
 20
114.3265142843
 11
90.3154836395
 21
119.225528787
  0
LINE
  5
25E
100
AcDbEntity
  8
0
100
AcDbLine
 62
7
  6
BYLAYER
 10
92.6166608334
 20
205.7102494269
 11
92.6166608334
 21
195.0956985922
  0
LINE
  5
25F
100
AcDbEntity
  8
0
100
AcDbLine
 62
7
  6
BYLAYER
 10
134.7603534013
 20
204.9754584561
 11
136.3865161027
 21
205.9143183284
  0
LINE
  5
260
100
AcDbEntity
  8
0
100
AcDbLine
 62
7
  6
BYLAYER
 10
96.8514404463
 20
183.0817425418
 11
107.9609418953
 21
189.5029033147
  0
LINE
  5
261
100
AcDbEntity
  8
0
100
AcDbLine
 62
7
  6
BYLAYER
 10
136.3865161027
 20
202.6482504241
 11
134.7603534013
 21
201.7093905517
  0
LINE
  5
262
100
AcDbEntity
  8
0
100
AcDbLine
 62
7
  6
BYLAYER
 10
96.8514404463
 20
179.8156746375
 11
107.9609418953
 21
186.2368354104
  0
LINE
  5
263
100
AcDbEntity
  8
0
100
AcDbLine
 62
7
  6
BYLAYER
 10
165.448962648
 20
105.0365782332
 11
161.6588340485
 21
107.2247604896
  0
LINE
  5
264
100
AcDbEntity
  8
0
100
AcDbLine
 62
7
  6
BYLAYER
 10
94.5581419976
 20
111.8770697613
 11
94.5581419976
 21
116.7760842641
  0
LINE
  5
265
100
AcDbEntity
  8
0
100
AcDbLine
 62
7
  6
BYLAYER
 10
95.9723496696
 20
117.5925725733
 11
95.9723496696
 21
112.6935580705
  0
LINE
  5
266
100
AcDbEntity
  8
0
100
AcDbLine
 62
7
  6
BYLAYER
 10
96.3259163135
 20
110.8564678768
 11
96.3259163135
 21
115.7554823796
  0
LINE
  5
267
100
AcDbEntity
  8
0
100
AcDbLine
 62
7
  6
BYLAYER
 10
96.5764635202
 20
205.0570710222
 11
96.5764635202
 21
229.9603947447
  0
LINE
  5
268
100
AcDbEntity
  8
0
100
AcDbLine
 62
7
  6
BYLAYER
 10
96.8514404463
 20
179.8156746375
 11
96.8514404463
 21
183.0817425418
  0
LINE
  5
269
100
AcDbEntity
  8
0
100
AcDbLine
 62
7
  6
BYLAYER
 10
98.1318592906
 20
235.5943007765
 11
98.1318592906
 21
240.1659678449
  0
LINE
  5
26A
100
AcDbEntity
  8
0
100
AcDbLine
 62
7
  6
BYLAYER
 10
98.2704318353
 20
116.2658042363
 11
98.2704318353
 21
118.9193503177
  0
LINE
  5
26B
100
AcDbEntity
  8
0
100
AcDbLine
 62
7
  6
BYLAYER
 10
99.8998303442
 20
206.9758063059
 11
99.8998303442
 21
199.3006133843
  0
LINE
  5
26C
100
AcDbEntity
  8
0
100
AcDbLine
 62
7
  6
BYLAYER
 10
100.8190865363
 20
207.5065359497
 11
100.8190865363
 21
232.4098596721
  0
LINE
  5
26D
100
AcDbEntity
  8
0
100
AcDbLine
 62
7
  6
BYLAYER
 10
115.6218896816
 20
189.2162719985
 11
105.8638567447
 21
183.5825026654
  0
LINE
  5
26E
100
AcDbEntity
  8
0
100
AcDbLine
 62
7
  6
BYLAYER
 10
134.7603534013
 20
198.2450803315
 11
144.922459974
 21
204.1121402952
  0
LINE
  5
26F
100
AcDbEntity
  8
0
100
AcDbLine
 62
7
  6
BYLAYER
 10
148.9025479284
 20
206.2824932464
 11
143.2457054597
 21
203.0165049924
  0
LINE
  5
270
100
AcDbEntity
  8
0
100
AcDbLine
 62
7
  6
BYLAYER
 10
126.6960445276
 20
132.7997245808
 11
132.4943442837
 21
129.4521503994
  0
LINE
  5
271
100
AcDbEntity
  8
0
100
AcDbLine
 62
7
  6
BYLAYER
 10
173.0181158925
 20
108.505005832
 11
168.4744189922
 21
111.1282511058
  0
LINE
  5
272
100
AcDbEntity
  8
0
100
AcDbLine
 62
7
  6
BYLAYER
 10
103.0080670019
 20
119.1235459688
 11
103.0080670019
 21
130.9628310172
  0
LINE
  5
273
100
AcDbEntity
  8
0
100
AcDbLine
 62
7
  6
BYLAYER
 10
103.7505684402
 20
111.4689544644
 11
103.7505684402
 21
106.5699399616
  0
LINE
  5
274
100
AcDbEntity
  8
0
100
AcDbLine
 62
7
  6
BYLAYER
 10
104.6729629545
 20
176.8676825918
 11
104.6729629545
 21
180.9502335013
  0
LINE
  5
275
100
AcDbEntity
  8
0
100
AcDbLine
 62
7
  6
BYLAYER
 10
105.1647761122
 20
112.2854427736
 11
105.1647761122
 21
107.3864282708
  0
LINE
  5
276
100
AcDbEntity
  8
0
100
AcDbLine
 62
7
  6
BYLAYER
 10
107.392159086
 20
107.4476612407
 11
107.392159086
 21
95.9349771592
  0
LINE
  5
277
100
AcDbEntity
  8
0
100
AcDbLine
 62
7
  6
BYLAYER
 10
107.9609418953
 20
196.8514250689
 11
107.9609418953
 21
193.6670656421
  0
LINE
  5
278
100
AcDbEntity
  8
0
100
AcDbLine
 62
7
  6
BYLAYER
 10
107.9609418953
 20
186.2368742343
 11
107.9609418953
 21
189.5029033147
  0
LINE
  5
279
100
AcDbEntity
  8
0
100
AcDbLine
 62
7
  6
BYLAYER
 10
108.806366758
 20
115.7759717874
 11
108.806366758
 21
108.2641495498
  0
LINE
  5
27A
100
AcDbEntity
  8
0
100
AcDbLine
 62
7
  6
BYLAYER
 10
109.3044385946
 20
222.6120611759
 11
109.3044385946
 21
197.7087374534
  0
LINE
  5
27B
100
AcDbEntity
  8
0
100
AcDbLine
 62
7
  6
BYLAYER
 10
134.7603534013
 20
190.36033183
 11
143.2457054597
 21
195.2593228987
  0
LINE
  5
27C
100
AcDbEntity
  8
0
100
AcDbLine
 62
7
  6
BYLAYER
 10
112.8047248076
 20
176.2554648324
 11
122.5627577445
 21
181.8892341654
  0
LINE
  5
27D
100
AcDbEntity
  8
0
100
AcDbLine
 62
7
  6
BYLAYER
 10
136.3159812515
 20
188.8907653971
 11
134.7603534013
 21
187.9926285971
  0
LINE
  5
27E
100
AcDbEntity
  8
0
100
AcDbLine
 62
7
  6
BYLAYER
 10
130.4470194127
 20
185.5023389141
 11
129.0328117406
 21
184.685850605
  0
LINE
  5
27F
100
AcDbEntity
  8
0
100
AcDbLine
 62
7
  6
BYLAYER
 10
134.7603534013
 20
187.9109797662
 11
130.5177303853
 21
185.4615148388
  0
LINE
  5
280
100
AcDbEntity
  8
0
100
AcDbLine
 62
7
  6
BYLAYER
 10
143.2457054597
 20
191.1767525773
 11
136.3159812515
 21
187.1758983085
  0
LINE
  5
281
100
AcDbEntity
  8
0
100
AcDbLine
 62
7
  6
BYLAYER
 10
112.8047248076
 20
172.1729139229
 11
122.5627577445
 21
177.8067026678
  0
LINE
  5
282
100
AcDbEntity
  8
0
100
AcDbLine
 62
7
  6
BYLAYER
 10
136.3159812515
 20
185.7064059703
 11
129.0328117406
 21
181.5014911782
  0
LINE
  5
283
100
AcDbEntity
  8
0
100
AcDbLine
 62
7
  6
BYLAYER
 10
118.9655208364
 20
173.264032551
 11
120.3231602015
 21
174.0478613278
  0
LINE
  5
284
100
AcDbEntity
  8
0
100
AcDbLine
 62
7
  6
BYLAYER
 10
120.3292893978
 20
174.0372500428
 11
130.0890827546
 21
179.6720371529
  0
LINE
  5
285
100
AcDbEntity
  8
0
100
AcDbLine
 62
7
  6
BYLAYER
 10
138.4284974689
 20
184.4867717595
 11
143.2457054597
 21
187.2679714977
  0
LINE
  5
286
100
AcDbEntity
  8
0
100
AcDbLine
 62
7
  6
BYLAYER
 10
54.7425452884
 20
141.679516662
 11
56.2384939743
 21
142.4528225021
  0
LINE
  5
287
100
AcDbEntity
  8
0
100
AcDbLine
 62
7
  6
BYLAYER
 10
126.9645289287
 20
144.7940182457
 11
132.7628286848
 21
141.4464440643
  0
LINE
  5
288
100
AcDbEntity
  8
0
100
AcDbLine
 62
7
  6
BYLAYER
 10
147.5590747905
 20
92.0947153993
 11
148.9732942432
 21
89.6452290574
  0
LINE
  5
289
100
AcDbEntity
  8
0
100
AcDbLine
 62
7
  6
BYLAYER
 10
112.8047248076
 20
176.2554648324
 11
112.8047248076
 21
172.1729139229
  0
LINE
  5
28A
100
AcDbEntity
  8
0
100
AcDbLine
 62
7
  6
BYLAYER
 10
113.6882349832
 20
236.4918231653
 11
113.6882349832
 21
225.1430603176
  0
LINE
  5
28B
100
AcDbEntity
  8
0
100
AcDbLine
 62
7
  6
BYLAYER
 10
117.9074423838
 20
170.9253292116
 11
117.9074423838
 21
167.6592613072
  0
LINE
  5
28C
100
AcDbEntity
  8
0
100
AcDbLine
 62
7
  6
BYLAYER
 10
139.9222408559
 20
183.6243781258
 11
132.6390713451
 21
179.4194633337
  0
LINE
  5
28D
100
AcDbEntity
  8
0
100
AcDbLine
 62
7
  6
BYLAYER
 10
163.0447777976
 20
193.2187687196
 11
167.2874008137
 21
195.668233647
  0
LINE
  5
28E
100
AcDbEntity
  8
0
100
AcDbLine
 62
7
  6
BYLAYER
 10
164.4589972503
 20
190.7692823777
 11
168.7016202664
 21
193.2187473051
  0
LINE
  5
28F
100
AcDbEntity
  8
0
100
AcDbLine
 62
7
  6
BYLAYER
 10
58.3184755138
 20
192.3623886859
 11
139.6360940446
 21
145.4147019963
  0
LINE
  5
290
100
AcDbEntity
  8
0
100
AcDbLine
 62
7
  6
BYLAYER
 10
58.3666505781
 20
193.4516555486
 11
139.684269109
 21
146.503968859
  0
LINE
  5
291
100
AcDbEntity
  8
0
100
AcDbLine
 62
7
  6
BYLAYER
 10
48.4931552772
 20
200.9742450055
 11
59.9447907589
 21
194.3627897712
  0
LINE
  5
292
100
AcDbEntity
  8
0
100
AcDbLine
 62
7
  6
BYLAYER
 10
142.1816678175
 20
146.8843809315
 11
154.5596142305
 21
139.7381319321
  0
LINE
  5
293
100
AcDbEntity
  8
0
100
AcDbLine
 62
7
  6
BYLAYER
 10
191.6896002661
 20
119.1987268617
 11
202.6227127891
 21
112.8863122181
  0
LINE
  5
294
100
AcDbEntity
  8
0
100
AcDbLine
 62
7
  6
BYLAYER
 10
60.7451638755
 20
194.8248826487
 11
142.0627824064
 21
147.8771959591
  0
LINE
  5
295
100
AcDbEntity
  8
0
100
AcDbLine
 62
7
  6
BYLAYER
 10
122.5627577445
 20
181.8892341654
 11
122.5627577445
 21
177.8067026679
  0
LINE
  5
296
100
AcDbEntity
  8
0
100
AcDbLine
 62
7
  6
BYLAYER
 10
125.1323032988
 20
163.4880802921
 11
125.1323032988
 21
166.7541481964
  0
LINE
  5
297
100
AcDbEntity
  8
0
100
AcDbLine
 62
7
  6
BYLAYER
 10
125.1323032988
 20
166.7541481964
 11
144.0236361209
 21
177.6640529554
  0
LINE
  5
298
100
AcDbEntity
  8
0
100
AcDbLine
 62
7
  6
BYLAYER
 10
144.3770928026
 20
175.827026247
 11
145.7913004746
 21
176.6435145562
  0
LINE
  5
299
100
AcDbEntity
  8
0
100
AcDbLine
 62
7
  6
BYLAYER
 10
125.1323032988
 20
163.4880802921
 11
144.3770928026
 21
174.6012406163
  0
LINE
  5
29A
100
AcDbEntity
  8
0
100
AcDbLine
 62
7
  6
BYLAYER
 10
56.2384939743
 20
125.0613210173
 11
54.7425452884
 21
124.2880151771
  0
LINE
  5
29B
100
AcDbEntity
  8
0
100
AcDbLine
 62
7
  6
BYLAYER
 10
89.6265795313
 20
183.9868556527
 11
96.8514404463
 21
179.8156746375
  0
LINE
  5
29C
100
AcDbEntity
  8
0
100
AcDbLine
 62
7
  6
BYLAYER
 10
117.9074423838
 20
167.6592613072
 11
125.1323032988
 21
163.4880802921
  0
LINE
  5
29D
100
AcDbEntity
  8
0
100
AcDbLine
 62
7
  6
BYLAYER
 10
104.6729629545
 20
176.8676825918
 11
112.8047248076
 21
172.1729139229
  0
LINE
  5
29E
100
AcDbEntity
  8
0
100
AcDbLine
 62
7
  6
BYLAYER
 10
68.2568120472
 20
197.8921008256
 11
72.5348258917
 21
195.422244265
  0
LINE
  5
29F
100
AcDbEntity
  8
0
100
AcDbLine
 62
7
  6
BYLAYER
 10
144.9428618704
 20
153.6183910736
 11
149.2208757149
 21
151.1485345129
  0
LINE
  5
2A0
100
AcDbEntity
  8
0
100
AcDbLine
 62
7
  6
BYLAYER
 10
141.0891138618
 20
155.84328377
 11
144.8232790247
 21
153.6873918758
  0
LINE
  5
2A1
100
AcDbEntity
  8
0
100
AcDbLine
 62
7
  6
BYLAYER
 10
72.6857141195
 20
195.3350920533
 11
76.3885739003
 21
193.1973127447
  0
LINE
  5
2A2
100
AcDbEntity
  8
0
100
AcDbLine
 62
7
  6
BYLAYER
 10
129.0328117406
 20
184.685850605
 11
129.0328117406
 21
181.5014911782
  0
LINE
  5
2A3
100
AcDbEntity
  8
0
100
AcDbLine
 62
7
  6
BYLAYER
 10
130.5177303853
 20
185.4615148388
 11
130.5177303853
 21
210.3648385612
  0
LINE
  5
2A4
100
AcDbEntity
  8
0
100
AcDbLine
 62
7
  6
BYLAYER
 10
126.6960445276
 20
132.7997245808
 11
126.9645289287
 21
144.7940182457
  0
LINE
  5
2A5
100
AcDbEntity
  8
0
100
AcDbLine
 62
7
  6
BYLAYER
 10
132.7628286848
 20
141.4464440643
 11
132.4943442838
 21
129.4521503994
  0
LINE
  5
2A6
100
AcDbEntity
  8
0
100
AcDbLine
 62
7
  6
BYLAYER
 10
75.7013175683
 20
125.7439631416
 11
77.1146941597
 21
126.559971629
  0
LINE
  5
2A7
100
AcDbEntity
  8
0
100
AcDbLine
 62
7
  6
BYLAYER
 10
152.0380405889
 20
168.1918731766
 11
142.2800076521
 21
162.5581038436
  0
LINE
  5
2A8
100
AcDbEntity
  8
0
100
AcDbLine
 62
7
  6
BYLAYER
 10
168.7016202664
 20
175.7918150659
 11
181.3386108813
 21
183.0877414733
  0
LINE
  5
2A9
100
AcDbEntity
  8
0
100
AcDbLine
 62
7
  6
BYLAYER
 10
189.7025688536
 20
187.2987902248
 11
194.2987437877
 21
189.9523772295
  0
LINE
  5
2AA
100
AcDbEntity
  8
0
100
AcDbLine
 62
7
  6
BYLAYER
 10
71.544790988
 20
207.2612730562
 11
72.7950257509
 21
206.5394660112
  0
LINE
  5
2AB
100
AcDbEntity
  8
0
100
AcDbLine
 62
7
  6
BYLAYER
 10
86.1466068372
 20
198.8311014897
 11
92.6166608334
 21
195.0956985922
  0
LINE
  5
2AC
100
AcDbEntity
  8
0
100
AcDbLine
 62
7
  6
BYLAYER
 10
107.9609418953
 20
186.2368742343
 11
109.2111766582
 21
185.5150671893
  0
LINE
  5
2AD
100
AcDbEntity
  8
0
100
AcDbLine
 62
7
  6
BYLAYER
 10
122.5627577445
 20
177.8067026679
 11
124.7105014527
 21
176.566730316
  0
LINE
  5
2AE
100
AcDbEntity
  8
0
100
AcDbLine
 62
7
  6
BYLAYER
 10
144.3770928026
 20
165.2124754124
 11
145.6273275655
 21
164.4906683674
  0
LINE
  5
2AF
100
AcDbEntity
  8
0
100
AcDbLine
 62
7
  6
BYLAYER
 10
158.9789086518
 20
156.782303846
 11
165.448962648
 21
153.0469009485
  0
LINE
  5
2B0
100
AcDbEntity
  8
0
100
AcDbLine
 62
7
  6
BYLAYER
 10
205.8174534614
 20
130.556141422
 11
207.2373382046
 21
129.7363891314
  0
LINE
  5
2B1
100
AcDbEntity
  8
0
100
AcDbLine
 62
7
  6
BYLAYER
 10
96.5764635202
 20
229.9603947447
 11
95.1622440675
 21
232.4098810866
  0
LINE
  5
2B2
100
AcDbEntity
  8
0
100
AcDbLine
 62
7
  6
BYLAYER
 10
142.1109574707
 20
146.8435565373
 11
142.0627824064
 21
147.8771959591
  0
LINE
  5
2B3
100
AcDbEntity
  8
0
100
AcDbLine
 62
7
  6
BYLAYER
 10
134.7603534013
 20
187.9109797662
 11
134.7603534013
 21
212.8143034886
  0
LINE
  5
2B4
100
AcDbEntity
  8
0
100
AcDbLine
 62
7
  6
BYLAYER
 10
136.3159812515
 20
188.8907653971
 11
136.3159812515
 21
185.7064059703
  0
LINE
  5
2B5
100
AcDbEntity
  8
0
100
AcDbLine
 62
7
  6
BYLAYER
 10
136.3865161027
 20
202.6482892479
 11
136.3865161027
 21
205.9143183284
  0
LINE
  5
2B6
100
AcDbEntity
  8
0
100
AcDbLine
 62
7
  6
BYLAYER
 10
141.0891138618
 20
155.8432837699
 11
141.0891138618
 21
159.9258346795
  0
LINE
  5
2B7
100
AcDbEntity
  8
0
100
AcDbLine
 62
7
  6
BYLAYER
 10
142.1816678175
 20
146.8844003434
 11
142.1816678175
 21
110.305092056
  0
LINE
  5
2B8
100
AcDbEntity
  8
0
100
AcDbLine
 62
7
  6
BYLAYER
 10
139.684269109
 20
146.5039688589
 11
139.6360940447
 21
145.4147019963
  0
LINE
  5
2B9
100
AcDbEntity
  8
0
100
AcDbLine
 62
7
  6
BYLAYER
 10
138.9721825227
 20
149.6615142612
 11
144.8232790247
 21
153.6873918758
  0
LINE
  5
2BA
100
AcDbEntity
  8
0
100
AcDbLine
 62
7
  6
BYLAYER
 10
144.9428618704
 20
153.6183522497
 11
139.0917653684
 21
149.5924746351
  0
LINE
  5
2BB
100
AcDbEntity
  8
0
100
AcDbLine
 62
7
  6
BYLAYER
 10
126.9645289287
 20
144.7940182457
 11
103.0080670019
 21
130.9628310172
  0
LINE
  5
2BC
100
AcDbEntity
  8
0
100
AcDbLine
 62
7
  6
BYLAYER
 10
164.4589972503
 20
165.8659586553
 11
168.7016202664
 21
168.3154235827
  0
LINE
  5
2BD
100
AcDbEntity
  8
0
100
AcDbLine
 62
7
  6
BYLAYER
 10
170.6816116966
 20
169.0502083299
 11
183.4093361021
 21
176.3985196032
  0
LINE
  5
2BE
100
AcDbEntity
  8
0
100
AcDbLine
 62
7
  6
BYLAYER
 10
165.0953960041
 20
165.4985419768
 11
169.3380190201
 21
167.9480069042
  0
LINE
  5
2BF
100
AcDbEntity
  8
0
100
AcDbLine
 62
7
  6
BYLAYER
 10
169.7269276024
 20
167.9684199622
 11
165.2721734356
 21
165.3964817884
  0
LINE
  5
2C0
100
AcDbEntity
  8
0
100
AcDbLine
 62
7
  6
BYLAYER
 10
149.2208757149
 20
155.2310660105
 11
158.9789086518
 21
160.8648353436
  0
LINE
  5
2C1
100
AcDbEntity
  8
0
100
AcDbLine
 62
7
  6
BYLAYER
 10
172.7321321588
 20
167.8663665752
 11
165.448962648
 21
163.6614517831
  0
LINE
  5
2C2
100
AcDbEntity
  8
0
100
AcDbLine
 62
7
  6
BYLAYER
 10
90.3154836395
 20
119.225528787
 11
91.7296913115
 21
120.0420170962
  0
LINE
  5
2C3
100
AcDbEntity
  8
0
100
AcDbLine
 62
7
  6
BYLAYER
 10
179.8737719471
 20
170.2747025427
 11
172.7321321588
 21
166.1514994866
  0
LINE
  5
2C4
100
AcDbEntity
  8
0
100
AcDbLine
 62
7
  6
BYLAYER
 10
132.6390713451
 20
179.4194633337
 11
129.0328117406
 21
181.5014911782
  0
LINE
  5
2C5
100
AcDbEntity
  8
0
100
AcDbLine
 62
7
  6
BYLAYER
 10
107.9609418953
 20
193.6670656421
 11
104.3546822908
 21
195.7490934866
  0
LINE
  5
2C6
100
AcDbEntity
  8
0
100
AcDbLine
 62
7
  6
BYLAYER
 10
165.448962648
 20
163.6614517831
 11
144.3770928026
 21
175.827026247
  0
LINE
  5
2C7
100
AcDbEntity
  8
0
100
AcDbLine
 62
7
  6
BYLAYER
 10
129.0328117406
 20
184.685850605
 11
107.9609418953
 21
196.8514250689
  0
LINE
  5
2C8
100
AcDbEntity
  8
0
100
AcDbLine
 62
7
  6
BYLAYER
 10
92.6166608334
 20
205.7102494269
 11
71.544790988
 21
217.8758238908
  0
LINE
  5
2C9
100
AcDbEntity
  8
0
100
AcDbLine
 62
7
  6
BYLAYER
 10
99.4048670836
 20
234.859346014
 11
100.8190865363
 21
232.4098596721
  0
LINE
  5
2CA
100
AcDbEntity
  8
0
100
AcDbLine
 62
7
  6
BYLAYER
 10
143.2457054597
 20
178.1131812699
 11
143.2457054597
 21
203.0165049924
  0
LINE
  5
2CB
100
AcDbEntity
  8
0
100
AcDbLine
 62
7
  6
BYLAYER
 10
144.3770928026
 20
175.827026247
 11
144.3770928026
 21
165.2124754124
  0
LINE
  5
2CC
100
AcDbEntity
  8
0
100
AcDbLine
 62
7
  6
BYLAYER
 10
144.8232790247
 20
153.6873918758
 11
144.8232790247
 21
153.5360726459
  0
LINE
  5
2CD
100
AcDbEntity
  8
0
100
AcDbLine
 62
7
  6
BYLAYER
 10
147.5590747905
 20
92.0947153993
 11
147.5590747905
 21
107.2004955262
  0
LINE
  5
2CE
100
AcDbEntity
  8
0
100
AcDbLine
 62
7
  6
BYLAYER
 10
149.2208757149
 20
155.2310660105
 11
149.2208757149
 21
151.1485345129
  0
LINE
  5
2CF
100
AcDbEntity
  8
0
100
AcDbLine
 62
7
  6
BYLAYER
 10
142.1816678175
 20
146.8844003434
 11
142.1109574707
 21
146.8435565373
  0
LINE
  5
2D0
100
AcDbEntity
  8
0
100
AcDbLine
 62
7
  6
BYLAYER
 10
142.0627824064
 20
147.8771959591
 11
139.684269109
 21
146.5039688589
  0
LINE
  5
2D1
100
AcDbEntity
  8
0
100
AcDbLine
 62
7
  6
BYLAYER
 10
93.0024998151
 20
119.3071773908
 11
95.3005709846
 21
120.6339614838
  0
LINE
  5
2D2
100
AcDbEntity
  8
0
100
AcDbLine
 62
7
  6
BYLAYER
 10
149.2208757149
 20
151.1485345129
 11
158.9789086518
 21
156.782303846
  0
LINE
  5
2D3
100
AcDbEntity
  8
0
100
AcDbLine
 62
7
  6
BYLAYER
 10
139.6360940447
 20
145.4147019963
 11
132.7628286848
 21
141.4464440643
  0
LINE
  5
2D4
100
AcDbEntity
  8
0
100
AcDbLine
 62
7
  6
BYLAYER
 10
191.4703431695
 20
174.5205535336
 11
181.2880479311
 21
168.6418377078
  0
LINE
  5
2D5
100
AcDbEntity
  8
0
100
AcDbLine
 62
7
  6
BYLAYER
 10
94.5581419976
 20
116.7760842641
 11
98.2704318353
 21
118.9193503177
  0
LINE
  5
2D6
100
AcDbEntity
  8
0
100
AcDbLine
 62
7
  6
BYLAYER
 10
96.3259163135
 20
115.7554823796
 11
97.7401239855
 21
116.5719706887
  0
LINE
  5
2D7
100
AcDbEntity
  8
0
100
AcDbLine
 62
7
  6
BYLAYER
 10
126.6960445276
 20
132.7997245808
 11
103.0080670019
 21
119.1235459688
  0
LINE
  5
2D8
100
AcDbEntity
  8
0
100
AcDbLine
 62
7
  6
BYLAYER
 10
96.3259163135
 20
114.3673803034
 11
95.9723496696
 21
114.1632497241
  0
LINE
  5
2D9
100
AcDbEntity
  8
0
100
AcDbLine
 62
7
  6
BYLAYER
 10
101.7959385583
 20
116.4056580498
 11
99.9120811941
 21
115.3180189821
  0
LINE
  5
2DA
100
AcDbEntity
  8
0
100
AcDbLine
 62
7
  6
BYLAYER
 10
172.7321321588
 20
157.2517769167
 11
165.448962648
 21
153.0468621246
  0
LINE
  5
2DB
100
AcDbEntity
  8
0
100
AcDbLine
 62
7
  6
BYLAYER
 10
95.9723496696
 20
112.6935580705
 11
94.5581419976
 21
111.8770697613
  0
LINE
  5
2DC
100
AcDbEntity
  8
0
100
AcDbLine
 62
7
  6
BYLAYER
 10
207.2373382046
 20
182.482445278
 11
202.6227127891
 21
179.8395104227
  0
LINE
  5
2DD
100
AcDbEntity
  8
0
100
AcDbLine
 62
7
  6
BYLAYER
 10
165.2721734356
 20
165.3964817884
 11
165.0953960041
 21
165.4985419768
  0
LINE
  5
2DE
100
AcDbEntity
  8
0
100
AcDbLine
 62
7
  6
BYLAYER
 10
164.4589972503
 20
165.8659586553
 11
143.2457054597
 21
178.1131812699
  0
LINE
  5
2DF
100
AcDbEntity
  8
0
100
AcDbLine
 62
7
  6
BYLAYER
 10
74.7267729759
 20
217.6717103154
 11
74.5499955443
 21
217.7737705038
  0
LINE
  5
2E0
100
AcDbEntity
  8
0
100
AcDbLine
 62
7
  6
BYLAYER
 10
75.3631717296
 20
217.3042936369
 11
96.5764635202
 21
205.0570710222
  0
LINE
  5
2E1
100
AcDbEntity
  8
0
100
AcDbLine
 62
7
  6
BYLAYER
 10
109.3044385946
 20
197.7087374534
 11
130.5177303853
 21
185.4615148388
  0
LINE
  5
2E2
100
AcDbEntity
  8
0
100
AcDbLine
 62
7
  6
BYLAYER
 10
139.9222408559
 20
183.6243781258
 11
136.3159812515
 21
185.7064059703
  0
LINE
  5
2E3
100
AcDbEntity
  8
0
100
AcDbLine
 62
7
  6
BYLAYER
 10
168.7016202664
 20
168.3154235827
 11
169.3380190201
 21
167.9480069042
  0
LINE
  5
2E4
100
AcDbEntity
  8
0
100
AcDbLine
 62
7
  6
BYLAYER
 10
168.7016202664
 20
168.560368035
 11
169.7269276024
 21
167.9684199622
  0
LINE
  5
2E5
100
AcDbEntity
  8
0
100
AcDbLine
 62
7
  6
BYLAYER
 10
134.7603534013
 20
189.7888872338
 11
136.3159812515
 21
188.8907653971
  0
LINE
  5
2E6
100
AcDbEntity
  8
0
100
AcDbLine
 62
7
  6
BYLAYER
 10
168.7016202664
 20
170.1933310503
 11
172.7321321588
 21
167.8663665752
  0
LINE
  5
2E7
100
AcDbEntity
  8
0
100
AcDbLine
 62
7
  6
BYLAYER
 10
154.5596142305
 20
139.738170756
 11
154.5596142305
 21
103.1588624686
  0
LINE
  5
2E8
100
AcDbEntity
  8
0
100
AcDbLine
 62
7
  6
BYLAYER
 10
132.4943442838
 20
129.4521503994
 11
108.806366758
 21
115.7759717874
  0
LINE
  5
2E9
100
AcDbEntity
  8
0
100
AcDbLine
 62
7
  6
BYLAYER
 10
103.7505684402
 20
111.4689544644
 11
105.1647761122
 21
112.2854427736
  0
LINE
  5
2EA
100
AcDbEntity
  8
0
100
AcDbLine
 62
7
  6
BYLAYER
 10
154.5596142305
 20
139.7381319321
 11
191.6896002661
 21
161.0035923829
  0
LINE
  5
2EB
100
AcDbEntity
  8
0
100
AcDbLine
 62
7
  6
BYLAYER
 10
205.8174534614
 20
167.4620924952
 11
207.2373382046
 21
168.2753032199
  0
LINE
  5
2EC
100
AcDbEntity
  8
0
100
AcDbLine
 62
7
  6
BYLAYER
 10
178.8131613736
 20
168.4376784618
 11
191.6895918606
 21
161.0036360599
  0
LINE
  5
2ED
100
AcDbEntity
  8
0
100
AcDbLine
 62
7
  6
BYLAYER
 10
190.4804743737
 20
163.3347079081
 11
181.2880479311
 21
168.6418377078
  0
LINE
  5
2EE
100
AcDbEntity
  8
0
100
AcDbLine
 62
7
  6
BYLAYER
 10
130.5177303853
 20
210.3648385612
 11
129.1035109326
 21
212.8143249031
  0
LINE
  5
2EF
100
AcDbEntity
  8
0
100
AcDbLine
 62
7
  6
BYLAYER
 10
133.3461339486
 20
215.2637898305
 11
134.7603534013
 21
212.8143034886
  0
LINE
  5
2F0
100
AcDbEntity
  8
0
100
AcDbLine
 62
7
  6
BYLAYER
 10
158.9789086518
 20
160.8648353436
 11
158.9789086518
 21
156.782303846
  0
LINE
  5
2F1
100
AcDbEntity
  8
0
100
AcDbLine
 62
7
  6
BYLAYER
 10
164.4589972503
 20
190.7692823777
 11
164.4589972503
 21
165.8659586553
  0
LINE
  5
2F2
100
AcDbEntity
  8
0
100
AcDbLine
 62
7
  6
BYLAYER
 10
165.0953960041
 20
105.2407054116
 11
165.0953960041
 21
81.9703447045
  0
LINE
  5
2F3
100
AcDbEntity
  8
0
100
AcDbLine
 62
7
  6
BYLAYER
 10
165.448962648
 20
163.6614517831
 11
165.448962648
 21
153.0469009485
  0
LINE
  5
2F4
100
AcDbEntity
  8
0
100
AcDbLine
 62
7
  6
BYLAYER
 10
165.448962648
 20
105.0365782332
 11
165.448962648
 21
109.3954812046
  0
LINE
  5
2F5
100
AcDbEntity
  8
0
100
AcDbLine
 62
7
  6
BYLAYER
 10
103.7505684402
 20
106.5699399616
 11
105.1647761122
 21
107.3864282708
  0
LINE
  5
2F6
100
AcDbEntity
  8
0
100
AcDbLine
 62
7
  6
BYLAYER
 10
108.806366758
 20
108.2641495498
 11
107.392159086
 21
107.4476612407
  0
LINE
  5
2F7
100
AcDbEntity
  8
0
100
AcDbLine
 62
7
  6
BYLAYER
 10
176.509994394
 20
180.2999550759
 11
168.7016202664
 21
184.8080199789
  0
LINE
  5
2F8
100
AcDbEntity
  8
0
100
AcDbLine
 62
7
  6
BYLAYER
 10
140.0938434867
 20
201.3243538978
 11
136.3865161027
 21
203.4647319318
  0
LINE
  5
2F9
100
AcDbEntity
  8
0
100
AcDbLine
 62
7
  6
BYLAYER
 10
195.5715568036
 20
172.1527703125
 11
191.4703431695
 21
174.5205535336
  0
LINE
  5
2FA
100
AcDbEntity
  8
0
100
AcDbLine
 62
7
  6
BYLAYER
 10
102.2330729247
 20
226.0405498171
 11
100.8190865363
 21
226.856896768
  0
LINE
  5
2FB
100
AcDbEntity
  8
0
100
AcDbLine
 62
7
  6
BYLAYER
 10
129.1035109326
 20
212.8143249031
 11
110.7186580473
 21
223.4285845025
  0
LINE
  5
2FC
100
AcDbEntity
  8
0
100
AcDbLine
 62
7
  6
BYLAYER
 10
95.1622440675
 20
232.4098810866
 11
76.7773911823
 21
243.024140686
  0
LINE
  5
2FD
100
AcDbEntity
  8
0
100
AcDbLine
 62
7
  6
BYLAYER
 10
144.6599249124
 20
203.833028319
 11
163.0447777976
 21
193.2187687196
  0
LINE
  5
2FE
100
AcDbEntity
  8
0
100
AcDbLine
 62
7
  6
BYLAYER
 10
168.7016202664
 20
193.2187473051
 11
168.7016202664
 21
168.3154235827
  0
LINE
  5
2FF
100
AcDbEntity
  8
0
100
AcDbLine
 62
7
  6
BYLAYER
 10
169.3380190201
 20
167.9480069042
 11
169.3380190201
 21
167.743884827
  0
LINE
  5
300
100
AcDbEntity
  8
0
100
AcDbLine
 62
7
  6
BYLAYER
 10
169.3380190201
 20
107.2819125814
 11
169.3380190201
 21
84.4198096319
  0
LINE
  5
301
100
AcDbEntity
  8
0
100
AcDbLine
 62
7
  6
BYLAYER
 10
172.7321321588
 20
167.8663665752
 11
172.7321321588
 21
157.2518157406
  0
LINE
  5
302
100
AcDbEntity
  8
0
100
AcDbLine
 62
7
  6
BYLAYER
 10
173.0181158926
 20
113.7306018896
 11
173.0181158926
 21
108.5050058319
  0
LINE
  5
303
100
AcDbEntity
  8
0
100
AcDbLine
 62
7
  6
BYLAYER
 10
178.8131697792
 20
168.4376736087
 11
189.7025688536
 21
187.2987902248
  0
LINE
  5
304
100
AcDbEntity
  8
0
100
AcDbLine
 62
7
  6
BYLAYER
 10
191.4703431696
 20
186.2781883403
 11
181.2880479311
 21
168.6418377078
  0
LINE
  5
305
100
AcDbEntity
  8
0
100
AcDbLine
 62
7
  6
BYLAYER
 10
119.1709002647
 20
102.7353959796
 11
107.392159086
 21
95.9349771592
  0
LINE
  5
306
100
AcDbEntity
  8
0
100
AcDbLine
 62
7
  6
BYLAYER
 10
133.3461339486
 20
215.2637898305
 11
114.9612810634
 21
225.8780494299
  0
LINE
  5
307
100
AcDbEntity
  8
0
100
AcDbLine
 62
7
  6
BYLAYER
 10
99.4048670836
 20
234.859346014
 11
81.0200141983
 21
245.4736056134
  0
LINE
  5
308
100
AcDbEntity
  8
0
100
AcDbLine
 62
7
  6
BYLAYER
 10
148.9025479284
 20
206.2824932464
 11
167.2874008137
 21
195.668233647
  0
LINE
  5
309
100
AcDbEntity
  8
0
100
AcDbLine
 62
7
  6
BYLAYER
 10
202.622712789
 20
179.8395104227
 11
189.7025688536
 21
187.2987902248
  0
LINE
  5
30A
100
AcDbEntity
  8
0
100
AcDbLine
 62
7
  6
BYLAYER
 10
109.0920600491
 20
233.8382361606
 11
96.1719161137
 21
241.2975159628
  0
LINE
  5
30B
100
AcDbEntity
  8
0
100
AcDbLine
 62
7
  6
BYLAYER
 10
164.4589972503
 20
190.7692823777
 11
163.0447777976
 21
193.2187687196
  0
LINE
  5
30C
100
AcDbEntity
  8
0
100
AcDbLine
 62
7
  6
BYLAYER
 10
190.4804743737
 20
163.3347079081
 11
200.6627696122
 21
180.9710585406
  0
LINE
  5
30D
100
AcDbEntity
  8
0
100
AcDbLine
 62
7
  6
BYLAYER
 10
202.6227127891
 20
179.8395104227
 11
191.6896002661
 21
161.0036312068
  0
LINE
  5
30E
100
AcDbEntity
  8
0
100
AcDbLine
 62
7
  6
BYLAYER
 10
125.069755023
 20
100.4255641247
 11
142.1816678175
 21
110.305092056
  0
LINE
  5
30F
100
AcDbEntity
  8
0
100
AcDbLine
 62
7
  6
BYLAYER
 10
100.7496405663
 20
243.9617551169
 11
113.6882349832
 21
236.4918231653
  0
LINE
  5
310
100
AcDbEntity
  8
0
100
AcDbLine
 62
7
  6
BYLAYER
 10
194.2987437877
 20
189.9523772295
 11
207.2373382046
 21
182.482445278
  0
LINE
  5
311
100
AcDbEntity
  8
0
100
AcDbLine
 62
7
  6
BYLAYER
 10
167.2874008137
 20
195.668233647
 11
168.7016202664
 21
193.2187473051
  0
LINE
  5
312
100
AcDbEntity
  8
0
100
AcDbLine
 62
7
  6
BYLAYER
 10
173.0181158926
 20
113.7305630657
 11
154.5596142305
 21
103.1588236447
  0
LINE
  5
313
100
AcDbEntity
  8
0
100
AcDbLine
 62
7
  6
BYLAYER
 10
205.8174534614
 20
128.9231784067
 11
207.2373382046
 21
129.7363891314
  0
LINE
  5
314
100
AcDbEntity
  8
0
100
AcDbLine
 62
7
  6
BYLAYER
 10
191.4703431696
 20
174.5205535336
 11
191.4703431696
 21
186.2781883403
  0
LINE
  5
315
100
AcDbEntity
  8
0
100
AcDbLine
 62
7
  6
BYLAYER
 10
172.2372970973
 20
108.9558015737
 11
165.448962648
 21
105.0365782332
  0
LINE
  5
316
100
AcDbEntity
  8
0
100
AcDbLine
 62
7
  6
BYLAYER
 10
191.6896002661
 20
119.1987268617
 11
173.0181158925
 21
108.505005832
  0
LINE
  5
317
100
AcDbEntity
  8
0
100
AcDbLine
 62
7
  6
BYLAYER
 10
205.8174534614
 20
128.9231784067
 11
205.8174534614
 21
167.4620924952
  0
LINE
  5
318
100
AcDbEntity
  8
0
100
AcDbLine
 62
7
  6
BYLAYER
 10
207.2373382046
 20
182.482445278
 11
207.2373382046
 21
168.2753032199
  0
LINE
  5
319
100
AcDbEntity
  8
0
100
AcDbLine
 62
7
  6
BYLAYER
 10
207.2373382046
 20
129.7363891314
 11
207.2373382046
 21
115.5292470733
  0
LINE
  5
31A
100
AcDbEntity
  8
0
100
AcDbLine
 62
7
  6
BYLAYER
 10
207.2373382046
 20
115.5292470733
 11
202.6227127891
 21
112.8863122181
  0
LINE
  5
31B
100
AcDbEntity
  8
0
100
AcDbLine
 62
7
  6
BYLAYER
 10
163.6811765513
 20
81.1538213779
 11
169.3380190201
 21
84.4198096319
  0
ARC
  5
31C
100
AcDbEntity
  8
0
100
AcDbCircle
 62
7
  6
BYLAYER
 10
94.4313541915
 20
110.9540875228
 40
1.0866784029
100
AcDbArc
 50
113.0805669305
 51
120.0160005052
  0
SPLINE
  5
31D
100
AcDbEntity
  8
0
100
AcDbSpline
 62
7
  6
BYLAYER
 70
0
 71
3
 72
11
 73
7
 74
0
 42
0.0000001
 43
0.0000001
 44
0.0000000001
 40
0.0
 40
0.0
 40
0.0
 40
0.0
 40
0.2896413962
 40
0.5491107668
 40
0.7822355977
 40
1.0
 40
1.0
 40
1.0
 40
1.0
 10
111.7440602181
 20
176.8678259631
 30
0.0
 10
111.7440602181
 20
176.6525327957
 30
0.0
 10
111.711335577
 20
176.2429942318
 30
0.0
 10
111.5455797347
 20
175.6803014073
 30
0.0
 10
111.2663646357
 20
175.2235961605
 30
0.0
 10
111.0039442823
 20
175.0032905793
 30
0.0
 10
110.8637962505
 20
174.92230147
 30
0.0
  0
SPLINE
  5
31E
100
AcDbEntity
  8
0
100
AcDbSpline
 62
7
  6
BYLAYER
 70
0
 71
3
 72
16
 73
12
 74
0
 42
0.0000001
 43
0.0000001
 44
0.0000000001
 40
0.0
 40
0.0
 40
0.0
 40
0.0
 40
0.0428765743
 40
0.0875234668
 40
0.1869286092
 40
0.3042403425
 40
0.4379658106
 40
0.5823707712
 40
0.7295934221
 40
0.8712541043
 40
1.0
 40
1.0
 40
1.0
 40
1.0
 10
143.0300424189
 20
161.2589980419
 30
0.0
 10
143.1347911913
 20
161.319530535
 30
0.0
 10
143.3657725017
 20
161.415483652
 30
0.0
 10
143.8921734401
 20
161.4926864356
 30
0.0
 10
144.6353457013
 20
161.3475688373
 30
0.0
 10
145.5107958085
 20
160.8673895735
 30
0.0
 10
146.352312384
 20
160.1230721281
 30
0.0
 10
147.0946254328
 20
159.172511839
 30
0.0
 10
147.6792773012
 20
158.092102274
 30
0.0
 10
148.0585682366
 20
156.9705536245
 30
0.0
 10
148.1602111253
 20
156.2066989985
 30
0.0
 10
148.1602111253
 20
155.8434271413
 30
0.0
  0
SPLINE
  5
31F
100
AcDbEntity
  8
0
100
AcDbSpline
 62
7
  6
BYLAYER
 70
0
 71
3
 72
16
 73
12
 74
0
 42
0.0000001
 43
0.0000001
 44
0.0000000001
 40
0.0
 40
0.0
 40
0.0
 40
0.0
 40
0.0428765743
 40
0.0875234668
 40
0.1869286092
 40
0.3042403425
 40
0.4379658106
 40
0.5823707712
 40
0.7295934221
 40
0.8712541043
 40
1.0
 40
1.0
 40
1.0
 40
1.0
 10
70.1977406044
 20
203.3077956856
 30
0.0
 10
70.3024893767
 20
203.3683281787
 30
0.0
 10
70.5334706871
 20
203.4642812957
 30
0.0
 10
71.0598716255
 20
203.5414840794
 30
0.0
 10
71.8030438868
 20
203.3963664811
 30
0.0
 10
72.678493994
 20
202.9161872172
 30
0.0
 10
73.5200105695
 20
202.1718697718
 30
0.0
 10
74.2623236182
 20
201.2213094827
 30
0.0
 10
74.8469754866
 20
200.1408999177
 30
0.0
 10
75.2262664221
 20
199.0193512682
 30
0.0
 10
75.3279093108
 20
198.2554966422
 30
0.0
 10
75.3279093108
 20
197.892224785
 30
0.0
  0
SPLINE
  5
320
100
AcDbEntity
  8
0
100
AcDbSpline
 62
7
  6
BYLAYER
 70
0
 71
3
 72
13
 73
9
 74
0
 42
0.0000001
 43
0.0000001
 44
0.0000000001
 40
0.0
 40
0.0
 40
0.0
 40
0.0
 40
0.0888913712
 40
0.1854113037
 40
0.2944079197
 40
0.4173418977
 40
0.6976406089
 40
1.0
 40
1.0
 40
1.0
 40
1.0
 10
181.3386467615
 20
183.0876795829
 30
0.0
 10
181.4856223964
 20
183.1726142452
 30
0.0
 10
181.8301775517
 20
183.2894810805
 30
0.0
 10
182.4010112412
 20
183.2739262717
 30
0.0
 10
183.0056523854
 20
183.0851974521
 30
0.0
 10
183.8610223165
 20
182.5992617192
 30
0.0
 10
184.8380217786
 20
181.6409022449
 30
0.0
 10
185.422205486
 20
180.679925277
 30
0.0
 10
185.6583178438
 20
180.1530052979
 30
0.0
  0
SPLINE
  5
321
100
AcDbEntity
  8
0
100
AcDbSpline
 62
7
  6
BYLAYER
 70
0
 71
3
 72
17
 73
13
 74
0
 42
0.0000001
 43
0.0000001
 44
0.0000000001
 40
0.0
 40
0.0
 40
0.0
 40
0.0
 40
0.0428592927
 40
0.0874854741
 40
0.1353198782
 40
0.1872819046
 40
0.3045421967
 40
0.4382074307
 40
0.5825489112
 40
0.7297129634
 40
0.8713059682
 40
1.0
 40
1.0
 40
1.0
 40
1.0
 10
151.1023730418
 20
191.8579952744
 30
0.0
 10
151.2379601125
 20
191.9362897002
 30
0.0
 10
151.536886063
 20
192.0604143202
 30
0.0
 10
152.0302367972
 20
192.1328286257
 30
0.0
 10
152.5600802491
 20
192.0937910385
 30
0.0
 10
153.3299303387
 20
191.889036272
 30
0.0
 10
154.3140642421
 20
191.3509058754
 30
0.0
 10
155.4013758332
 20
190.3879788462
 30
0.0
 10
156.3625561986
 20
189.1577585698
 30
0.0
 10
157.118993307
 20
187.7595991671
 30
0.0
 10
157.6099438121
 20
186.3081865519
 30
0.0
 10
157.7414548499
 20
185.3196720369
 30
0.0
 10
157.7414548499
 20
184.8495405335
 30
0.0
  0
SPLINE
  5
322
100
AcDbEntity
  8
0
100
AcDbSpline
 62
7
  6
BYLAYER
 70
0
 71
3
 72
17
 73
13
 74
0
 42
0.0000001
 43
0.0000001
 44
0.0000000001
 40
0.0
 40
0.0
 40
0.0
 40
0.0
 40
0.0428592927
 40
0.0874854741
 40
0.1353198782
 40
0.1872819046
 40
0.3045421967
 40
0.4382074307
 40
0.5825489112
 40
0.7297129634
 40
0.8713059682
 40
1.0
 40
1.0
 40
1.0
 40
1.0
 10
153.5772570841
 20
101.5936896523
 30
0.0
 10
153.7128441548
 20
101.6719840781
 30
0.0
 10
154.0117701053
 20
101.7961086981
 30
0.0
 10
154.5051208395
 20
101.8685230036
 30
0.0
 10
155.0349642914
 20
101.8294854164
 30
0.0
 10
155.804814381
 20
101.6247306499
 30
0.0
 10
156.7889482843
 20
101.0866002533
 30
0.0
 10
157.8762598754
 20
100.1236732241
 30
0.0
 10
158.8374402409
 20
98.8934529477
 30
0.0
 10
159.5938773492
 20
97.4952935451
 30
0.0
 10
160.0848278544
 20
96.0438809298
 30
0.0
 10
160.2163388922
 20
95.0553664148
 30
0.0
 10
160.2163388922
 20
94.5852349114
 30
0.0
  0
SPLINE
  5
323
100
AcDbEntity
  8
0
100
AcDbSpline
 62
7
  6
BYLAYER
 70
0
 71
3
 72
17
 73
13
 74
0
 42
0.0000001
 43
0.0000001
 44
0.0000000001
 40
0.0
 40
0.0
 40
0.0
 40
0.0
 40
0.0428592927
 40
0.0874854741
 40
0.1353198782
 40
0.1872819046
 40
0.3045421967
 40
0.4382074307
 40
0.5825489112
 40
0.7297129634
 40
0.8713059682
 40
1.0
 40
1.0
 40
1.0
 40
1.0
 10
117.1611061768
 20
211.4535514578
 30
0.0
 10
117.2966932475
 20
211.5318458837
 30
0.0
 10
117.595619198
 20
211.6559705036
 30
0.0
 10
118.0889699322
 20
211.7283848092
 30
0.0
 10
118.6188133841
 20
211.6893472219
 30
0.0
 10
119.3886634737
 20
211.4845924555
 30
0.0
 10
120.3727973771
 20
210.9464620588
 30
0.0
 10
121.4601089681
 20
209.9835350297
 30
0.0
 10
122.4212893336
 20
208.7533147533
 30
0.0
 10
123.1777264419
 20
207.3551553506
 30
0.0
 10
123.6686769471
 20
205.9037427354
 30
0.0
 10
123.8001879849
 20
204.9152282204
 30
0.0
 10
123.8001879849
 20
204.445096717
 30
0.0
  0
SPLINE
  5
324
100
AcDbEntity
  8
0
100
AcDbSpline
 62
7
  6
BYLAYER
 70
0
 71
3
 72
10
 73
6
 74
0
 42
0.0000001
 43
0.0000001
 44
0.0000000001
 40
0.0
 40
0.0
 40
0.0
 40
0.0
 40
0.2837423755
 40
0.5471918772
 40
1.0
 40
1.0
 40
1.0
 40
1.0
 10
143.6613967173
 20
109.3298795093
 30
0.0
 10
143.8924705371
 20
109.0910682345
 30
0.0
 10
144.3666404889
 20
108.6556344868
 30
0.0
 10
145.3278762173
 20
107.9877460559
 30
0.0
 10
146.1346117467
 20
107.6652292359
 30
0.0
 10
146.6613405024
 20
107.6037476098
 30
0.0
  0
SPLINE
  5
325
100
AcDbEntity
  8
0
100
AcDbSpline
 62
7
  6
BYLAYER
 70
0
 71
3
 72
11
 73
7
 74
0
 42
0.0000001
 43
0.0000001
 44
0.0000000001
 40
0.0
 40
0.0
 40
0.0
 40
0.0
 40
0.2177839468
 40
0.4509170844
 40
0.7103078712
 40
1.0
 40
1.0
 40
1.0
 40
1.0
 10
118.9655326288
 20
173.2640122424
 30
0.0
 10
118.7970257213
 20
173.1666946406
 30
0.0
 10
118.4817063183
 20
172.901660855
 30
0.0
 10
118.1460409717
 20
172.3528051702
 30
0.0
 10
117.9466863004
 20
171.6764416407
 30
0.0
 10
117.9074423838
 20
171.1841692733
 30
0.0
 10
117.9074423838
 20
170.9253292116
 30
0.0
  0
SPLINE
  5
326
100
AcDbEntity
  8
0
100
AcDbSpline
 62
7
  6
BYLAYER
 70
0
 71
3
 72
8
 73
4
 74
0
 42
0.0000001
 43
0.0000001
 44
0.0000000001
 40
0.0
 40
0.0
 40
0.0
 40
0.0
 40
1.0
 40
1.0
 40
1.0
 40
1.0
 10
144.9224958542
 20
204.1120784048
 30
0.0
 10
145.0167844344
 20
204.1665661348
 30
0.0
 10
145.1185599287
 20
204.2095684784
 30
0.0
 10
145.2231454587
 20
204.2399183714
 30
0.0
  0
SPLINE
  5
327
100
AcDbEntity
  8
0
100
AcDbSpline
 62
7
  6
BYLAYER
 70
0
 71
3
 72
11
 73
7
 74
0
 42
0.0000001
 43
0.0000001
 44
0.0000000001
 40
0.0
 40
0.0
 40
0.0
 40
0.0
 40
0.2177839468
 40
0.4509170844
 40
0.7103078712
 40
1.0
 40
1.0
 40
1.0
 40
1.0
 10
90.6846697763
 20
189.5916065878
 30
0.0
 10
90.5161628689
 20
189.494288986
 30
0.0
 10
90.2008434659
 20
189.2292552004
 30
0.0
 10
89.8651781193
 20
188.6803995157
 30
0.0
 10
89.665823448
 20
188.0040359861
 30
0.0
 10
89.6265795313
 20
187.5117636188
 30
0.0
 10
89.6265795313
 20
187.252923557
 30
0.0
  0
SPLINE
  5
328
100
AcDbEntity
  8
0
100
AcDbSpline
 62
7
  6
BYLAYER
 70
0
 71
3
 72
10
 73
6
 74
0
 42
0.0000001
 43
0.0000001
 44
0.0000000001
 40
0.0
 40
0.0
 40
0.0
 40
0.0
 40
0.523129401
 40
0.7719798916
 40
1.0
 40
1.0
 40
1.0
 40
1.0
 10
134.794937343
 20
210.2868725919
 30
0.0
 10
135.2831458824
 20
209.6251947893
 30
0.0
 10
135.8718921599
 20
208.5388440932
 30
0.0
 10
136.3038307819
 20
207.0234007552
 30
0.0
 10
136.3865161027
 20
206.272736807
 30
0.0
 10
136.3865161027
 20
205.9143183284
 30
0.0
  0
SPLINE
  5
329
100
AcDbEntity
  8
0
100
AcDbSpline
 62
7
  6
BYLAYER
 70
0
 71
3
 72
15
 73
11
 74
0
 42
0.0000001
 43
0.0000001
 44
0.0000000001
 40
0.0
 40
0.0
 40
0.0
 40
0.0
 40
0.0869274402
 40
0.1863924178
 40
0.3037799024
 40
0.4375872819
 40
0.5820828602
 40
0.7293903552
 40
0.8711738772
 40
1.0
 40
1.0
 40
1.0
 40
1.0
 10
101.3531351473
 20
234.9948638873
 30
0.0
 10
101.4904880232
 20
235.0741674925
 30
0.0
 10
101.8355625655
 20
235.1628981052
 30
0.0
 10
102.3910296736
 20
235.0516276809
 30
0.0
 10
102.9585122632
 20
234.7416886246
 30
0.0
 10
103.5026921843
 20
234.2598714627
 30
0.0
 10
103.9830621106
 20
233.6448967073
 30
0.0
 10
104.3614299588
 20
232.9458132271
 30
0.0
 10
104.6068089999
 20
232.2200699795
 30
0.0
 10
104.6726242594
 20
231.7257752142
 30
0.0
 10
104.6726242594
 20
231.4907263693
 30
0.0
  0
SPLINE
  5
32A
100
AcDbEntity
  8
0
100
AcDbSpline
 62
7
  6
BYLAYER
 70
0
 71
3
 72
11
 73
7
 74
0
 42
0.0000001
 43
0.0000001
 44
0.0000000001
 40
0.0
 40
0.0
 40
0.0
 40
0.0
 40
0.2896413962
 40
0.5491107668
 40
0.7822355977
 40
1.0
 40
1.0
 40
1.0
 40
1.0
 10
75.3279093108
 20
197.892224785
 30
0.0
 10
75.3279093108
 20
197.6769316176
 30
0.0
 10
75.2951846697
 20
197.2673930537
 30
0.0
 10
75.1294288274
 20
196.7047002292
 30
0.0
 10
74.8502137284
 20
196.2479949823
 30
0.0
 10
74.5877933751
 20
196.0276894011
 30
0.0
 10
74.4476453432
 20
195.9467002918
 30
0.0
  0
SPLINE
  5
32B
100
AcDbEntity
  8
0
100
AcDbSpline
 62
7
  6
BYLAYER
 70
0
 71
3
 72
11
 73
7
 74
0
 42
0.0000001
 43
0.0000001
 44
0.0000000001
 40
0.0
 40
0.0
 40
0.0
 40
0.0
 40
0.2896413962
 40
0.5491107668
 40
0.7822355977
 40
1.0
 40
1.0
 40
1.0
 40
1.0
 10
148.1602111253
 20
155.8434271413
 30
0.0
 10
148.1602111253
 20
155.6281339739
 30
0.0
 10
148.1274864842
 20
155.2185954099
 30
0.0
 10
147.961730642
 20
154.6559025855
 30
0.0
 10
147.682515543
 20
154.1991973386
 30
0.0
 10
147.4200951896
 20
153.9788917574
 30
0.0
 10
147.2799471577
 20
153.8979026481
 30
0.0
  0
SPLINE
  5
32C
100
AcDbEntity
  8
0
100
AcDbSpline
 62
7
  6
BYLAYER
 70
0
 71
3
 72
17
 73
13
 74
0
 42
0.0000001
 43
0.0000001
 44
0.0000000001
 40
0.0
 40
0.0
 40
0.0
 40
0.0
 40
0.0428592927
 40
0.0874854741
 40
0.1353198782
 40
0.1872819046
 40
0.3045421967
 40
0.4382074307
 40
0.5825489112
 40
0.7297129634
 40
0.8713059682
 40
1.0
 40
1.0
 40
1.0
 40
1.0
 10
83.2198393117
 20
231.0491076413
 30
0.0
 10
83.3554263824
 20
231.1274020671
 30
0.0
 10
83.6543523329
 20
231.2515266871
 30
0.0
 10
84.1477030671
 20
231.3239409926
 30
0.0
 10
84.677546519
 20
231.2849034054
 30
0.0
 10
85.4473966087
 20
231.080148639
 30
0.0
 10
86.431530512
 20
230.5420182423
 30
0.0
 10
87.5188421031
 20
229.5790912132
 30
0.0
 10
88.4800224686
 20
228.3488709367
 30
0.0
 10
89.2364595769
 20
226.9507115341
 30
0.0
 10
89.727410082
 20
225.4992989189
 30
0.0
 10
89.8589211199
 20
224.5107844038
 30
0.0
 10
89.8589211199
 20
224.0406529005
 30
0.0
  0
SPLINE
  5
32D
100
AcDbEntity
  8
0
100
AcDbSpline
 62
7
  6
BYLAYER
 70
0
 71
3
 72
11
 73
7
 74
0
 42
0.0000001
 43
0.0000001
 44
0.0000000001
 40
0.0
 40
0.0
 40
0.0
 40
0.0
 40
0.2177839468
 40
0.4509170844
 40
0.7103078712
 40
1.0
 40
1.0
 40
1.0
 40
1.0
 10
69.44771911
 20
204.6068786294
 30
0.0
 10
69.2580603667
 20
204.497345232
 30
0.0
 10
68.9031604838
 20
204.1990430705
 30
0.0
 10
68.5253607319
 20
203.5812922553
 30
0.0
 10
68.300982058
 20
202.8200281682
 30
0.0
 10
68.2568120472
 20
202.2659632935
 30
0.0
 10
68.2568120472
 20
201.9746323232
 30
0.0
  0
SPLINE
  5
32E
100
AcDbEntity
  8
0
100
AcDbSpline
 62
7
  6
BYLAYER
 70
0
 71
3
 72
12
 73
8
 74
0
 42
0.0000001
 43
0.0000001
 44
0.0000000001
 40
0.0
 40
0.0
 40
0.0
 40
0.0
 40
0.0975619758
 40
0.199252121
 40
0.4261299873
 40
0.6943416097
 40
1.0
 40
1.0
 40
1.0
 40
1.0
 10
108.5063449469
 20
225.1364772267
 30
0.0
 10
108.6062259207
 20
225.1941967037
 30
0.0
 10
108.8268158563
 20
225.2853797773
 30
0.0
 10
109.3301292124
 20
225.356739265
 30
0.0
 10
110.0404008792
 20
225.2121617963
 30
0.0
 10
110.8743619637
 20
224.7452155034
 30
0.0
 10
111.3825404407
 20
224.287192519
 30
0.0
 10
111.6285416069
 20
224.0224184107
 30
0.0
  0
SPLINE
  5
32F
100
AcDbEntity
  8
0
100
AcDbSpline
 62
7
  6
BYLAYER
 70
0
 71
3
 72
11
 73
7
 74
0
 42
0.0000001
 43
0.0000001
 44
0.0000000001
 40
0.0
 40
0.0
 40
0.0
 40
0.0
 40
0.2897016592
 40
0.5490895811
 40
0.782218914
 40
1.0
 40
1.0
 40
1.0
 40
1.0
 10
157.7414548499
 20
184.8495405335
 30
0.0
 10
157.7414548499
 20
184.5708667211
 30
0.0
 10
157.699204098
 20
184.0408854713
 30
0.0
 10
157.484579278
 20
183.3127136388
 30
0.0
 10
157.1231960323
 20
182.7218438878
 30
0.0
 10
156.783746537
 20
182.4364928166
 30
0.0
 10
156.6023296682
 20
182.3317340847
 30
0.0
  0
SPLINE
  5
330
100
AcDbEntity
  8
0
100
AcDbSpline
 62
7
  6
BYLAYER
 70
0
 71
3
 72
11
 73
7
 74
0
 42
0.0000001
 43
0.0000001
 44
0.0000000001
 40
0.0
 40
0.0
 40
0.0
 40
0.0
 40
0.2411162854
 40
0.5000753805
 40
0.7590200471
 40
1.0
 40
1.0
 40
1.0
 40
1.0
 10
156.7127582846
 20
100.9329284917
 30
0.0
 10
156.7705059423
 20
100.3824192507
 30
0.0
 10
157.0396877849
 20
99.2547133596
 30
0.0
 10
157.7730680787
 20
97.6636455562
 30
0.0
 10
158.7845881616
 20
96.2336121548
 30
0.0
 10
159.6265047347
 20
95.4370242455
 30
0.0
 10
160.0742417944
 20
95.1120929382
 30
0.0
  0
SPLINE
  5
331
100
AcDbEntity
  8
0
100
AcDbSpline
 62
7
  6
BYLAYER
 70
0
 71
3
 72
11
 73
7
 74
0
 42
0.0000001
 43
0.0000001
 44
0.0000000001
 40
0.0
 40
0.0
 40
0.0
 40
0.0
 40
0.2411162854
 40
0.5000753805
 40
0.7590200471
 40
1.0
 40
1.0
 40
1.0
 40
1.0
 10
154.2378742423
 20
191.1972341138
 30
0.0
 10
154.2956219
 20
190.6467248728
 30
0.0
 10
154.5648037427
 20
189.5190189817
 30
0.0
 10
155.2981840364
 20
187.9279511783
 30
0.0
 10
156.3097041193
 20
186.4979177769
 30
0.0
 10
157.1516206924
 20
185.7013298676
 30
0.0
 10
157.5993577522
 20
185.3763985603
 30
0.0
  0
SPLINE
  5
332
100
AcDbEntity
  8
0
100
AcDbSpline
 62
7
  6
BYLAYER
 70
0
 71
3
 72
9
 73
5
 74
0
 42
0.0000001
 43
0.0000001
 44
0.0000000001
 40
0.0
 40
0.0
 40
0.0
 40
0.0
 40
0.2447069791
 40
1.0
 40
1.0
 40
1.0
 40
1.0
 10
101.1709823822
 20
107.6901470907
 30
0.0
 10
101.2102907728
 20
107.7128627257
 30
0.0
 10
101.3766838692
 20
107.7956888296
 30
0.0
 10
101.5635797336
 20
107.8343679173
 30
0.0
 10
101.7035543249
 20
107.8409158695
 30
0.0
  0
SPLINE
  5
333
100
AcDbEntity
  8
0
100
AcDbSpline
 62
7
  6
BYLAYER
 70
0
 71
3
 72
10
 73
6
 74
0
 42
0.0000001
 43
0.0000001
 44
0.0000000001
 40
0.0
 40
0.0
 40
0.0
 40
0.0
 40
0.5200726607
 40
0.7712182141
 40
1.0
 40
1.0
 40
1.0
 40
1.0
 10
103.8164574718
 20
106.6640405763
 30
0.0
 10
104.2058895688
 20
106.2162611363
 30
0.0
 10
104.6760735696
 20
105.4479717382
 30
0.0
 10
105.0252736172
 20
104.3584068421
 30
0.0
 10
105.0940525695
 20
103.8098818157
 30
0.0
 10
105.0940525695
 20
103.5488281666
 30
0.0
  0
SPLINE
  5
334
100
AcDbEntity
  8
0
100
AcDbSpline
 62
7
  6
BYLAYER
 70
0
 71
3
 72
11
 73
7
 74
0
 42
0.0000001
 43
0.0000001
 44
0.0000000001
 40
0.0
 40
0.0
 40
0.0
 40
0.0
 40
0.2897016592
 40
0.5490895811
 40
0.782218914
 40
1.0
 40
1.0
 40
1.0
 40
1.0
 10
160.2163388922
 20
94.5852349114
 30
0.0
 10
160.2163388922
 20
94.306561099
 30
0.0
 10
160.1740881402
 20
93.7765798493
 30
0.0
 10
159.9594633202
 20
93.0484080167
 30
0.0
 10
159.5980800745
 20
92.4575382657
 30
0.0
 10
159.2586305792
 20
92.1721871945
 30
0.0
 10
159.0772137104
 20
92.0674284626
 30
0.0
  0
SPLINE
  5
335
100
AcDbEntity
  8
0
100
AcDbSpline
 62
7
  6
BYLAYER
 70
0
 71
3
 72
9
 73
5
 74
0
 42
0.0000001
 43
0.0000001
 44
0.0000000001
 40
0.0
 40
0.0
 40
0.0
 40
0.0
 40
0.2443524046
 40
1.0
 40
1.0
 40
1.0
 40
1.0
 10
94.0053489633
 20
111.9537822246
 30
0.0
 10
94.0372958852
 20
111.9673962704
 30
0.0
 10
94.170659015
 20
112.0168935197
 30
0.0
 10
94.3130506758
 20
112.0407774264
 30
0.0
 10
94.4203241434
 20
112.0457956339
 30
0.0
  0
SPLINE
  5
336
100
AcDbEntity
  8
0
100
AcDbSpline
 62
7
  6
BYLAYER
 70
0
 71
3
 72
9
 73
5
 74
0
 42
0.0000001
 43
0.0000001
 44
0.0000000001
 40
0.0
 40
0.0
 40
0.0
 40
0.0
 40
0.4511591714
 40
1.0
 40
1.0
 40
1.0
 40
1.0
 10
94.603627915
 20
112.0424932449
 30
0.0
 10
94.9098941424
 20
112.0179320601
 30
0.0
 10
95.5698468497
 20
111.7673703021
 30
0.0
 10
96.0994201853
 20
111.3275631556
 30
0.0
 10
96.3591898902
 20
111.0588144322
 30
0.0
  0
SPLINE
  5
337
100
AcDbEntity
  8
0
100
AcDbSpline
 62
7
  6
BYLAYER
 70
0
 71
3
 72
10
 73
6
 74
0
 42
0.0000001
 43
0.0000001
 44
0.0000000001
 40
0.0
 40
0.0
 40
0.0
 40
0.0
 40
0.5210421483
 40
0.7715153295
 40
1.0
 40
1.0
 40
1.0
 40
1.0
 10
96.6065773994
 20
110.7826641504
 30
0.0
 10
96.9742509107
 20
110.3405216172
 30
0.0
 10
97.4180872852
 20
109.5920065522
 30
0.0
 10
97.746615002
 20
108.5353075081
 30
0.0
 10
97.810822388
 20
108.0058725349
 30
0.0
 10
97.810822388
 20
107.753707931
 30
0.0
  0
SPLINE
  5
338
100
AcDbEntity
  8
0
100
AcDbSpline
 62
7
  6
BYLAYER
 70
0
 71
3
 72
15
 73
11
 74
0
 42
0.0000001
 43
0.0000001
 44
0.0000000001
 40
0.0
 40
0.0
 40
0.0
 40
0.0
 40
0.0869302719
 40
0.186400037
 40
0.3037880338
 40
0.437600436
 40
0.5820992732
 40
0.7294176326
 40
0.8711704075
 40
1.0
 40
1.0
 40
1.0
 40
1.0
 10
85.9681232656
 20
116.4673232979
 30
0.0
 10
86.1304208631
 20
116.5611122558
 30
0.0
 10
86.5383212868
 20
116.6658552485
 30
0.0
 10
87.1947805784
 20
116.5344105723
 30
0.0
 10
87.8654763204
 20
116.1680704745
 30
0.0
 10
88.5085884301
 20
115.5986087198
 30
0.0
 10
89.0763604806
 20
114.8717935264
 30
0.0
 10
89.5234135685
 20
114.045574648
 30
0.0
 10
89.813468303
 20
113.1879258499
 30
0.0
 10
89.8911934529
 20
112.6038004999
 30
0.0
 10
89.8911934529
 20
112.3260043738
 30
0.0
  0
SPLINE
  5
339
100
AcDbEntity
  8
0
100
AcDbSpline
 62
7
  6
BYLAYER
 70
0
 71
3
 72
15
 73
11
 74
0
 42
0.0000001
 43
0.0000001
 44
0.0000000001
 40
0.0
 40
0.0
 40
0.0
 40
0.0
 40
0.0869302719
 40
0.186400037
 40
0.3037880338
 40
0.437600436
 40
0.5820992732
 40
0.7294176326
 40
0.8711704075
 40
1.0
 40
1.0
 40
1.0
 40
1.0
 10
78.6848930841
 20
120.6722030622
 30
0.0
 10
78.8471906816
 20
120.7659920201
 30
0.0
 10
79.2550911054
 20
120.8707350129
 30
0.0
 10
79.9115503969
 20
120.7392903367
 30
0.0
 10
80.5822461389
 20
120.3729502388
 30
0.0
 10
81.2253582487
 20
119.8034884842
 30
0.0
 10
81.7931302991
 20
119.0766732907
 30
0.0
 10
82.2401833871
 20
118.2504544124
 30
0.0
 10
82.5302381216
 20
117.3928056143
 30
0.0
 10
82.6079632714
 20
116.8086802643
 30
0.0
 10
82.6079632714
 20
116.5308841382
 30
0.0
  0
SPLINE
  5
33A
100
AcDbEntity
  8
0
100
AcDbSpline
 62
7
  6
BYLAYER
 70
0
 71
3
 72
15
 73
11
 74
0
 42
0.0000001
 43
0.0000001
 44
0.0000000001
 40
0.0
 40
0.0
 40
0.0
 40
0.0
 40
0.0869274402
 40
0.1863924178
 40
0.3037799024
 40
0.4375872819
 40
0.5820828602
 40
0.7293903552
 40
0.8711738772
 40
1.0
 40
1.0
 40
1.0
 40
1.0
 10
194.6916190262
 20
181.1070843827
 30
0.0
 10
194.8289719021
 20
181.1863879879
 30
0.0
 10
195.1740464444
 20
181.2751186006
 30
0.0
 10
195.7295135525
 20
181.1638481763
 30
0.0
 10
196.2969961421
 20
180.85390912
 30
0.0
 10
196.8411760632
 20
180.3720919581
 30
0.0
 10
197.3215459895
 20
179.7571172027
 30
0.0
 10
197.6999138377
 20
179.0580337225
 30
0.0
 10
197.9452928787
 20
178.3322904749
 30
0.0
 10
198.0111081383
 20
177.8379957096
 30
0.0
 10
198.0111081383
 20
177.6029468646
 30
0.0
  0
SPLINE
  5
33B
100
AcDbEntity
  8
0
100
AcDbSpline
 62
7
  6
BYLAYER
 70
0
 71
3
 72
11
 73
7
 74
0
 42
0.0000001
 43
0.0000001
 44
0.0000000001
 40
0.0
 40
0.0
 40
0.0
 40
0.0
 40
0.2177839468
 40
0.4509170844
 40
0.7103078712
 40
1.0
 40
1.0
 40
1.0
 40
1.0
 10
142.2800209246
 20
162.5580809857
 30
0.0
 10
142.0903621813
 20
162.4485475883
 30
0.0
 10
141.7354622983
 20
162.1502454268
 30
0.0
 10
141.3576625465
 20
161.5324946116
 30
0.0
 10
141.1332838725
 20
160.7712305245
 30
0.0
 10
141.0891138618
 20
160.2171656497
 30
0.0
 10
141.0891138618
 20
159.9258346795
 30
0.0
  0
SPLINE
  5
33C
100
AcDbEntity
  8
0
100
AcDbSpline
 62
7
  6
BYLAYER
 70
0
 71
3
 72
11
 73
7
 74
0
 42
0.0000001
 43
0.0000001
 44
0.0000000001
 40
0.0
 40
0.0
 40
0.0
 40
0.0
 40
0.2177839468
 40
0.4509170844
 40
0.7103078712
 40
1.0
 40
1.0
 40
1.0
 40
1.0
 10
105.8638700173
 20
183.5824798076
 30
0.0
 10
105.674211274
 20
183.4729464101
 30
0.0
 10
105.3193113911
 20
183.1746442486
 30
0.0
 10
104.9415116392
 20
182.5568934334
 30
0.0
 10
104.7171329653
 20
181.7956293463
 30
0.0
 10
104.6729629545
 20
181.2415644716
 30
0.0
 10
104.6729629545
 20
180.9502335013
 30
0.0
  0
SPLINE
  5
33D
100
AcDbEntity
  8
0
100
AcDbSpline
 62
7
  6
BYLAYER
 70
0
 71
3
 72
16
 73
12
 74
0
 42
0.0000001
 43
0.0000001
 44
0.0000000001
 40
0.0
 40
0.0
 40
0.0
 40
0.0
 40
0.0428765743
 40
0.0875234668
 40
0.1869286092
 40
0.3042403425
 40
0.4379658106
 40
0.5823707712
 40
0.7295934221
 40
0.8712541043
 40
1.0
 40
1.0
 40
1.0
 40
1.0
 10
106.6138915117
 20
182.2833968638
 30
0.0
 10
106.718640284
 20
182.3439293569
 30
0.0
 10
106.9496215944
 20
182.4398824739
 30
0.0
 10
107.4760225328
 20
182.5170852575
 30
0.0
 10
108.2191947941
 20
182.3719676592
 30
0.0
 10
109.0946449013
 20
181.8917883953
 30
0.0
 10
109.9361614768
 20
181.1474709499
 30
0.0
 10
110.6784745255
 20
180.1969106609
 30
0.0
 10
111.2631263939
 20
179.1165010958
 30
0.0
 10
111.6424173294
 20
177.9949524463
 30
0.0
 10
111.7440602181
 20
177.2310978203
 30
0.0
 10
111.7440602181
 20
176.8678259631
 30
0.0
  0
SPLINE
  5
33E
100
AcDbEntity
  8
0
100
AcDbSpline
 62
7
  6
BYLAYER
 70
0
 71
3
 72
11
 73
7
 74
0
 42
0.0000001
 43
0.0000001
 44
0.0000000001
 40
0.0
 40
0.0
 40
0.0
 40
0.0
 40
0.289545377
 40
0.5491366156
 40
0.7822776226
 40
1.0
 40
1.0
 40
1.0
 40
1.0
 10
198.0111081383
 20
177.6029468646
 30
0.0
 10
198.0111081383
 20
177.4636873427
 30
0.0
 10
197.9898440441
 20
177.1986972785
 30
0.0
 10
197.8827200498
 20
176.8345496965
 30
0.0
 10
197.7020034436
 20
176.5389994353
 30
0.0
 10
197.5321792894
 20
176.396492715
 30
0.0
 10
197.4414937555
 20
176.3441334926
 30
0.0
  0
SPLINE
  5
33F
100
AcDbEntity
  8
0
100
AcDbSpline
 62
7
  6
BYLAYER
 70
0
 71
3
 72
9
 73
5
 74
0
 42
0.0000001
 43
0.0000001
 44
0.0000000001
 40
0.0
 40
0.0
 40
0.0
 40
0.0
 40
0.2587962103
 40
1.0
 40
1.0
 40
1.0
 40
1.0
 10
54.7425452884
 20
124.2880151771
 30
0.0
 10
52.2105612836
 20
125.6549386311
 30
0.0
 10
42.525684493
 20
131.1157293119
 30
0.0
 10
33.2474946382
 20
137.3137165887
 30
0.0
 10
26.7274759356
 20
142.3538936642
 30
0.0
  0
SPLINE
  5
340
100
AcDbEntity
  8
0
100
AcDbSpline
 62
7
  6
BYLAYER
 70
0
 71
3
 72
9
 73
5
 74
0
 42
0.0000001
 43
0.0000001
 44
0.0000000001
 40
0.0
 40
0.0
 40
0.0
 40
0.0
 40
0.2545761531
 40
1.0
 40
1.0
 40
1.0
 40
1.0
 10
75.6847945263
 20
115.6600505223
 30
0.0
 10
74.0022961835
 20
116.3880087216
 30
0.0
 10
67.4226871426
 20
119.3147619221
 30
0.0
 10
60.9635991544
 20
122.5142820803
 30
0.0
 10
56.2384939743
 20
125.0613210173
 30
0.0
  0
SPLINE
  5
341
100
AcDbEntity
  8
0
100
AcDbSpline
 62
7
  6
BYLAYER
 70
0
 71
3
 72
11
 73
7
 74
0
 42
0.0000001
 43
0.0000001
 44
0.0000000001
 40
0.0
 40
0.0
 40
0.0
 40
0.0
 40
0.2896413962
 40
0.5491107668
 40
0.7822355977
 40
1.0
 40
1.0
 40
1.0
 40
1.0
 10
82.6079632714
 20
116.5308841382
 30
0.0
 10
82.6079632714
 20
116.3662481867
 30
0.0
 10
82.5829385458
 20
116.0530716378
 30
0.0
 10
82.4561840782
 20
115.6227771249
 30
0.0
 10
82.2426666496
 20
115.2735319362
 30
0.0
 10
82.0419922617
 20
115.1050629623
 30
0.0
 10
81.9348202373
 20
115.043130114
 30
0.0
  0
SPLINE
  5
342
100
AcDbEntity
  8
0
100
AcDbSpline
 62
7
  6
BYLAYER
 70
0
 71
3
 72
11
 73
7
 74
0
 42
0.0000001
 43
0.0000001
 44
0.0000000001
 40
0.0
 40
0.0
 40
0.0
 40
0.0
 40
0.2896413962
 40
0.5491107668
 40
0.7822355977
 40
1.0
 40
1.0
 40
1.0
 40
1.0
 10
89.8911934529
 20
112.3260043738
 30
0.0
 10
89.8911934529
 20
112.1613684223
 30
0.0
 10
89.8661687273
 20
111.8481918734
 30
0.0
 10
89.7394142597
 20
111.4178973606
 30
0.0
 10
89.525896831
 20
111.0686521718
 30
0.0
 10
89.3252224432
 20
110.9001831979
 30
0.0
 10
89.2180504188
 20
110.8382503497
 30
0.0
  0
SPLINE
  5
343
100
AcDbEntity
  8
0
100
AcDbSpline
 62
7
  6
BYLAYER
 70
0
 71
3
 72
11
 73
7
 74
0
 42
0.0000001
 43
0.0000001
 44
0.0000000001
 40
0.0
 40
0.0
 40
0.0
 40
0.0
 40
0.2896413962
 40
0.5491107668
 40
0.7822355977
 40
1.0
 40
1.0
 40
1.0
 40
1.0
 10
97.810822388
 20
107.753707931
 30
0.0
 10
97.810822388
 20
107.5890719795
 30
0.0
 10
97.7857976625
 20
107.2758954306
 30
0.0
 10
97.6590431948
 20
106.8456009178
 30
0.0
 10
97.4455257662
 20
106.496355729
 30
0.0
 10
97.2448513784
 20
106.3278867551
 30
0.0
 10
97.137679354
 20
106.2659539068
 30
0.0
  0
SPLINE
  5
344
100
AcDbEntity
  8
0
100
AcDbSpline
 62
7
  6
BYLAYER
 70
0
 71
3
 72
11
 73
7
 74
0
 42
0.0000001
 43
0.0000001
 44
0.0000000001
 40
0.0
 40
0.0
 40
0.0
 40
0.0
 40
0.2896413962
 40
0.5491107668
 40
0.7822355977
 40
1.0
 40
1.0
 40
1.0
 40
1.0
 10
105.0940525695
 20
103.5488281666
 30
0.0
 10
105.0940525695
 20
103.3841922151
 30
0.0
 10
105.0690278439
 20
103.0710156662
 30
0.0
 10
104.9422733763
 20
102.6407211534
 30
0.0
 10
104.7287559477
 20
102.2914759646
 30
0.0
 10
104.5280815598
 20
102.1230069907
 30
0.0
 10
104.4209095355
 20
102.0610741425
 30
0.0
  0
SPLINE
  5
345
100
AcDbEntity
  8
0
100
AcDbSpline
 62
7
  6
BYLAYER
 70
0
 71
3
 72
11
 73
7
 74
0
 42
0.0000001
 43
0.0000001
 44
0.0000000001
 40
0.0
 40
0.0
 40
0.0
 40
0.0
 40
0.2897016592
 40
0.5490895811
 40
0.782218914
 40
1.0
 40
1.0
 40
1.0
 40
1.0
 10
123.8001879849
 20
204.445096717
 30
0.0
 10
123.8001879849
 20
204.1664229045
 30
0.0
 10
123.7579372329
 20
203.6364416548
 30
0.0
 10
123.543312413
 20
202.9082698223
 30
0.0
 10
123.1819291672
 20
202.3174000712
 30
0.0
 10
122.842479672
 20
202.032049
 30
0.0
 10
122.6610628031
 20
201.9272902682
 30
0.0
  0
SPLINE
  5
346
100
AcDbEntity
  8
0
100
AcDbSpline
 62
7
  6
BYLAYER
 70
0
 71
3
 72
11
 73
7
 74
0
 42
0.0000001
 43
0.0000001
 44
0.0000000001
 40
0.0
 40
0.0
 40
0.0
 40
0.0
 40
0.2411162854
 40
0.5000753805
 40
0.7590200471
 40
1.0
 40
1.0
 40
1.0
 40
1.0
 10
86.3553405122
 20
230.3883464808
 30
0.0
 10
86.4130881699
 20
229.8378372398
 30
0.0
 10
86.6822700126
 20
228.7101313486
 30
0.0
 10
87.4156503063
 20
227.1190635452
 30
0.0
 10
88.4271703893
 20
225.6890301439
 30
0.0
 10
89.2690869624
 20
224.8924422345
 30
0.0
 10
89.7168240221
 20
224.5675109273
 30
0.0
  0
SPLINE
  5
347
100
AcDbEntity
  8
0
100
AcDbSpline
 62
7
  6
BYLAYER
 70
0
 71
3
 72
11
 73
7
 74
0
 42
0.0000001
 43
0.0000001
 44
0.0000000001
 40
0.0
 40
0.0
 40
0.0
 40
0.0
 40
0.2411162854
 40
0.5000753805
 40
0.7590200471
 40
1.0
 40
1.0
 40
1.0
 40
1.0
 10
120.2966073773
 20
210.7927902973
 30
0.0
 10
120.354355035
 20
210.2422810563
 30
0.0
 10
120.6235368776
 20
209.1145751652
 30
0.0
 10
121.3569171714
 20
207.5235073617
 30
0.0
 10
122.3684372543
 20
206.0934739604
 30
0.0
 10
123.2103538274
 20
205.2968860511
 30
0.0
 10
123.6580908872
 20
204.9719547438
 30
0.0
  0
SPLINE
  5
348
100
AcDbEntity
  8
0
100
AcDbSpline
 62
7
  6
BYLAYER
 70
0
 71
3
 72
11
 73
7
 74
0
 42
0.0000001
 43
0.0000001
 44
0.0000000001
 40
0.0
 40
0.0
 40
0.0
 40
0.0
 40
0.2897016592
 40
0.5490895811
 40
0.782218914
 40
1.0
 40
1.0
 40
1.0
 40
1.0
 10
89.8589211199
 20
224.0406529005
 30
0.0
 10
89.8589211199
 20
223.761979088
 30
0.0
 10
89.8166703679
 20
223.2319978383
 30
0.0
 10
89.6020455479
 20
222.5038260058
 30
0.0
 10
89.2406623022
 20
221.9129562547
 30
0.0
 10
88.9012128069
 20
221.6276051835
 30
0.0
 10
88.7197959381
 20
221.5228464517
 30
0.0
  0
SPLINE
  5
349
100
AcDbEntity
  8
0
100
AcDbSpline
 62
7
  6
BYLAYER
 70
0
 71
3
 72
11
 73
7
 74
0
 42
0.0000001
 43
0.0000001
 44
0.0000000001
 40
0.0
 40
0.0
 40
0.0
 40
0.0
 40
0.289545377
 40
0.5491366156
 40
0.7822776226
 40
1.0
 40
1.0
 40
1.0
 40
1.0
 10
104.6726242594
 20
231.4907263693
 30
0.0
 10
104.6726242594
 20
231.3514668473
 30
0.0
 10
104.6513601652
 20
231.0864767831
 30
0.0
 10
104.5442361709
 20
230.7223292011
 30
0.0
 10
104.3635195647
 20
230.4267789399
 30
0.0
 10
104.1936954105
 20
230.2842722196
 30
0.0
 10
104.1030098766
 20
230.2319129972
 30
0.0
  0
SPLINE
  5
34A
100
AcDbEntity
  8
0
100
AcDbSpline
 62
7
  6
BYLAYER
 70
0
 71
3
 72
15
 73
11
 74
0
 42
0.0000001
 43
0.0000001
 44
0.0000000001
 40
0.0
 40
0.0
 40
0.0
 40
0.0
 40
0.0869302719
 40
0.186400037
 40
0.3037880338
 40
0.437600436
 40
0.5820992732
 40
0.7294176326
 40
0.8711704075
 40
1.0
 40
1.0
 40
1.0
 40
1.0
 10
89.2180504188
 20
110.8382503497
 30
0.0
 10
89.0557528213
 20
110.7444613918
 30
0.0
 10
88.6478523976
 20
110.639718399
 30
0.0
 10
87.991393106
 20
110.7711630752
 30
0.0
 10
87.320697364
 20
111.137503173
 30
0.0
 10
86.6775852543
 20
111.7069649277
 30
0.0
 10
86.1098132038
 20
112.4337801211
 30
0.0
 10
85.6627601159
 20
113.2599989995
 30
0.0
 10
85.3727053814
 20
114.1176477976
 30
0.0
 10
85.2949802315
 20
114.7017731476
 30
0.0
 10
85.2949802315
 20
114.9795692737
 30
0.0
  0
SPLINE
  5
34B
100
AcDbEntity
  8
0
100
AcDbSpline
 62
7
  6
BYLAYER
 70
0
 71
3
 72
15
 73
11
 74
0
 42
0.0000001
 43
0.0000001
 44
0.0000000001
 40
0.0
 40
0.0
 40
0.0
 40
0.0
 40
0.0869302719
 40
0.186400037
 40
0.3037880338
 40
0.437600436
 40
0.5820992732
 40
0.7294176326
 40
0.8711704075
 40
1.0
 40
1.0
 40
1.0
 40
1.0
 10
81.9348202373
 20
115.043130114
 30
0.0
 10
81.7725226398
 20
114.9493411561
 30
0.0
 10
81.3646222161
 20
114.8445981634
 30
0.0
 10
80.7081629245
 20
114.9760428396
 30
0.0
 10
80.0374671825
 20
115.3423829374
 30
0.0
 10
79.3943550728
 20
115.9118446921
 30
0.0
 10
78.8265830224
 20
116.6386598855
 30
0.0
 10
78.3795299344
 20
117.4648787639
 30
0.0
 10
78.0894751999
 20
118.322527562
 30
0.0
 10
78.0117500501
 20
118.906652912
 30
0.0
 10
78.0117500501
 20
119.1844490381
 30
0.0
  0
SPLINE
  5
34C
100
AcDbEntity
  8
0
100
AcDbSpline
 62
7
  6
BYLAYER
 70
0
 71
3
 72
11
 73
7
 74
0
 42
0.0000001
 43
0.0000001
 44
0.0000000001
 40
0.0
 40
0.0
 40
0.0
 40
0.0
 40
0.2177843138
 40
0.4509117638
 40
0.7102976702
 40
1.0
 40
1.0
 40
1.0
 40
1.0
 10
130.0890954786
 20
179.6720151139
 30
0.0
 10
130.2573233849
 20
179.7691408872
 30
0.0
 10
130.6438531535
 20
179.9094157065
 30
0.0
 10
131.2858725126
 20
179.9256715141
 30
0.0
 10
131.9701146854
 20
179.7604392287
 30
0.0
 10
132.4152893417
 20
179.5486610103
 30
0.0
 10
132.6390713451
 20
179.4194633337
 30
0.0
  0
SPLINE
  5
34D
100
AcDbEntity
  8
0
100
AcDbSpline
 62
7
  6
BYLAYER
 70
0
 71
3
 72
17
 73
13
 74
0
 42
0.0000001
 43
0.0000001
 44
0.0000000001
 40
0.0
 40
0.0
 40
0.0
 40
0.0
 40
0.0428590609
 40
0.0874849985
 40
0.135319076
 40
0.1872808618
 40
0.3045407056
 40
0.438205812
 40
0.5825475166
 40
0.7297120328
 40
0.871305527
 40
1.0
 40
1.0
 40
1.0
 40
1.0
 10
120.3310498154
 20
174.0382678238
 30
0.0
 10
120.4567756837
 20
174.1108680507
 30
0.0
 10
120.7339591538
 20
174.2259693534
 30
0.0
 10
121.1914286155
 20
174.2931179344
 30
0.0
 10
121.6827372123
 20
174.256926298
 30
0.0
 10
122.3965978241
 20
174.0670639907
 30
0.0
 10
123.3091613918
 20
173.5680755099
 30
0.0
 10
124.3174001475
 20
172.675178911
 30
0.0
 10
125.208681934
 20
171.5344250555
 30
0.0
 10
125.9101085005
 20
170.2379412999
 30
0.0
 10
126.3653523592
 20
168.8920755831
 30
0.0
 10
126.4872980126
 20
167.9754468698
 30
0.0
 10
126.4872980126
 20
167.5395038288
 30
0.0
  0
SPLINE
  5
34E
100
AcDbEntity
  8
0
100
AcDbSpline
 62
7
  6
BYLAYER
 70
0
 71
3
 72
11
 73
7
 74
0
 42
0.0000001
 43
0.0000001
 44
0.0000000001
 40
0.0
 40
0.0
 40
0.0
 40
0.0
 40
0.2896413962
 40
0.5491107668
 40
0.7822355977
 40
1.0
 40
1.0
 40
1.0
 40
1.0
 10
105.7336275441
 20
180.3378723706
 30
0.0
 10
105.7336275441
 20
180.553165538
 30
0.0
 10
105.7663521852
 20
180.9627041019
 30
0.0
 10
105.9321080275
 20
181.5253969264
 30
0.0
 10
106.2113231264
 20
181.9821021733
 30
0.0
 10
106.4737434798
 20
182.2024077545
 30
0.0
 10
106.6138915117
 20
182.2833968638
 30
0.0
  0
SPLINE
  5
34F
100
AcDbEntity
  8
0
100
AcDbSpline
 62
7
  6
BYLAYER
 70
0
 71
3
 72
17
 73
13
 74
0
 42
0.0000001
 43
0.0000001
 44
0.0000000001
 40
0.0
 40
0.0
 40
0.0
 40
0.0
 40
0.0428592941
 40
0.0874854419
 40
0.135319786
 40
0.1872817573
 40
0.3045420278
 40
0.4382073436
 40
0.582548962
 40
0.7297130881
 40
0.8713060114
 40
1.0
 40
1.0
 40
1.0
 40
1.0
 10
92.0466608427
 20
190.3678978355
 30
0.0
 10
92.1723868492
 20
190.4404994039
 30
0.0
 10
92.4495727528
 20
190.555599139
 30
0.0
 10
92.9070442423
 20
190.6227498602
 30
0.0
 10
93.398354961
 20
190.5865538573
 30
0.0
 10
94.1122185514
 20
190.3966922121
 30
0.0
 10
95.0247828697
 20
189.8976979302
 30
0.0
 10
96.0330210757
 20
189.0047985275
 30
0.0
 10
96.9243000959
 20
187.8640434965
 30
0.0
 10
97.6257230331
 20
186.5675619399
 30
0.0
 10
98.0809642686
 20
185.2217005413
 30
0.0
 10
98.2029089584
 20
184.3050753843
 30
0.0
 10
98.2029089584
 20
183.8691339817
 30
0.0
  0
SPLINE
  5
350
100
AcDbEntity
  8
0
100
AcDbSpline
 62
7
  6
BYLAYER
 70
0
 71
3
 72
13
 73
9
 74
0
 42
0.0000001
 43
0.0000001
 44
0.0000000001
 40
0.0
 40
0.0
 40
0.0
 40
0.0
 40
0.0881576998
 40
0.1845894649
 40
0.2943163397
 40
0.4184981016
 40
0.700652445
 40
1.0
 40
1.0
 40
1.0
 40
1.0
 10
104.1030098766
 20
230.2319129972
 30
0.0
 10
103.9966722604
 20
230.170516712
 30
0.0
 10
103.7449800015
 20
230.0880044542
 30
0.0
 10
103.3287364372
 20
230.1102133508
 30
0.0
 10
102.8897632928
 20
230.2628512673
 30
0.0
 10
102.2736984383
 20
230.6411688899
 30
0.0
 10
101.5862760229
 20
231.365524586
 30
0.0
 10
101.1903482605
 20
232.0833033232
 30
0.0
 10
101.0404184226
 20
232.4723556625
 30
0.0
  0
SPLINE
  5
351
100
AcDbEntity
  8
0
100
AcDbSpline
 62
7
  6
BYLAYER
 70
0
 71
3
 72
9
 73
5
 74
0
 42
0.0000001
 43
0.0000001
 44
0.0000000001
 40
0.0
 40
0.0
 40
0.0
 40
0.0
 40
0.2662399899
 40
1.0
 40
1.0
 40
1.0
 40
1.0
 10
101.0404184226
 20
232.4723556625
 30
0.0
 10
100.9991440424
 20
232.5794583874
 30
0.0
 10
100.8599136455
 20
232.9872045373
 30
0.0
 10
100.7835207645
 20
233.4197142776
 30
0.0
 10
100.7835207645
 20
233.7360505153
 30
0.0
  0
SPLINE
  5
352
100
AcDbEntity
  8
0
100
AcDbSpline
 62
7
  6
BYLAYER
 70
0
 71
3
 72
9
 73
5
 74
0
 42
0.0000001
 43
0.0000001
 44
0.0000000001
 40
0.0
 40
0.0
 40
0.0
 40
0.0
 40
0.4813036182
 40
1.0
 40
1.0
 40
1.0
 40
1.0
 10
27.4887472467
 20
174.5629429594
 30
0.0
 10
34.7452399276
 20
168.8826127268
 30
0.0
 10
50.7634245324
 20
158.2606733048
 30
0.0
 10
67.9910993828
 20
149.7949287049
 30
0.0
 10
77.1284974025
 20
145.9040694248
 30
0.0
  0
SPLINE
  5
353
100
AcDbEntity
  8
0
100
AcDbSpline
 62
7
  6
BYLAYER
 70
0
 71
3
 72
14
 73
10
 74
0
 42
0.0000001
 43
0.0000001
 44
0.0000000001
 40
0.0
 40
0.0
 40
0.0
 40
0.0
 40
0.1269846634
 40
0.2665985338
 40
0.5546663734
 40
0.6892393319
 40
0.8089961529
 40
0.9115365668
 40
1.0
 40
1.0
 40
1.0
 40
1.0
 10
102.795934084
 20
116.3066094933
 30
0.0
 10
102.9379529759
 20
116.224616703
 30
0.0
 10
103.2144917545
 20
116.0139521439
 30
0.0
 10
103.6945223363
 20
115.4793508259
 30
0.0
 10
104.0440217181
 20
114.8245284716
 30
0.0
 10
104.2077234824
 20
114.1401667063
 30
0.0
 10
104.2203962961
 20
113.6751794905
 30
0.0
 10
104.1228074427
 20
113.2792135005
 30
0.0
 10
103.9709777473
 20
113.0726776385
 30
0.0
 10
103.8821041584
 20
113.0008952949
 30
0.0
  0
SPLINE
  5
354
100
AcDbEntity
  8
0
100
AcDbSpline
 62
7
  6
BYLAYER
 70
0
 71
3
 72
17
 73
13
 74
0
 42
0.0000001
 43
0.0000001
 44
0.0000000001
 40
0.0
 40
0.0
 40
0.0
 40
0.0
 40
0.1286930371
 40
0.2702795961
 40
0.4174375933
 40
0.5617786793
 40
0.695447824
 40
0.8127111198
 40
0.8646738574
 40
0.9125098522
 40
0.9571380033
 40
1.0
 40
1.0
 40
1.0
 40
1.0
 10
149.2208757149
 20
155.2310660105
 30
0.0
 10
149.2208757149
 20
155.7225632763
 30
0.0
 10
149.0833932618
 20
156.7559819951
 30
0.0
 10
148.5701508079
 20
158.2733205227
 30
0.0
 10
147.7793739876
 20
159.7349986435
 30
0.0
 10
146.7745301629
 20
161.0211476333
 30
0.0
 10
145.6377953656
 20
162.02787607
 30
0.0
 10
144.6089170611
 20
162.5905198909
 30
0.0
 10
143.8040535821
 20
162.80457339
 30
0.0
 10
143.2501112251
 20
162.8454268379
 30
0.0
 10
142.7343154366
 20
162.7696997169
 30
0.0
 10
142.4217749821
 20
162.6399480447
 30
0.0
 10
142.2800209246
 20
162.5580809857
 30
0.0
  0
SPLINE
  5
355
100
AcDbEntity
  8
0
100
AcDbSpline
 62
7
  6
BYLAYER
 70
0
 71
3
 72
15
 73
11
 74
0
 42
0.0000001
 43
0.0000001
 44
0.0000000001
 40
0.0
 40
0.0
 40
0.0
 40
0.0
 40
0.0869274402
 40
0.1863924178
 40
0.3037799024
 40
0.4375872819
 40
0.5820828602
 40
0.7293903552
 40
0.8711738772
 40
1.0
 40
1.0
 40
1.0
 40
1.0
 10
197.4414937555
 20
176.3441334926
 30
0.0
 10
197.3041408796
 20
176.2648298874
 30
0.0
 10
196.9590663373
 20
176.1760992748
 30
0.0
 10
196.4035992292
 20
176.2873696991
 30
0.0
 10
195.8361166396
 20
176.5973087553
 30
0.0
 10
195.2919367185
 20
177.0791259172
 30
0.0
 10
194.8115667922
 20
177.6941006726
 30
0.0
 10
194.433198944
 20
178.3931841529
 30
0.0
 10
194.187819903
 20
179.1189274004
 30
0.0
 10
194.1220046434
 20
179.6132221657
 30
0.0
 10
194.1220046434
 20
179.8482710107
 30
0.0
  0
SPLINE
  5
356
100
AcDbEntity
  8
0
100
AcDbSpline
 62
7
  6
BYLAYER
 70
0
 71
3
 72
17
 73
13
 74
0
 42
0.0000001
 43
0.0000001
 44
0.0000000001
 40
0.0
 40
0.0
 40
0.0
 40
0.0
 40
0.1286930371
 40
0.2702795961
 40
0.4174375933
 40
0.5617786793
 40
0.695447824
 40
0.8127111198
 40
0.8646738574
 40
0.9125098522
 40
0.9571380033
 40
1.0
 40
1.0
 40
1.0
 40
1.0
 10
76.3885739003
 20
197.2798636542
 30
0.0
 10
76.3885739003
 20
197.77136092
 30
0.0
 10
76.2510914473
 20
198.8047796388
 30
0.0
 10
75.7378489933
 20
200.3221181664
 30
0.0
 10
74.9470721731
 20
201.7837962873
 30
0.0
 10
73.9422283484
 20
203.069945277
 30
0.0
 10
72.8054935511
 20
204.0766737137
 30
0.0
 10
71.7766152465
 20
204.6393175346
 30
0.0
 10
70.9717517675
 20
204.8533710337
 30
0.0
 10
70.4178094105
 20
204.8942244816
 30
0.0
 10
69.902013622
 20
204.8184973606
 30
0.0
 10
69.5894731675
 20
204.6887456884
 30
0.0
 10
69.44771911
 20
204.6068786294
 30
0.0
  0
SPLINE
  5
357
100
AcDbEntity
  8
0
100
AcDbSpline
 62
7
  6
BYLAYER
 70
0
 71
3
 72
11
 73
7
 74
0
 42
0.0000001
 43
0.0000001
 44
0.0000000001
 40
0.0
 40
0.0
 40
0.0
 40
0.0
 40
0.2372397681
 40
0.4999988395
 40
0.7627585385
 40
1.0
 40
1.0
 40
1.0
 40
1.0
 10
104.3546822908
 20
195.7490934866
 30
0.0
 10
104.8666695585
 20
195.4535041879
 30
0.0
 10
105.8355358055
 20
194.6380807795
 30
0.0
 10
106.9663343893
 20
193.0928102723
 30
0.0
 10
107.7391884326
 20
191.3408744194
 30
0.0
 10
107.9609418953
 20
190.0940961641
 30
0.0
 10
107.9609418953
 20
189.5029033147
 30
0.0
  0
SPLINE
  5
358
100
AcDbEntity
  8
0
100
AcDbSpline
 62
7
  6
BYLAYER
 70
0
 71
3
 72
17
 73
13
 74
0
 42
0.0000001
 43
0.0000001
 44
0.0000000001
 40
0.0
 40
0.0
 40
0.0
 40
0.0
 40
0.0428592927
 40
0.0874854741
 40
0.1353198782
 40
0.1872819046
 40
0.3045421967
 40
0.4382074307
 40
0.5825489112
 40
0.7297129634
 40
0.8713059682
 40
1.0
 40
1.0
 40
1.0
 40
1.0
 10
152.0380503979
 20
168.191856209
 30
0.0
 10
152.1798005172
 20
168.2737094724
 30
0.0
 10
152.4923140109
 20
168.4034761205
 30
0.0
 10
153.0080897785
 20
168.4791819854
 30
0.0
 10
153.5620170237
 20
168.4383699624
 30
0.0
 10
154.3668602992
 20
168.2243081611
 30
0.0
 10
155.3957275618
 20
167.6617172919
 30
0.0
 10
156.532462407
 20
166.6550208523
 30
0.0
 10
157.5373327891
 20
165.3688814724
 30
0.0
 10
158.3281534023
 20
163.9071693697
 30
0.0
 10
158.8414198395
 20
162.3897834537
 30
0.0
 10
158.9789086518
 20
161.3563364607
 30
0.0
 10
158.9789086518
 20
160.8648353436
 30
0.0
  0
SPLINE
  5
359
100
AcDbEntity
  8
0
100
AcDbSpline
 62
7
  6
BYLAYER
 70
0
 71
3
 72
11
 73
7
 74
0
 42
0.0000001
 43
0.0000001
 44
0.0000000001
 40
0.0
 40
0.0
 40
0.0
 40
0.0
 40
0.2896413962
 40
0.5491107668
 40
0.7822355977
 40
1.0
 40
1.0
 40
1.0
 40
1.0
 10
69.3174766368
 20
201.3622711925
 30
0.0
 10
69.3174766368
 20
201.5775643598
 30
0.0
 10
69.3502012779
 20
201.9871029238
 30
0.0
 10
69.5159571202
 20
202.5497957483
 30
0.0
 10
69.7951722192
 20
203.0065009951
 30
0.0
 10
70.0575925725
 20
203.2268065763
 30
0.0
 10
70.1977406044
 20
203.3077956856
 30
0.0
  0
SPLINE
  5
35A
100
AcDbEntity
  8
0
100
AcDbSpline
 62
7
  6
BYLAYER
 70
0
 71
3
 72
9
 73
5
 74
0
 42
0.0000001
 43
0.0000001
 44
0.0000000001
 40
0.0
 40
0.0
 40
0.0
 40
0.0
 40
0.2413257064
 40
1.0
 40
1.0
 40
1.0
 40
1.0
 10
26.7274759356
 20
159.745395149
 30
0.0
 10
28.8503653715
 20
158.1043356434
 30
0.0
 10
37.8009012381
 20
151.5038881248
 30
0.0
 10
47.3196900037
 20
145.6868385743
 30
0.0
 10
54.7425452884
 20
141.679516662
 30
0.0
  0
SPLINE
  5
35B
100
AcDbEntity
  8
0
100
AcDbSpline
 62
7
  6
BYLAYER
 70
0
 71
3
 72
9
 73
5
 74
0
 42
0.0000001
 43
0.0000001
 44
0.0000000001
 40
0.0
 40
0.0
 40
0.0
 40
0.0
 40
0.5117534418
 40
1.0
 40
1.0
 40
1.0
 40
1.0
 10
56.2384939743
 20
142.4528225021
 30
0.0
 10
51.228761246
 20
145.1532881715
 30
0.0
 10
41.6279390712
 20
150.7901983273
 30
0.0
 10
32.5167688971
 20
157.1945659882
 30
0.0
 10
28.2234246215
 20
160.5187009892
 30
0.0
  0
SPLINE
  5
35C
100
AcDbEntity
  8
0
100
AcDbSpline
 62
7
  6
BYLAYER
 70
0
 71
3
 72
11
 73
7
 74
0
 42
0.0000001
 43
0.0000001
 44
0.0000000001
 40
0.0
 40
0.0
 40
0.0
 40
0.0
 40
0.2896413962
 40
0.5491107668
 40
0.7822355977
 40
1.0
 40
1.0
 40
1.0
 40
1.0
 10
142.1497784513
 20
159.3134735488
 30
0.0
 10
142.1497784513
 20
159.5287667161
 30
0.0
 10
142.1825030924
 20
159.9383052801
 30
0.0
 10
142.3482589347
 20
160.5009981046
 30
0.0
 10
142.6274740337
 20
160.9577033514
 30
0.0
 10
142.8898943871
 20
161.1780089326
 30
0.0
 10
143.0300424189
 20
161.2589980419
 30
0.0
  0
SPLINE
  5
35D
100
AcDbEntity
  8
0
100
AcDbSpline
 62
7
  6
BYLAYER
 70
0
 71
3
 72
11
 73
7
 74
0
 42
0.0000001
 43
0.0000001
 44
0.0000000001
 40
0.0
 40
0.0
 40
0.0
 40
0.0
 40
0.2896413962
 40
0.5491107668
 40
0.7822355977
 40
1.0
 40
1.0
 40
1.0
 40
1.0
 10
78.0117500501
 20
119.1844490381
 30
0.0
 10
78.0117500501
 20
119.3490849896
 30
0.0
 10
78.0367747756
 20
119.6622615385
 30
0.0
 10
78.1635292433
 20
120.0925560513
 30
0.0
 10
78.3770466719
 20
120.4418012401
 30
0.0
 10
78.5777210598
 20
120.6102702139
 30
0.0
 10
78.6848930841
 20
120.6722030622
 30
0.0
  0
SPLINE
  5
35E
100
AcDbEntity
  8
0
100
AcDbSpline
 62
7
  6
BYLAYER
 70
0
 71
3
 72
11
 73
7
 74
0
 42
0.0000001
 43
0.0000001
 44
0.0000000001
 40
0.0
 40
0.0
 40
0.0
 40
0.0
 40
0.2896413962
 40
0.5491107668
 40
0.7822355977
 40
1.0
 40
1.0
 40
1.0
 40
1.0
 10
85.2949802315
 20
114.9795692737
 30
0.0
 10
85.2949802315
 20
115.1442052252
 30
0.0
 10
85.3200049571
 20
115.4573817741
 30
0.0
 10
85.4467594247
 20
115.887676287
 30
0.0
 10
85.6602768534
 20
116.2369214757
 30
0.0
 10
85.8609512412
 20
116.4053904496
 30
0.0
 10
85.9681232656
 20
116.4673232979
 30
0.0
  0
SPLINE
  5
35F
100
AcDbEntity
  8
0
100
AcDbSpline
 62
7
  6
BYLAYER
 70
0
 71
3
 72
11
 73
7
 74
0
 42
0.0000001
 43
0.0000001
 44
0.0000000001
 40
0.0
 40
0.0
 40
0.0
 40
0.0
 40
0.2896413962
 40
0.5491107668
 40
0.7822355977
 40
1.0
 40
1.0
 40
1.0
 40
1.0
 10
93.2146091667
 20
110.4072728309
 30
0.0
 10
93.2146091667
 20
110.5719087824
 30
0.0
 10
93.2396338923
 20
110.8850853313
 30
0.0
 10
93.3663883599
 20
111.3153798441
 30
0.0
 10
93.5799057885
 20
111.6646250329
 30
0.0
 10
93.7805801764
 20
111.8330940068
 30
0.0
 10
93.8877522008
 20
111.895026855
 30
0.0
  0
SPLINE
  5
360
100
AcDbEntity
  8
0
100
AcDbSpline
 62
7
  6
BYLAYER
 70
0
 71
3
 72
11
 73
7
 74
0
 42
0.0000001
 43
0.0000001
 44
0.0000000001
 40
0.0
 40
0.0
 40
0.0
 40
0.0
 40
0.2896413962
 40
0.5491107668
 40
0.7822355977
 40
1.0
 40
1.0
 40
1.0
 40
1.0
 10
100.4978393482
 20
106.2023930665
 30
0.0
 10
100.4978393482
 20
106.367029018
 30
0.0
 10
100.5228640737
 20
106.6802055669
 30
0.0
 10
100.6496185414
 20
107.1105000798
 30
0.0
 10
100.86313597
 20
107.4597452685
 30
0.0
 10
101.0638103579
 20
107.6282142424
 30
0.0
 10
101.1709823822
 20
107.6901470907
 30
0.0
  0
SPLINE
  5
361
100
AcDbEntity
  8
0
100
AcDbSpline
 62
7
  6
BYLAYER
 70
0
 71
3
 72
17
 73
13
 74
0
 42
0.0000001
 43
0.0000001
 44
0.0000000001
 40
0.0
 40
0.0
 40
0.0
 40
0.0
 40
0.0428592927
 40
0.0874854741
 40
0.1353198782
 40
0.1872819046
 40
0.3045421967
 40
0.4382074307
 40
0.5825489112
 40
0.7297129634
 40
0.8713059682
 40
1.0
 40
1.0
 40
1.0
 40
1.0
 10
115.6218994905
 20
189.2162550309
 30
0.0
 10
115.7636496099
 20
189.2981082943
 30
0.0
 10
116.0761631036
 20
189.4278749424
 30
0.0
 10
116.5919388712
 20
189.5035808073
 30
0.0
 10
117.1458661163
 20
189.4627687843
 30
0.0
 10
117.9507093919
 20
189.248706983
 30
0.0
 10
118.9795766545
 20
188.6861161138
 30
0.0
 10
120.1163114997
 20
187.6794196742
 30
0.0
 10
121.1211818818
 20
186.3932802943
 30
0.0
 10
121.912002495
 20
184.9315681915
 30
0.0
 10
122.4252689322
 20
183.4141822756
 30
0.0
 10
122.5627577445
 20
182.3807352826
 30
0.0
 10
122.5627577445
 20
181.8892341654
 30
0.0
  0
SPLINE
  5
362
100
AcDbEntity
  8
0
100
AcDbSpline
 62
7
  6
BYLAYER
 70
0
 71
3
 72
17
 73
13
 74
0
 42
0.0000001
 43
0.0000001
 44
0.0000000001
 40
0.0
 40
0.0
 40
0.0
 40
0.0
 40
0.0428592927
 40
0.0874854741
 40
0.1353198782
 40
0.1872819046
 40
0.3045421967
 40
0.4382074307
 40
0.5825489112
 40
0.7297129634
 40
0.8713059682
 40
1.0
 40
1.0
 40
1.0
 40
1.0
 10
88.7197959381
 20
221.5228464517
 30
0.0
 10
88.5842088674
 20
221.4445520258
 30
0.0
 10
88.2852829169
 20
221.3204274058
 30
0.0
 10
87.7919321827
 20
221.2480131003
 30
0.0
 10
87.2620887308
 20
221.2870506875
 30
0.0
 10
86.4922386412
 20
221.491805454
 30
0.0
 10
85.5081047378
 20
222.0299358506
 30
0.0
 10
84.4207931467
 20
222.9928628798
 30
0.0
 10
83.4596127813
 20
224.2230831562
 30
0.0
 10
82.7031756729
 20
225.6212425588
 30
0.0
 10
82.2122251678
 20
227.0726551741
 30
0.0
 10
82.08071413
 20
228.0611696891
 30
0.0
 10
82.08071413
 20
228.5313011925
 30
0.0
  0
SPLINE
  5
363
100
AcDbEntity
  8
0
100
AcDbSpline
 62
7
  6
BYLAYER
 70
0
 71
3
 72
16
 73
12
 74
0
 42
0.0000001
 43
0.0000001
 44
0.0000000001
 40
0.0
 40
0.0
 40
0.0
 40
0.0
 40
0.0428765743
 40
0.0875234668
 40
0.1869286092
 40
0.3042403425
 40
0.4379658106
 40
0.5823707712
 40
0.7295934221
 40
0.8712541043
 40
1.0
 40
1.0
 40
1.0
 40
1.0
 10
110.8637962505
 20
174.92230147
 30
0.0
 10
110.7590474781
 20
174.8617689769
 30
0.0
 10
110.5280661677
 20
174.7658158599
 30
0.0
 10
110.0016652293
 20
174.6886130762
 30
0.0
 10
109.2584929681
 20
174.8337306745
 30
0.0
 10
108.3830428609
 20
175.3139099384
 30
0.0
 10
107.5415262854
 20
176.0582273838
 30
0.0
 10
106.7992132366
 20
177.0087876729
 30
0.0
 10
106.2145613682
 20
178.0891972379
 30
0.0
 10
105.8352704328
 20
179.2107458874
 30
0.0
 10
105.7336275441
 20
179.9746005134
 30
0.0
 10
105.7336275441
 20
180.3378723706
 30
0.0
  0
SPLINE
  5
364
100
AcDbEntity
  8
0
100
AcDbSpline
 62
7
  6
BYLAYER
 70
0
 71
3
 72
17
 73
13
 74
0
 42
0.0000001
 43
0.0000001
 44
0.0000000001
 40
0.0
 40
0.0
 40
0.0
 40
0.0
 40
0.0428592927
 40
0.0874854741
 40
0.1353198782
 40
0.1872819046
 40
0.3045421967
 40
0.4382074307
 40
0.5825489112
 40
0.7297129634
 40
0.8713059682
 40
1.0
 40
1.0
 40
1.0
 40
1.0
 10
79.2057485832
 20
210.2406538527
 30
0.0
 10
79.3474987026
 20
210.3225071161
 30
0.0
 10
79.6600121963
 20
210.4522737643
 30
0.0
 10
80.1757879639
 20
210.5279796291
 30
0.0
 10
80.729715209
 20
210.4871676061
 30
0.0
 10
81.5345584846
 20
210.2731058049
 30
0.0
 10
82.5634257472
 20
209.7105149356
 30
0.0
 10
83.7001605924
 20
208.703818496
 30
0.0
 10
84.7050309745
 20
207.4176791161
 30
0.0
 10
85.4958515877
 20
205.9559670134
 30
0.0
 10
86.0091180249
 20
204.4385810974
 30
0.0
 10
86.1466068372
 20
203.4051341045
 30
0.0
 10
86.1466068372
 20
202.9136329873
 30
0.0
  0
SPLINE
  5
365
100
AcDbEntity
  8
0
100
AcDbSpline
 62
7
  6
BYLAYER
 70
0
 71
3
 72
11
 73
7
 74
0
 42
0.0000001
 43
0.0000001
 44
0.0000000001
 40
0.0
 40
0.0
 40
0.0
 40
0.0
 40
0.289545377
 40
0.5491366156
 40
0.7822776226
 40
1.0
 40
1.0
 40
1.0
 40
1.0
 10
194.1220046434
 20
179.8482710107
 30
0.0
 10
194.1220046434
 20
179.9875305327
 30
0.0
 10
194.1432687376
 20
180.2525205968
 30
0.0
 10
194.2503927319
 20
180.6166681788
 30
0.0
 10
194.4311093381
 20
180.9122184401
 30
0.0
 10
194.6009334923
 20
181.0547251603
 30
0.0
 10
194.6916190262
 20
181.1070843827
 30
0.0
  0
SPLINE
  5
366
100
AcDbEntity
  8
0
100
AcDbSpline
 62
7
  6
BYLAYER
 70
0
 71
3
 72
16
 73
12
 74
0
 42
0.0000001
 43
0.0000001
 44
0.0000000001
 40
0.0
 40
0.0
 40
0.0
 40
0.0
 40
0.0428765743
 40
0.0875234668
 40
0.1869286092
 40
0.3042403425
 40
0.4379658106
 40
0.5823707712
 40
0.7295934221
 40
0.8712541043
 40
1.0
 40
1.0
 40
1.0
 40
1.0
 10
147.2799471577
 20
153.8979026481
 30
0.0
 10
147.1751983854
 20
153.837370155
 30
0.0
 10
146.944217075
 20
153.741417038
 30
0.0
 10
146.4178161366
 20
153.6642142544
 30
0.0
 10
145.6746438753
 20
153.8093318527
 30
0.0
 10
144.7991937681
 20
154.2895111165
 30
0.0
 10
143.9576771926
 20
155.0338285619
 30
0.0
 10
143.2153641439
 20
155.984388851
 30
0.0
 10
142.6307122755
 20
157.0647984161
 30
0.0
 10
142.25142134
 20
158.1863470655
 30
0.0
 10
142.1497784513
 20
158.9502016915
 30
0.0
 10
142.1497784513
 20
159.3134735488
 30
0.0
  0
SPLINE
  5
367
100
AcDbEntity
  8
0
100
AcDbSpline
 62
7
  6
BYLAYER
 70
0
 71
3
 72
17
 73
13
 74
0
 42
0.0000001
 43
0.0000001
 44
0.0000000001
 40
0.0
 40
0.0
 40
0.0
 40
0.0
 40
0.1286930371
 40
0.2702795961
 40
0.4174375933
 40
0.5617786793
 40
0.695447824
 40
0.8127111198
 40
0.8646738574
 40
0.9125098522
 40
0.9571380033
 40
1.0
 40
1.0
 40
1.0
 40
1.0
 10
125.1323032988
 20
166.7541481964
 30
0.0
 10
125.1323032988
 20
167.190830855
 30
0.0
 10
125.0101536811
 20
168.1089967636
 30
0.0
 10
124.554150983
 20
169.4571129555
 30
0.0
 10
123.8515661503
 20
170.75577631
 30
0.0
 10
122.9587882989
 20
171.8984865535
 30
0.0
 10
121.9488287162
 20
172.792938834
 30
0.0
 10
121.0346968488
 20
173.292833374
 30
0.0
 10
120.3195963826
 20
173.4830143934
 30
0.0
 10
119.8274328692
 20
173.5193116294
 30
0.0
 10
119.3691615991
 20
173.4520300333
 30
0.0
 10
119.091477457
 20
173.3367490152
 30
0.0
 10
118.9655326288
 20
173.2640122424
 30
0.0
  0
SPLINE
  5
368
100
AcDbEntity
  8
0
100
AcDbSpline
 62
7
  6
BYLAYER
 70
0
 71
3
 72
11
 73
7
 74
0
 42
0.0000001
 43
0.0000001
 44
0.0000000001
 40
0.0
 40
0.0
 40
0.0
 40
0.0
 40
0.2897016592
 40
0.5490895811
 40
0.782218914
 40
1.0
 40
1.0
 40
1.0
 40
1.0
 10
149.96324786
 20
189.3401888255
 30
0.0
 10
149.96324786
 20
189.618862638
 30
0.0
 10
150.005498612
 20
190.1488438877
 30
0.0
 10
150.220123432
 20
190.8770157202
 30
0.0
 10
150.5815066777
 20
191.4678854713
 30
0.0
 10
150.920956173
 20
191.7532365425
 30
0.0
 10
151.1023730418
 20
191.8579952744
 30
0.0
  0
SPLINE
  5
369
100
AcDbEntity
  8
0
100
AcDbSpline
 62
7
  6
BYLAYER
 70
0
 71
3
 72
16
 73
12
 74
0
 42
0.0000001
 43
0.0000001
 44
0.0000000001
 40
0.0
 40
0.0
 40
0.0
 40
0.0
 40
0.0428765743
 40
0.0875234668
 40
0.1869286092
 40
0.3042403425
 40
0.4379658106
 40
0.5823707712
 40
0.7295934221
 40
0.8712541043
 40
1.0
 40
1.0
 40
1.0
 40
1.0
 10
74.4476453432
 20
195.9467002918
 30
0.0
 10
74.3428965708
 20
195.8861677987
 30
0.0
 10
74.1119152604
 20
195.7902146817
 30
0.0
 10
73.585514322
 20
195.7130118981
 30
0.0
 10
72.8423420608
 20
195.8581294964
 30
0.0
 10
71.9668919536
 20
196.3383087602
 30
0.0
 10
71.1253753781
 20
197.0826262056
 30
0.0
 10
70.3830623293
 20
198.0331864947
 30
0.0
 10
69.7984104609
 20
199.1135960598
 30
0.0
 10
69.4191195255
 20
200.2351447093
 30
0.0
 10
69.3174766368
 20
200.9989993353
 30
0.0
 10
69.3174766368
 20
201.3622711925
 30
0.0
  0
SPLINE
  5
36A
100
AcDbEntity
  8
0
100
AcDbSpline
 62
7
  6
BYLAYER
 70
0
 71
3
 72
17
 73
13
 74
0
 42
0.0000001
 43
0.0000001
 44
0.0000000001
 40
0.0
 40
0.0
 40
0.0
 40
0.0
 40
0.0428592927
 40
0.0874854741
 40
0.1353198782
 40
0.1872819046
 40
0.3045421967
 40
0.4382074307
 40
0.5825489112
 40
0.7297129634
 40
0.8713059682
 40
1.0
 40
1.0
 40
1.0
 40
1.0
 10
156.6023296682
 20
182.3317340847
 30
0.0
 10
156.4667425975
 20
182.2534396589
 30
0.0
 10
156.167816647
 20
182.1293150389
 30
0.0
 10
155.6744659128
 20
182.0569007334
 30
0.0
 10
155.1446224609
 20
182.0959383206
 30
0.0
 10
154.3747723712
 20
182.300693087
 30
0.0
 10
153.3906384679
 20
182.8388234837
 30
0.0
 10
152.3033268768
 20
183.8017505128
 30
0.0
 10
151.3421465113
 20
185.0319707892
 30
0.0
 10
150.585709403
 20
186.4301301919
 30
0.0
 10
150.0947588979
 20
187.8815428071
 30
0.0
 10
149.96324786
 20
188.8700573222
 30
0.0
 10
149.96324786
 20
189.3401888255
 30
0.0
  0
SPLINE
  5
36B
100
AcDbEntity
  8
0
100
AcDbSpline
 62
7
  6
BYLAYER
 70
0
 71
3
 72
17
 73
13
 74
0
 42
0.0000001
 43
0.0000001
 44
0.0000000001
 40
0.0
 40
0.0
 40
0.0
 40
0.0
 40
0.0428592927
 40
0.0874854741
 40
0.1353198782
 40
0.1872819046
 40
0.3045421967
 40
0.4382074307
 40
0.5825489112
 40
0.7297129634
 40
0.8713059682
 40
1.0
 40
1.0
 40
1.0
 40
1.0
 10
159.0772137104
 20
92.0674284626
 30
0.0
 10
158.9416266397
 20
91.9891340368
 30
0.0
 10
158.6427006892
 20
91.8650094168
 30
0.0
 10
158.149349955
 20
91.7925951113
 30
0.0
 10
157.6195065031
 20
91.8316326985
 30
0.0
 10
156.8496564135
 20
92.0363874649
 30
0.0
 10
155.8655225101
 20
92.5745178616
 30
0.0
 10
154.7782109191
 20
93.5374448907
 30
0.0
 10
153.8170305536
 20
94.7676651672
 30
0.0
 10
153.0605934453
 20
96.1658245698
 30
0.0
 10
152.5696429401
 20
97.6172371851
 30
0.0
 10
152.4381319023
 20
98.6057517001
 30
0.0
 10
152.4381319023
 20
99.0758832035
 30
0.0
  0
SPLINE
  5
36C
100
AcDbEntity
  8
0
100
AcDbSpline
 62
7
  6
BYLAYER
 70
0
 71
3
 72
17
 73
13
 74
0
 42
0.0000001
 43
0.0000001
 44
0.0000000001
 40
0.0
 40
0.0
 40
0.0
 40
0.0
 40
0.1286930371
 40
0.2702795961
 40
0.4174375933
 40
0.5617786793
 40
0.695447824
 40
0.8127111198
 40
0.8646738574
 40
0.9125098522
 40
0.9571380033
 40
1.0
 40
1.0
 40
1.0
 40
1.0
 10
96.8514404463
 20
183.0817425418
 30
0.0
 10
96.8514404463
 20
183.5184252004
 30
0.0
 10
96.7292908286
 20
184.4365911091
 30
0.0
 10
96.2732881305
 20
185.784707301
 30
0.0
 10
95.5707032978
 20
187.0833706554
 30
0.0
 10
94.6779254465
 20
188.2260808989
 30
0.0
 10
93.6679658638
 20
189.1205331794
 30
0.0
 10
92.7538339963
 20
189.6204277194
 30
0.0
 10
92.0387335302
 20
189.8106087389
 30
0.0
 10
91.5465700167
 20
189.8469059749
 30
0.0
 10
91.0882987466
 20
189.7796243787
 30
0.0
 10
90.8106146045
 20
189.6643433606
 30
0.0
 10
90.6846697763
 20
189.5916065878
 30
0.0
  0
SPLINE
  5
36D
100
AcDbEntity
  8
0
100
AcDbSpline
 62
7
  6
BYLAYER
 70
0
 71
3
 72
11
 73
7
 74
0
 42
0.0000001
 43
0.0000001
 44
0.0000000001
 40
0.0
 40
0.0
 40
0.0
 40
0.0
 40
0.2176917448
 40
0.4508882656
 40
0.710622439
 40
1.0
 40
1.0
 40
1.0
 40
1.0
 10
101.7959815627
 20
116.4055837329
 30
0.0
 10
101.8618944286
 20
116.4437048865
 30
0.0
 10
102.0134547029
 20
116.4987382814
 30
0.0
 10
102.2653524348
 20
116.5052022386
 30
0.0
 10
102.533629579
 20
116.4400817016
 30
0.0
 10
102.7082774263
 20
116.3572169431
 30
0.0
 10
102.795934084
 20
116.3066094933
 30
0.0
  0
SPLINE
  5
36E
100
AcDbEntity
  8
0
100
AcDbSpline
 62
7
  6
BYLAYER
 70
0
 71
3
 72
11
 73
7
 74
0
 42
0.0000001
 43
0.0000001
 44
0.0000000001
 40
0.0
 40
0.0
 40
0.0
 40
0.0
 40
0.2897016592
 40
0.5490895811
 40
0.782218914
 40
1.0
 40
1.0
 40
1.0
 40
1.0
 10
116.021980995
 20
208.935745009
 30
0.0
 10
116.021980995
 20
209.2144188215
 30
0.0
 10
116.064231747
 20
209.7444000712
 30
0.0
 10
116.2788565669
 20
210.4725719037
 30
0.0
 10
116.6402398127
 20
211.0634416547
 30
0.0
 10
116.979689308
 20
211.348792726
 30
0.0
 10
117.1611061768
 20
211.4535514578
 30
0.0
  0
SPLINE
  5
36F
100
AcDbEntity
  8
0
100
AcDbSpline
 62
7
  6
BYLAYER
 70
0
 71
3
 72
11
 73
7
 74
0
 42
0.0000001
 43
0.0000001
 44
0.0000000001
 40
0.0
 40
0.0
 40
0.0
 40
0.0
 40
0.2897016592
 40
0.5490895811
 40
0.782218914
 40
1.0
 40
1.0
 40
1.0
 40
1.0
 10
152.4381319023
 20
99.0758832035
 30
0.0
 10
152.4381319023
 20
99.3545570159
 30
0.0
 10
152.4803826542
 20
99.8845382656
 30
0.0
 10
152.6950074742
 20
100.6127100982
 30
0.0
 10
153.05639072
 20
101.2035798492
 30
0.0
 10
153.3958402153
 20
101.4889309204
 30
0.0
 10
153.5772570841
 20
101.5936896523
 30
0.0
  0
SPLINE
  5
370
100
AcDbEntity
  8
0
100
AcDbSpline
 62
7
  6
BYLAYER
 70
0
 71
3
 72
17
 73
13
 74
0
 42
0.0000001
 43
0.0000001
 44
0.0000000001
 40
0.0
 40
0.0
 40
0.0
 40
0.0
 40
0.0428592927
 40
0.0874854741
 40
0.1353198782
 40
0.1872819046
 40
0.3045421967
 40
0.4382074307
 40
0.5825489112
 40
0.7297129634
 40
0.8713059682
 40
1.0
 40
1.0
 40
1.0
 40
1.0
 10
122.6610628031
 20
201.9272902682
 30
0.0
 10
122.5254757325
 20
201.8489958423
 30
0.0
 10
122.226549782
 20
201.7248712224
 30
0.0
 10
121.7331990477
 20
201.6524569168
 30
0.0
 10
121.2033555959
 20
201.691494504
 30
0.0
 10
120.4335055062
 20
201.8962492705
 30
0.0
 10
119.4493716029
 20
202.4343796671
 30
0.0
 10
118.3620600118
 20
203.3973066963
 30
0.0
 10
117.4008796463
 20
204.6275269727
 30
0.0
 10
116.644442538
 20
206.0256863754
 30
0.0
 10
116.1534920328
 20
207.4770989906
 30
0.0
 10
116.021980995
 20
208.4656135056
 30
0.0
 10
116.021980995
 20
208.935745009
 30
0.0
  0
SPLINE
  5
371
100
AcDbEntity
  8
0
100
AcDbSpline
 62
7
  6
BYLAYER
 70
0
 71
3
 72
15
 73
11
 74
0
 42
0.0000001
 43
0.0000001
 44
0.0000000001
 40
0.0
 40
0.0
 40
0.0
 40
0.0
 40
0.0869302719
 40
0.186400037
 40
0.3037880338
 40
0.437600436
 40
0.5820992732
 40
0.7294176326
 40
0.8711704075
 40
1.0
 40
1.0
 40
1.0
 40
1.0
 10
104.4209095355
 20
102.0610741425
 30
0.0
 10
104.2586119379
 20
101.9672851846
 30
0.0
 10
103.8507115142
 20
101.8625421918
 30
0.0
 10
103.1942522226
 20
101.993986868
 30
0.0
 10
102.5235564807
 20
102.3603269658
 30
0.0
 10
101.8804443709
 20
102.9297887205
 30
0.0
 10
101.3126723205
 20
103.656603914
 30
0.0
 10
100.8656192325
 20
104.4828227923
 30
0.0
 10
100.575564498
 20
105.3404715904
 30
0.0
 10
100.4978393482
 20
105.9245969404
 30
0.0
 10
100.4978393482
 20
106.2023930665
 30
0.0
  0
SPLINE
  5
372
100
AcDbEntity
  8
0
100
AcDbSpline
 62
7
  6
BYLAYER
 70
0
 71
3
 72
11
 73
7
 74
0
 42
0.0000001
 43
0.0000001
 44
0.0000000001
 40
0.0
 40
0.0
 40
0.0
 40
0.0
 40
0.2897016592
 40
0.5490895811
 40
0.782218914
 40
1.0
 40
1.0
 40
1.0
 40
1.0
 10
82.08071413
 20
228.5313011925
 30
0.0
 10
82.08071413
 20
228.8099750049
 30
0.0
 10
82.1229648819
 20
229.3399562547
 30
0.0
 10
82.3375897019
 20
230.0681280872
 30
0.0
 10
82.6989729476
 20
230.6589978382
 30
0.0
 10
83.0384224429
 20
230.9443489094
 30
0.0
 10
83.2198393117
 20
231.0491076413
 30
0.0
  0
SPLINE
  5
373
100
AcDbEntity
  8
0
100
AcDbSpline
 62
7
  6
BYLAYER
 70
0
 71
3
 72
17
 73
13
 74
0
 42
0.0000001
 43
0.0000001
 44
0.0000000001
 40
0.0
 40
0.0
 40
0.0
 40
0.0
 40
0.1286930371
 40
0.2702795961
 40
0.4174375933
 40
0.5617786793
 40
0.695447824
 40
0.8127111198
 40
0.8646738574
 40
0.9125098522
 40
0.9571380033
 40
1.0
 40
1.0
 40
1.0
 40
1.0
 10
112.8047248076
 20
176.2554648324
 30
0.0
 10
112.8047248076
 20
176.7469620981
 30
0.0
 10
112.6672423546
 20
177.780380817
 30
0.0
 10
112.1539999006
 20
179.2977193446
 30
0.0
 10
111.3632230804
 20
180.7593974654
 30
0.0
 10
110.3583792557
 20
182.0455464552
 30
0.0
 10
109.2216444583
 20
183.0522748918
 30
0.0
 10
108.1927661538
 20
183.6149187128
 30
0.0
 10
107.3879026748
 20
183.8289722119
 30
0.0
 10
106.8339603178
 20
183.8698256598
 30
0.0
 10
106.3181645293
 20
183.7940985387
 30
0.0
 10
106.0056240748
 20
183.6643468665
 30
0.0
 10
105.8638700173
 20
183.5824798076
 30
0.0
  0
SPLINE
  5
374
100
AcDbEntity
  8
0
100
AcDbSpline
 62
7
  6
BYLAYER
 70
0
 71
3
 72
15
 73
11
 74
0
 42
0.0000001
 43
0.0000001
 44
0.0000000001
 40
0.0
 40
0.0
 40
0.0
 40
0.0
 40
0.0869302719
 40
0.186400037
 40
0.3037880338
 40
0.437600436
 40
0.5820992732
 40
0.7294176326
 40
0.8711704075
 40
1.0
 40
1.0
 40
1.0
 40
1.0
 10
97.137679354
 20
106.2659539068
 30
0.0
 10
96.9753817565
 20
106.1721649489
 30
0.0
 10
96.5674813327
 20
106.0674219562
 30
0.0
 10
95.9110220412
 20
106.1988666324
 30
0.0
 10
95.2403262992
 20
106.5652067302
 30
0.0
 10
94.5972141894
 20
107.1346684849
 30
0.0
 10
94.029442139
 20
107.8614836783
 30
0.0
 10
93.5823890511
 20
108.6877025567
 30
0.0
 10
93.2923343166
 20
109.5453513548
 30
0.0
 10
93.2146091667
 20
110.1294767048
 30
0.0
 10
93.2146091667
 20
110.4072728309
 30
0.0
  0
SPLINE
  5
375
100
AcDbEntity
  8
0
100
AcDbSpline
 62
7
  6
BYLAYER
 70
0
 71
3
 72
11
 73
7
 74
0
 42
0.0000001
 43
0.0000001
 44
0.0000000001
 40
0.0
 40
0.0
 40
0.0
 40
0.0
 40
0.289545377
 40
0.5491366156
 40
0.7822776226
 40
1.0
 40
1.0
 40
1.0
 40
1.0
 10
100.7835207645
 20
233.7360505153
 30
0.0
 10
100.7835207645
 20
233.8753100373
 30
0.0
 10
100.8047848588
 20
234.1403001014
 30
0.0
 10
100.911908853
 20
234.5044476834
 30
0.0
 10
101.0926254592
 20
234.7999979447
 30
0.0
 10
101.2624496134
 20
234.9425046649
 30
0.0
 10
101.3531351473
 20
234.9948638873
 30
0.0
  0
ENDSEC
  0
SECTION
  2
OBJECTS
  0
DICTIONARY
  5
C
100
AcDbDictionary
280
0
281
1
  3
ACAD_GROUP
350
D
  3
ACAD_MLINESTYLE
350
17
  3
ACAD_LAYOUT
350
1A
  3
ACAD_PLOTSETTINGS
350
19
  3
ACAD_PLOTSTYLENAME
350
E
  0
DICTIONARY
  5
D
102
{ACAD_REACTORS
330
C
102
}
100
AcDbDictionary
280
0
281
1
  0
ACDBDICTIONARYWDFLT
  5
E
102
{ACAD_REACTORS
330
C
102
}
100
AcDbDictionary
281
1
  3
Normal
350
F
100
AcDbDictionaryWithDefault
340
F
  0
DICTIONARY
  5
17
102
{ACAD_REACTORS
330
C
102
}
100
AcDbDictionary
280
0
281
1
  3
Standard
350
18
  0
DICTIONARY
  5
19
102
{ACAD_REACTORS
330
C
102
}
100
AcDbDictionary
281
1
  0
DICTIONARY
  5
1A
102
{ACAD_REACTORS
330
C
102
}
100
AcDbDictionary
281
1
  3
Model
350
376
  3
Layout1
350
377
  0
ACDBPLACEHOLDER
  5
F
102
{ACAD_REACTORS
330
E
102
}
  0
MLINESTYLE
  5
18
102
{ACAD_REACTORS
330
17
102
}
100
AcDbMlineStyle
  2
STANDARD
 70
0
  3

 62
256
 51
90.0
 52
90.0
 71
2
 49
0.5
 62
256
  6
BYLAYER
 49
-0.5
 62
256
  6
BYLAYER
  0
LAYOUT
  5
376
102
{ACAD_REACTORS
330
1A
102
}
100
AcDbPlotSettings
  1

  2
none_device
  4

  6

 40
0.0
 41
0.0
 42
0.0
 43
0.0
 44
210.0
 45
297.0
 46
0.0
 47
0.0
 48
0.0
 49
0.0
140
0.0
141
0.0
142
1.0
143
1.0
 70
1024
 72
1
 73
0
 74
0
  7

 75
0
147
1.0
148
0.0
149
0.0
100
AcDbLayout
  1
Model
 70
0
 71
0
 10
0.0
 20
0.0
 11
210.0
 21
297.0
 12
0.0
 22
0.0
 32
0.0
 14
0.0
 24
0.0
 34
0.0
 15
0.0
 25
0.0
 35
0.0
146
0.0
 13
0.0
 23
0.0
 33
0.0
 16
1.0
 26
0.0
 36
0.0
 17
0.0
 27
1.0
 37
0.0
 76
0
330
210
345
0
346
0
  0
LAYOUT
  5
377
102
{ACAD_REACTORS
330
1A
102
}
100
AcDbPlotSettings
  1

  2
none_device
  4

  6

 40
0.0
 41
0.0
 42
0.0
 43
0.0
 44
210.0
 45
297.0
 46
0.0
 47
0.0
 48
0.0
 49
0.0
140
0.0
141
0.0
142
1.0
143
1.0
 70
0
 72
1
 73
0
 74
0
  7

 75
0
147
1.0
148
0.0
149
0.0
100
AcDbLayout
  1
Layout1
 70
0
 71
1
 10
0.0
 20
0.0
 11
210.0
 21
297.0
 12
0.0
 22
0.0
 32
0.0
 14
0.0
 24
0.0
 34
0.0
 15
0.0
 25
0.0
 35
0.0
146
0.0
 13
0.0
 23
0.0
 33
0.0
 16
1.0
 26
0.0
 36
0.0
 17
0.0
 27
1.0
 37
0.0
 76
0
330
211
345
0
346
0
  0
ENDSEC
  0
EOF
