999
DXF file: C:\Users\sesa63760\Dev\_Creo\CAD\MCADID0005868_3D-CAD\mcadid0005868_3d-simplified_3.dxf
999
Pro/ENGINEER 2019471 by Parametric Technology Corporation
  0
SECTION
  2
HEADER
  9
$ACADVER
  1
AC1024
  9
$DWGCODEPAGE
  3
ANSI_1252
  9
$EXTMAX
 10
57.2805085926
 20
81.0110050095
 30
0.0
  9
$EXTMIN
 10
0.0
 20
0.0
 30
0.0
  9
$LIMMIN
 10
0.0
 20
0.0
  9
$LIMMAX
 10
57.2805085926
 20
81.0110050095
  9
$VIEWCTR
 10
28.6402542963
 20
40.5055025048
  9
$VIEWSIZE
 40
81.0110050095
  9
$CLAYER
  8
0
  9
$LTSCALE
 40
5.2807173636
  9
$CELTYPE
  6
BYLAYER
  9
$DIMSCALE
 40
1.0
  9
$DIMASZ
 40
0.6819108166
  9
$DIMEXO
 40
1.0
  9
$DIMDLI
 40
3.648495633
  9
$DIMEXE
 40
1.0
  9
$DIMCEN
 40
0.8641173868
  9
$DIMLFAC
 40
1.0
  9
$DIMBLK
  1
_FILLED
  9
$DIMALT
 70
0
  9
$DIMALTF
 40
0.0393700787
  9
$DIMTXT
 40
0.9546751432
  9
$DIMTOL
 70
1
  9
$DIMLIM
 70
0
  9
$DIMTFAC
 40
1.0
  9
$DIMTP
 40
0.01
  9
$DIMTM
 40
0.01
  9
$DIMGAP
 40
0.625
  9
$DIMDSEP
 70
46
  9
$AUNITS
 70
0
  9
$PDMODE
 70
3
  9
$PDSIZE
 40
0.3125
  9
$HANDSEED
  5
22F
  9
$TILEMODE
 70
1
  9
$MEASUREMENT
 70
1
  9
$INSUNITS
 70
4
  0
ENDSEC
  0
SECTION
  2
CLASSES
  0
CLASS
  1
ACDBDICTIONARYWDFLT
  2
AcDbDictionaryWithDefault
  3
AutoCAD 2000
 90
0
 91
1
280
0
281
0
  0
CLASS
  1
ACDBPLACEHOLDER
  2
AcDbPlaceHolder
  3
AutoCAD 2000
 90
0
 91
1
280
0
281
0
  0
CLASS
  1
LAYOUT
  2
AcDbLayout
  3
AutoCAD 2000
 90
0
 91
0
280
0
281
0
  0
ENDSEC
  0
SECTION
  2
TABLES
  0
TABLE
  2
VPORT
  5
8
100
AcDbSymbolTable
 70
2
  0
VPORT
  5
1F4
100
AcDbSymbolTableRecord
100
AcDbViewportTableRecord
  2
*ACTIVE
 70
0
 10
0.0
 20
0.0
 11
1.0
 21
1.0
 12
28.6402542963
 22
40.5055025048
 13
0.0
 23
0.0
 14
1.0
 24
1.0
 15
0.0
 25
0.0
 16
0.0
 26
0.0
 36
1.0
 17
0.0
 27
0.0
 37
0.0
 40
81.0110050095
 41
0.7070707071
 42
50.0
 43
0.0
 44
0.0
 50
0.0
 51
0.0
 71
0
 72
100
 73
1
 74
1
 75
0
 76
0
 77
0
 78
0
  0
ENDTAB
  0
TABLE
  2
LTYPE
  5
5
100
AcDbSymbolTable
 70
6
  0
LTYPE
  5
14
100
AcDbSymbolTableRecord
100
AcDbLinetypeTableRecord
  2
BYBLOCK
 70
0
  3

 72
65
 73
0
 40
0.0
  0
LTYPE
  5
15
100
AcDbSymbolTableRecord
100
AcDbLinetypeTableRecord
  2
BYLAYER
 70
0
  3

 72
65
 73
0
 40
0.0
  0
LTYPE
  5
16
100
AcDbSymbolTableRecord
100
AcDbLinetypeTableRecord
  2
CONTINUOUS
 70
64
  3
Solid line
 72
65
 73
0
 40
0.0
  0
LTYPE
  5
1F5
100
AcDbSymbolTableRecord
100
AcDbLinetypeTableRecord
  2
CENTER
 70
64
  3
____ _ ____ _ ____ _ ____ _ ____ _ ____ _ ____
 72
65
 73
4
 40
0.6
 49
0.375
 74
0
 49
-0.075
 74
0
 49
0.075
 74
0
 49
-0.075
 74
0
  0
LTYPE
  5
1F6
100
AcDbSymbolTableRecord
100
AcDbLinetypeTableRecord
  2
HIDDEN
 70
64
  3
- - - - - - - - - - - - - - - - - - - -
 72
65
 73
2
 40
0.2
 49
0.1
 74
0
 49
-0.1
 74
0
  0
LTYPE
  5
1F7
100
AcDbSymbolTableRecord
100
AcDbLinetypeTableRecord
  2
PHANTOM
 70
64
  3
_____ _ _ _____ _ _ _____ _ _ _____
 72
65
 73
6
 40
0.8
 49
0.45
 74
0
 49
-0.05
 74
0
 49
0.1
 74
0
 49
-0.05
 74
0
 49
0.1
 74
0
 49
-0.05
 74
0
  0
LTYPE
  5
1F8
100
AcDbSymbolTableRecord
100
AcDbLinetypeTableRecord
  2
DOT
 70
64
  3
. . . . . . . . . . . . . . . . . . . .
 72
65
 73
2
 40
0.2
 49
0.1
 74
0
 49
-0.1
 74
0
  0
LTYPE
  5
1F9
100
AcDbSymbolTableRecord
100
AcDbLinetypeTableRecord
  2
DASHED
 70
64
  3
- - - - - - - - - - - - - - - - - - - -
 72
65
 73
2
 40
0.2
 49
0.1
 74
0
 49
-0.1
 74
0
  0
ENDTAB
  0
TABLE
  2
LAYER
  5
2
100
AcDbSymbolTable
 70
36
  0
LAYER
  5
10
100
AcDbSymbolTableRecord
100
AcDbLayerTableRecord
  2
0
 70
0
 62
7
  6
CONTINUOUS
370
-3
390
F
  0
LAYER
  5
1FA
100
AcDbSymbolTableRecord
100
AcDbLayerTableRecord
  2
DEFAULT_1
 70
0
 62
7
  6
CENTER
370
-3
390
F
  0
LAYER
  5
1FB
100
AcDbSymbolTableRecord
100
AcDbLayerTableRecord
  2
DEFAULT_2
 70
0
 62
7
  6
HIDDEN
370
-3
390
F
  0
LAYER
  5
1FC
100
AcDbSymbolTableRecord
100
AcDbLayerTableRecord
  2
DEFAULT_3
 70
0
 62
7
  6
PHANTOM
370
-3
390
F
  0
LAYER
  5
1FD
100
AcDbSymbolTableRecord
100
AcDbLayerTableRecord
  2
00_COMPONENTS
 70
0
 62
7
  6
CONTINUOUS
370
-3
390
F
  0
LAYER
  5
1FE
100
AcDbSymbolTableRecord
100
AcDbLayerTableRecord
  2
01_1_DEFAULT_DATUMS
 70
0
 62
7
  6
CONTINUOUS
370
-3
390
F
  0
LAYER
  5
1FF
100
AcDbSymbolTableRecord
100
AcDbLayerTableRecord
  2
01_PLANES
 70
0
 62
7
  6
CONTINUOUS
370
-3
390
F
  0
LAYER
  5
200
100
AcDbSymbolTableRecord
100
AcDbLayerTableRecord
  2
02_COORD_SYS
 70
0
 62
7
  6
CONTINUOUS
370
-3
390
F
  0
LAYER
  5
201
100
AcDbSymbolTableRecord
100
AcDbLayerTableRecord
  2
03_AXES
 70
0
 62
7
  6
CONTINUOUS
370
-3
390
F
  0
LAYER
  5
202
100
AcDbSymbolTableRecord
100
AcDbLayerTableRecord
  2
04_POINTS
 70
0
 62
7
  6
CONTINUOUS
370
-3
390
F
  0
LAYER
  5
203
100
AcDbSymbolTableRecord
100
AcDbLayerTableRecord
  2
05_CURVES
 70
0
 62
7
  6
CONTINUOUS
370
-3
390
F
  0
LAYER
  5
204
100
AcDbSymbolTableRecord
100
AcDbLayerTableRecord
  2
06_SURFS
 70
0
 62
7
  6
CONTINUOUS
370
-3
390
F
  0
LAYER
  5
205
100
AcDbSymbolTableRecord
100
AcDbLayerTableRecord
  2
07_COSMETICS
 70
0
 62
7
  6
CONTINUOUS
370
-3
390
F
  0
LAYER
  5
206
100
AcDbSymbolTableRecord
100
AcDbLayerTableRecord
  2
10_NOTES
 70
0
 62
7
  6
CONTINUOUS
370
-3
390
F
  0
LAYER
  5
207
100
AcDbSymbolTableRecord
100
AcDbLayerTableRecord
  2
11_NOTES_PUB
 70
0
 62
7
  6
CONTINUOUS
370
-3
390
F
  0
LAYER
  5
208
100
AcDbSymbolTableRecord
100
AcDbLayerTableRecord
  2
13_REF_GTOL
 70
0
 62
7
  6
CONTINUOUS
370
-3
390
F
  0
LAYER
  5
209
100
AcDbSymbolTableRecord
100
AcDbLayerTableRecord
  2
16_MISC
 70
0
 62
7
  6
CONTINUOUS
370
-3
390
F
  0
LAYER
  5
20A
100
AcDbSymbolTableRecord
100
AcDbLayerTableRecord
  2
17_NO_PRINT
 70
0
 62
7
  6
CONTINUOUS
370
-3
390
F
  0
LAYER
  5
20B
100
AcDbSymbolTableRecord
100
AcDbLayerTableRecord
  2
18_DATUM_CAMS_JOINTS
 70
0
 62
7
  6
CONTINUOUS
370
-3
390
F
  0
LAYER
  5
20C
100
AcDbSymbolTableRecord
100
AcDbLayerTableRecord
  2
19_DATUM_FUNCTIONAL
 70
0
 62
7
  6
CONTINUOUS
370
-3
390
F
  0
LAYER
  5
20D
100
AcDbSymbolTableRecord
100
AcDbLayerTableRecord
  2
20_DATUM_KINEMATIC_SCHEME
 70
0
 62
7
  6
CONTINUOUS
370
-3
390
F
  0
ENDTAB
  0
TABLE
  2
STYLE
  5
3
100
AcDbSymbolTable
 70
1
  0
STYLE
  5
11
100
AcDbSymbolTableRecord
100
AcDbTextStyleTableRecord
  2
STANDARD
 70
0
 40
0.0
 41
1.0
 50
0.0
 71
0
 42
0.2
  3
ARIAL.TTF
  4

  0
STYLE
  5
20E
100
AcDbSymbolTableRecord
100
AcDbTextStyleTableRecord
  2
TEXTSTYLE_1
 70
0
 40
0.0
 41
0.8
 50
0.0
 71
0
 42
0.2
  3
gdt
  4

  0
ENDTAB
  0
TABLE
  2
VIEW
  5
6
100
AcDbSymbolTable
 70
0
  0
ENDTAB
  0
TABLE
  2
UCS
  5
7
100
AcDbSymbolTable
 70
0
  0
ENDTAB
  0
TABLE
  2
APPID
  5
9
100
AcDbSymbolTable
 70
1
  0
APPID
  5
20F
100
AcDbSymbolTableRecord
100
AcDbRegAppTableRecord
  2
ACAD
 70
0
  0
ENDTAB
  0
TABLE
  2
BLOCK_RECORD
  5
1
100
AcDbSymbolTable
 70
0
  0
BLOCK_RECORD
  5
210
100
AcDbSymbolTableRecord
100
AcDbBlockTableRecord
  2
*Model_Space
  0
BLOCK_RECORD
  5
211
100
AcDbSymbolTableRecord
100
AcDbBlockTableRecord
  2
*Paper_Space
  0
BLOCK_RECORD
  5
212
100
AcDbSymbolTableRecord
100
AcDbBlockTableRecord
  2
_FILLED
  0
ENDTAB
  0
TABLE
  2
DIMSTYLE
  5
A
100
AcDbSymbolTable
 70
1
100
AcDbDimStyleTable
 71
0
  0
DIMSTYLE
105
213
100
AcDbSymbolTableRecord
100
AcDbDimStyleTableRecord
  2
STANDARD
 70
0
  3

  4

 40
1.0
 41
0.6819108166
 42
1.0
 43
0.38
 44
1.0
 45
0.0
 46
0.0
 47
0.01
 48
0.01
140
0.9546751432
141
0.09
142
0.0
143
25.4
144
1.0
145
0.0
146
1.0
147
0.625
 71
1
 72
0
 73
0
 74
0
 75
0
 76
0
 77
1
 78
8
 79
2
170
0
171
1
172
0
173
0
174
0
175
0
176
0
177
0
178
0
270
2
179
2
271
2
272
2
273
2
274
2
275
0
280
0
281
0
282
0
283
1
284
8
285
0
286
0
287
3
288
0
340
11
278
46
341
212
342
212
343
212
344
212
  0
ENDTAB
  0
ENDSEC
  0
SECTION
  2
BLOCKS
  0
BLOCK
  5
20
100
AcDbEntity
  8
0
100
AcDbBlockBegin
  2
*Model_Space
 70
0
 10
0.0
 20
0.0
 30
0.0
  3
*Model_Space
  1

  0
ENDBLK
  5
21
100
AcDbEntity
  8
0
100
AcDbBlockEnd
  0
BLOCK
  5
1C
100
AcDbEntity
  8
0
100
AcDbBlockBegin
  2
*Paper_Space
 70
0
 10
0.0
 20
0.0
 30
0.0
  3
*Paper_Space
  1

  0
ENDBLK
  5
1D
100
AcDbEntity
  8
0
100
AcDbBlockEnd
  0
BLOCK
  5
214
100
AcDbEntity
  8
0
100
AcDbBlockBegin
  2
_FILLED
 70
64
 10
0.0
 20
0.0
  3
_FILLED
  1

  0
SOLID
  5
215
100
AcDbEntity
  8
0
  6
BYBLOCK
 62
0
100
AcDbTrace
 10
0.0
 20
0.0
 11
-1.0
 21
0.25
 12
-1.0
 22
-0.25
 13
-1.0
 23
-0.25
  0
ENDBLK
  5
216
100
AcDbEntity
  8
0
  6
BYBLOCK
 62
0
100
AcDbBlockEnd
  0
ENDSEC
  0
SECTION
  2
ENTITIES
  0
LINE
  5
217
100
AcDbEntity
  8
0
100
AcDbLine
 62
7
  6
BYLAYER
 10
6.7762070446
 20
35.1038158585
 11
6.7762070446
 21
46.3038158585
  0
LINE
  5
218
100
AcDbEntity
  8
0
100
AcDbLine
 62
7
  6
BYLAYER
 10
19.7762070446
 20
35.1038158585
 11
19.7762070446
 21
46.3038158585
  0
LINE
  5
219
100
AcDbEntity
  8
0
100
AcDbLine
 62
7
  6
BYLAYER
 10
26.7762070446
 20
35.1038158585
 11
6.7762070446
 21
35.1038158585
  0
LINE
  5
21A
100
AcDbEntity
  8
0
100
AcDbLine
 62
7
  6
BYLAYER
 10
23.2762070446
 20
37.5038158585
 11
24.6197099289
 21
37.5038158585
  0
LINE
  5
21B
100
AcDbEntity
  8
0
100
AcDbLine
 62
7
  6
BYLAYER
 10
26.7762070446
 20
35.1038158585
 11
26.7762070446
 21
38.8538158585
  0
LINE
  5
21C
100
AcDbEntity
  8
0
100
AcDbLine
 62
7
  6
BYLAYER
 10
26.7762070446
 20
42.5538158585
 11
26.7762070446
 21
46.3038158585
  0
LINE
  5
21D
100
AcDbEntity
  8
0
100
AcDbLine
 62
7
  6
BYLAYER
 10
24.6197099289
 20
38.8538158585
 11
50.7826608328
 21
38.8538158585
  0
LINE
  5
21E
100
AcDbEntity
  8
0
100
AcDbLine
 62
7
  6
BYLAYER
 10
24.6197099289
 20
42.5538158585
 11
50.7826608328
 21
42.5538158585
  0
LINE
  5
21F
100
AcDbEntity
  8
0
100
AcDbLine
 62
7
  6
BYLAYER
 10
23.2762070446
 20
43.9038158585
 11
24.6197099289
 21
43.9038158585
  0
LINE
  5
220
100
AcDbEntity
  8
0
100
AcDbLine
 62
7
  6
BYLAYER
 10
6.7762070446
 20
46.3038158585
 11
26.7762070446
 21
46.3038158585
  0
SPLINE
  5
221
100
AcDbEntity
  8
0
100
AcDbSpline
 62
7
  6
BYLAYER
 70
0
 71
3
 72
14
 73
10
 74
0
 42
0.0000001
 43
0.0000001
 44
0.0000000001
 40
0.0
 40
0.0
 40
0.0
 40
0.0
 40
0.1033584762
 40
0.2104703742
 40
0.3241892917
 40
0.4460097484
 40
0.5760409535
 40
0.7131790488
 40
1.0
 40
1.0
 40
1.0
 40
1.0
 10
50.7826608323
 20
38.8538266534
 30
0.0
 10
50.8685467359
 20
38.8538292749
 30
0.0
 10
51.0443280473
 20
38.8787597007
 30
0.0
 10
51.2937554281
 20
38.9878390392
 30
0.0
 10
51.5215464119
 20
39.1627690372
 30
0.0
 10
51.7195145149
 20
39.3957173297
 30
0.0
 10
51.8810770895
 20
39.6776173084
 30
0.0
 10
52.0428570531
 20
40.1100677969
 30
0.0
 10
52.090808378
 20
40.4654814955
 30
0.0
 10
52.090808378
 20
40.7038158585
 30
0.0
  0
SPLINE
  5
222
100
AcDbEntity
  8
0
100
AcDbSpline
 62
7
  6
BYLAYER
 70
0
 71
3
 72
14
 73
10
 74
0
 42
0.0000001
 43
0.0000001
 44
0.0000000001
 40
0.0
 40
0.0
 40
0.0
 40
0.0
 40
0.1126443002
 40
0.2267978742
 40
0.3438386173
 40
0.4648841462
 40
0.5907540168
 40
0.7219098522
 40
1.0
 40
1.0
 40
1.0
 40
1.0
 10
24.6197099292
 20
37.5038261771
 30
0.0
 10
24.7081186454
 20
37.5038273384
 30
0.0
 10
24.8864581934
 20
37.5187391501
 30
0.0
 10
25.1491894924
 20
37.5850743176
 30
0.0
 10
25.40425228
 20
37.6945297097
 30
0.0
 10
25.6480885416
 20
37.8451588915
 30
0.0
 10
25.8773917946
 20
38.0349075191
 30
0.0
 10
26.1651924667
 20
38.3419084865
 30
0.0
 10
26.3418297825
 20
38.614210158
 30
0.0
 10
26.4425137431
 20
38.8078582374
 30
0.0
  0
SPLINE
  5
223
100
AcDbEntity
  8
0
100
AcDbSpline
 62
7
  6
BYLAYER
 70
0
 71
3
 72
14
 73
10
 74
0
 42
0.0000001
 43
0.0000001
 44
0.0000000001
 40
0.0
 40
0.0
 40
0.0
 40
0.0
 40
0.2868202597
 40
0.4239544777
 40
0.5539824778
 40
0.6758018425
 40
0.7895228937
 40
0.8966382079
 40
1.0
 40
1.0
 40
1.0
 40
1.0
 10
52.090808378
 20
40.7038158585
 30
0.0
 10
52.090808378
 20
40.9421497406
 30
0.0
 10
52.0428593839
 20
41.2975601985
 30
0.0
 10
51.8810807582
 20
41.7300043261
 30
0.0
 10
51.7195256814
 20
42.0119005543
 30
0.0
 10
51.5215637159
 20
42.2448517207
 30
0.0
 10
51.2937701138
 20
42.419786328
 30
0.0
 10
51.0443360873
 20
42.5288650119
 30
0.0
 10
50.8685495261
 20
42.5538076852
 30
0.0
 10
50.7826608333
 20
42.5538050636
 30
0.0
  0
SPLINE
  5
224
100
AcDbEntity
  8
0
100
AcDbSpline
 62
7
  6
BYLAYER
 70
0
 71
3
 72
14
 73
10
 74
0
 42
0.0000001
 43
0.0000001
 44
0.0000000001
 40
0.0
 40
0.0
 40
0.0
 40
0.0
 40
0.2780882991
 40
0.4092449151
 40
0.5351162352
 40
0.6561628822
 40
0.7732041367
 40
0.8873572354
 40
1.0
 40
1.0
 40
1.0
 40
1.0
 10
26.44266417
 20
42.5994890894
 30
0.0
 10
26.3419850274
 20
42.7931716792
 30
0.0
 10
26.1653508785
 20
43.0655280696
 30
0.0
 10
25.8775327563
 20
43.3725917675
 30
0.0
 10
25.6482135262
 20
43.5623894752
 30
0.0
 10
25.4043487777
 20
43.713052023
 30
0.0
 10
25.149256885
 20
43.8225388658
 30
0.0
 10
24.8864917941
 20
43.8888871547
 30
0.0
 10
24.70812953
 20
43.9038067013
 30
0.0
 10
24.6197099286
 20
43.9038055399
 30
0.0
  0
SPLINE
  5
225
100
AcDbEntity
  8
0
100
AcDbSpline
 62
7
  6
BYLAYER
 70
0
 71
3
 72
14
 73
10
 74
0
 42
0.0000001
 43
0.0000001
 44
0.0000000001
 40
0.0
 40
0.0
 40
0.0
 40
0.0
 40
0.1033584762
 40
0.2104703742
 40
0.3241892917
 40
0.4460097484
 40
0.5760409535
 40
0.7131790488
 40
1.0
 40
1.0
 40
1.0
 40
1.0
 10
24.6197099294
 20
38.8538266534
 30
0.0
 10
24.5338240258
 20
38.8538292749
 30
0.0
 10
24.3580427144
 20
38.8787597007
 30
0.0
 10
24.1086153336
 20
38.9878390392
 30
0.0
 10
23.8808243498
 20
39.1627690372
 30
0.0
 10
23.6828562468
 20
39.3957173297
 30
0.0
 10
23.5212936722
 20
39.6776173084
 30
0.0
 10
23.3595137086
 20
40.1100677969
 30
0.0
 10
23.3115623837
 20
40.4654814955
 30
0.0
 10
23.3115623837
 20
40.7038158585
 30
0.0
  0
SPLINE
  5
226
100
AcDbEntity
  8
0
100
AcDbSpline
 62
7
  6
BYLAYER
 70
0
 71
3
 72
17
 73
13
 74
0
 42
0.0000001
 43
0.0000001
 44
0.0000000001
 40
0.0
 40
0.0
 40
0.0
 40
0.0
 40
0.144946554
 40
0.2871819806
 40
0.424168874
 40
0.5540362905
 40
0.6757116854
 40
0.7893046835
 40
0.8435819823
 40
0.8965150029
 40
0.9485019275
 40
1.0
 40
1.0
 40
1.0
 40
1.0
 10
22.3569682291
 20
40.7038158585
 30
0.0
 10
22.3569682291
 20
40.4952331785
 30
0.0
 10
22.3855163192
 20
40.0813821626
 30
0.0
 10
22.5127081189
 20
39.4823285452
 30
0.0
 10
22.7197268552
 20
38.9287056934
 30
0.0
 10
22.9992052442
 20
38.4412334019
 30
0.0
 10
23.3414919499
 20
38.0383008944
 30
0.0
 10
23.6751728718
 20
37.7821157612
 30
0.0
 10
23.9591158782
 20
37.6378607133
 30
0.0
 10
24.1755794218
 20
37.5607902304
 30
0.0
 10
24.3964840722
 20
37.5142691136
 30
0.0
 10
24.5456025725
 20
37.5038252037
 30
0.0
 10
24.6197099292
 20
37.5038261771
 30
0.0
  0
SPLINE
  5
227
100
AcDbEntity
  8
0
100
AcDbSpline
 62
7
  6
BYLAYER
 70
0
 71
3
 72
14
 73
10
 74
0
 42
0.0000001
 43
0.0000001
 44
0.0000000001
 40
0.0
 40
0.0
 40
0.0
 40
0.0
 40
0.1033584762
 40
0.2104703742
 40
0.3241892917
 40
0.4460097484
 40
0.5760409535
 40
0.7131790488
 40
1.0
 40
1.0
 40
1.0
 40
1.0
 10
50.7826608333
 20
42.5538050636
 30
0.0
 10
50.6967749297
 20
42.5538024421
 30
0.0
 10
50.5209936183
 20
42.5288720163
 30
0.0
 10
50.2715662375
 20
42.4197926778
 30
0.0
 10
50.0437752537
 20
42.2448626798
 30
0.0
 10
49.8458071507
 20
42.0119143873
 30
0.0
 10
49.6842445761
 20
41.7300144086
 30
0.0
 10
49.5224646125
 20
41.2975639202
 30
0.0
 10
49.4745132876
 20
40.9421502216
 30
0.0
 10
49.4745132876
 20
40.7038158585
 30
0.0
  0
SPLINE
  5
228
100
AcDbEntity
  8
0
100
AcDbSpline
 62
7
  6
BYLAYER
 70
0
 71
3
 72
16
 73
12
 74
0
 42
0.0000001
 43
0.0000001
 44
0.0000000001
 40
0.0
 40
0.0
 40
0.0
 40
0.0
 40
0.0515086967
 40
0.1035059938
 40
0.2105180504
 40
0.3241338287
 40
0.4458354135
 40
0.5757329361
 40
0.7127516769
 40
0.855021548
 40
1.0
 40
1.0
 40
1.0
 40
1.0
 10
24.6197099286
 20
43.9038055399
 30
0.0
 10
24.5456035449
 20
43.9038045665
 30
0.0
 10
24.3964739206
 20
43.8933493557
 30
0.0
 10
24.0993141716
 20
43.8308359674
 30
0.0
 10
23.7354120228
 20
43.6720154809
 30
0.0
 10
23.3416660348
 20
43.3693925559
 30
0.0
 10
22.9991755367
 20
42.9664065004
 30
0.0
 10
22.7197516264
 20
42.4789492067
 30
0.0
 10
22.5127072537
 20
41.9253142479
 30
0.0
 10
22.3855188118
 20
41.3262546775
 30
0.0
 10
22.3569682291
 20
40.9123986705
 30
0.0
 10
22.3569682291
 20
40.7038158585
 30
0.0
  0
SPLINE
  5
229
100
AcDbEntity
  8
0
100
AcDbSpline
 62
7
  6
BYLAYER
 70
0
 71
3
 72
14
 73
10
 74
0
 42
0.0000001
 43
0.0000001
 44
0.0000000001
 40
0.0
 40
0.0
 40
0.0
 40
0.0
 40
0.2868202597
 40
0.4239544777
 40
0.5539824778
 40
0.6758018425
 40
0.7895228937
 40
0.8966382079
 40
1.0
 40
1.0
 40
1.0
 40
1.0
 10
23.3115623837
 20
40.7038158585
 30
0.0
 10
23.3115623837
 20
40.9421497406
 30
0.0
 10
23.3595113778
 20
41.2975601985
 30
0.0
 10
23.5212900035
 20
41.7300043261
 30
0.0
 10
23.6828450803
 20
42.0119005543
 30
0.0
 10
23.8808070458
 20
42.2448517207
 30
0.0
 10
24.1086006479
 20
42.419786328
 30
0.0
 10
24.3580346744
 20
42.5288650119
 30
0.0
 10
24.5338212356
 20
42.5538076852
 30
0.0
 10
24.6197099284
 20
42.5538050636
 30
0.0
  0
SPLINE
  5
22A
100
AcDbEntity
  8
0
100
AcDbSpline
 62
7
  6
BYLAYER
 70
0
 71
3
 72
17
 73
13
 74
0
 42
0.0000001
 43
0.0000001
 44
0.0000000001
 40
0.0
 40
0.0
 40
0.0
 40
0.0
 40
0.144946554
 40
0.2871819806
 40
0.424168874
 40
0.5540362905
 40
0.6757116854
 40
0.7893046835
 40
0.8435819823
 40
0.8965150029
 40
0.9485019275
 40
1.0
 40
1.0
 40
1.0
 40
1.0
 10
21.0134653448
 20
40.7038158585
 30
0.0
 10
21.0134653448
 20
40.9123985385
 30
0.0
 10
21.0420134349
 20
41.3262495544
 30
0.0
 10
21.1692052346
 20
41.9253031718
 30
0.0
 10
21.3762239709
 20
42.4789260236
 30
0.0
 10
21.6557023599
 20
42.9663983152
 30
0.0
 10
21.9979890657
 20
43.3693308226
 30
0.0
 10
22.3316699875
 20
43.6255159558
 30
0.0
 10
22.6156129939
 20
43.7697710038
 30
0.0
 10
22.8320765375
 20
43.8468414866
 30
0.0
 10
23.052981188
 20
43.8933626035
 30
0.0
 10
23.2020996882
 20
43.9038065133
 30
0.0
 10
23.2762070449
 20
43.9038055399
 30
0.0
  0
SPLINE
  5
22B
100
AcDbEntity
  8
0
100
AcDbSpline
 62
7
  6
BYLAYER
 70
0
 71
3
 72
14
 73
10
 74
0
 42
0.0000001
 43
0.0000001
 44
0.0000000001
 40
0.0
 40
0.0
 40
0.0
 40
0.0
 40
0.2868202597
 40
0.4239544777
 40
0.5539824778
 40
0.6758018425
 40
0.7895228937
 40
0.8966382079
 40
1.0
 40
1.0
 40
1.0
 40
1.0
 10
49.4745132876
 20
40.7038158585
 30
0.0
 10
49.4745132876
 20
40.4654819765
 30
0.0
 10
49.5224622817
 20
40.1100715185
 30
0.0
 10
49.6842409074
 20
39.6776273909
 30
0.0
 10
49.8457959842
 20
39.3957311627
 30
0.0
 10
50.0437579497
 20
39.1627799963
 30
0.0
 10
50.2715515518
 20
38.987845389
 30
0.0
 10
50.5209855783
 20
38.8787667051
 30
0.0
 10
50.6967721395
 20
38.8538240318
 30
0.0
 10
50.7826608323
 20
38.8538266534
 30
0.0
  0
SPLINE
  5
22C
100
AcDbEntity
  8
0
100
AcDbSpline
 62
7
  6
BYLAYER
 70
0
 71
3
 72
16
 73
12
 74
0
 42
0.0000001
 43
0.0000001
 44
0.0000000001
 40
0.0
 40
0.0
 40
0.0
 40
0.0
 40
0.0515086967
 40
0.1035059938
 40
0.2105180504
 40
0.3241338287
 40
0.4458354135
 40
0.5757329361
 40
0.7127516769
 40
0.855021548
 40
1.0
 40
1.0
 40
1.0
 40
1.0
 10
23.2762070444
 20
37.5038261771
 30
0.0
 10
23.2021006606
 20
37.5038271505
 30
0.0
 10
23.0529710364
 20
37.5142823613
 30
0.0
 10
22.7558112874
 20
37.5767957496
 30
0.0
 10
22.3919091386
 20
37.7356162362
 30
0.0
 10
21.9981631505
 20
38.0382391611
 30
0.0
 10
21.6556726524
 20
38.4412252167
 30
0.0
 10
21.3762487422
 20
38.9286825103
 30
0.0
 10
21.1692043695
 20
39.4823174691
 30
0.0
 10
21.0420159276
 20
40.0813770395
 30
0.0
 10
21.0134653448
 20
40.4952330465
 30
0.0
 10
21.0134653448
 20
40.7038158585
 30
0.0
  0
ENDSEC
  0
SECTION
  2
OBJECTS
  0
DICTIONARY
  5
C
100
AcDbDictionary
280
0
281
1
  3
ACAD_GROUP
350
D
  3
ACAD_MLINESTYLE
350
17
  3
ACAD_LAYOUT
350
1A
  3
ACAD_PLOTSETTINGS
350
19
  3
ACAD_PLOTSTYLENAME
350
E
  0
DICTIONARY
  5
D
102
{ACAD_REACTORS
330
C
102
}
100
AcDbDictionary
280
0
281
1
  0
ACDBDICTIONARYWDFLT
  5
E
102
{ACAD_REACTORS
330
C
102
}
100
AcDbDictionary
281
1
  3
Normal
350
F
100
AcDbDictionaryWithDefault
340
F
  0
DICTIONARY
  5
17
102
{ACAD_REACTORS
330
C
102
}
100
AcDbDictionary
280
0
281
1
  3
Standard
350
18
  0
DICTIONARY
  5
19
102
{ACAD_REACTORS
330
C
102
}
100
AcDbDictionary
281
1
  0
DICTIONARY
  5
1A
102
{ACAD_REACTORS
330
C
102
}
100
AcDbDictionary
281
1
  3
Model
350
22D
  3
Layout1
350
22E
  0
ACDBPLACEHOLDER
  5
F
102
{ACAD_REACTORS
330
E
102
}
  0
MLINESTYLE
  5
18
102
{ACAD_REACTORS
330
17
102
}
100
AcDbMlineStyle
  2
STANDARD
 70
0
  3

 62
256
 51
90.0
 52
90.0
 71
2
 49
0.5
 62
256
  6
BYLAYER
 49
-0.5
 62
256
  6
BYLAYER
  0
LAYOUT
  5
22D
102
{ACAD_REACTORS
330
1A
102
}
100
AcDbPlotSettings
  1

  2
none_device
  4

  6

 40
0.0
 41
0.0
 42
0.0
 43
0.0
 44
210.0
 45
297.0
 46
0.0
 47
0.0
 48
0.0
 49
0.0
140
0.0
141
0.0
142
1.0
143
1.0
 70
1024
 72
1
 73
0
 74
0
  7

 75
0
147
1.0
148
0.0
149
0.0
100
AcDbLayout
  1
Model
 70
0
 71
0
 10
0.0
 20
0.0
 11
210.0
 21
297.0
 12
0.0
 22
0.0
 32
0.0
 14
0.0
 24
0.0
 34
0.0
 15
0.0
 25
0.0
 35
0.0
146
0.0
 13
0.0
 23
0.0
 33
0.0
 16
1.0
 26
0.0
 36
0.0
 17
0.0
 27
1.0
 37
0.0
 76
0
330
210
345
0
346
0
  0
LAYOUT
  5
22E
102
{ACAD_REACTORS
330
1A
102
}
100
AcDbPlotSettings
  1

  2
none_device
  4

  6

 40
0.0
 41
0.0
 42
0.0
 43
0.0
 44
210.0
 45
297.0
 46
0.0
 47
0.0
 48
0.0
 49
0.0
140
0.0
141
0.0
142
1.0
143
1.0
 70
0
 72
1
 73
0
 74
0
  7

 75
0
147
1.0
148
0.0
149
0.0
100
AcDbLayout
  1
Layout1
 70
0
 71
1
 10
0.0
 20
0.0
 11
210.0
 21
297.0
 12
0.0
 22
0.0
 32
0.0
 14
0.0
 24
0.0
 34
0.0
 15
0.0
 25
0.0
 35
0.0
146
0.0
 13
0.0
 23
0.0
 33
0.0
 16
1.0
 26
0.0
 36
0.0
 17
0.0
 27
1.0
 37
0.0
 76
0
330
211
345
0
346
0
  0
ENDSEC
  0
EOF
