999
DXF file: C:\Users\sesa63760\Dev\_Creo\CAD\MCADPD0004417_3D-CAD\drw0001_6.dxf
999
Pro/ENGINEER 2019471 by Parametric Technology Corporation
  0
SECTION
  2
HEADER
  9
$ACADVER
  1
AC1024
  9
$DWGCODEPAGE
  3
ANSI_1252
  9
$EXTMAX
 10
249.020400946
 20
352.1859956236
 30
0.0
  9
$EXTMIN
 10
0.0
 20
0.0
 30
0.0
  9
$LIMMIN
 10
0.0
 20
0.0
  9
$LIMMAX
 10
249.020400946
 20
352.1859956236
  9
$VIEWCTR
 10
124.510200473
 20
176.0929978118
  9
$VIEWSIZE
 40
352.1859956236
  9
$CLAYER
  8
0
  9
$LTSCALE
 40
22.9573093444
  9
$CELTYPE
  6
BYLAYER
  9
$DIMSCALE
 40
1.0
  9
$DIMASZ
 40
2.9645285827
  9
$DIMEXO
 40
1.0
  9
$DIMDLI
 40
15.8614137288
  9
$DIMEXE
 40
1.0
  9
$DIMCEN
 40
3.75665062
  9
$DIMLFAC
 40
1.0
  9
$DIMBLK
  1
_FILLED
  9
$DIMALT
 70
0
  9
$DIMALTF
 40
0.0393700787
  9
$DIMTXT
 40
4.1503400158
  9
$DIMTOL
 70
1
  9
$DIMLIM
 70
0
  9
$DIMTFAC
 40
1.0
  9
$DIMTP
 40
0.01
  9
$DIMTM
 40
0.01
  9
$DIMGAP
 40
0.625
  9
$DIMDSEP
 70
46
  9
$AUNITS
 70
0
  9
$PDMODE
 70
3
  9
$PDSIZE
 40
0.3125
  9
$HANDSEED
  5
2E3
  9
$TILEMODE
 70
1
  9
$MEASUREMENT
 70
1
  9
$INSUNITS
 70
4
  0
ENDSEC
  0
SECTION
  2
CLASSES
  0
CLASS
  1
ACDBDICTIONARYWDFLT
  2
AcDbDictionaryWithDefault
  3
AutoCAD 2000
 90
0
 91
1
280
0
281
0
  0
CLASS
  1
ACDBPLACEHOLDER
  2
AcDbPlaceHolder
  3
AutoCAD 2000
 90
0
 91
1
280
0
281
0
  0
CLASS
  1
LAYOUT
  2
AcDbLayout
  3
AutoCAD 2000
 90
0
 91
0
280
0
281
0
  0
ENDSEC
  0
SECTION
  2
TABLES
  0
TABLE
  2
VPORT
  5
8
100
AcDbSymbolTable
 70
2
  0
VPORT
  5
1F4
100
AcDbSymbolTableRecord
100
AcDbViewportTableRecord
  2
*ACTIVE
 70
0
 10
0.0
 20
0.0
 11
1.0
 21
1.0
 12
124.510200473
 22
176.0929978118
 13
0.0
 23
0.0
 14
1.0
 24
1.0
 15
0.0
 25
0.0
 16
0.0
 26
0.0
 36
1.0
 17
0.0
 27
0.0
 37
0.0
 40
352.1859956236
 41
0.7070707071
 42
50.0
 43
0.0
 44
0.0
 50
0.0
 51
0.0
 71
0
 72
100
 73
1
 74
1
 75
0
 76
0
 77
0
 78
0
  0
ENDTAB
  0
TABLE
  2
LTYPE
  5
5
100
AcDbSymbolTable
 70
6
  0
LTYPE
  5
14
100
AcDbSymbolTableRecord
100
AcDbLinetypeTableRecord
  2
BYBLOCK
 70
0
  3

 72
65
 73
0
 40
0.0
  0
LTYPE
  5
15
100
AcDbSymbolTableRecord
100
AcDbLinetypeTableRecord
  2
BYLAYER
 70
0
  3

 72
65
 73
0
 40
0.0
  0
LTYPE
  5
16
100
AcDbSymbolTableRecord
100
AcDbLinetypeTableRecord
  2
CONTINUOUS
 70
64
  3
Solid line
 72
65
 73
0
 40
0.0
  0
LTYPE
  5
1F5
100
AcDbSymbolTableRecord
100
AcDbLinetypeTableRecord
  2
CENTER
 70
64
  3
____ _ ____ _ ____ _ ____ _ ____ _ ____ _ ____
 72
65
 73
4
 40
0.6
 49
0.375
 74
0
 49
-0.075
 74
0
 49
0.075
 74
0
 49
-0.075
 74
0
  0
LTYPE
  5
1F6
100
AcDbSymbolTableRecord
100
AcDbLinetypeTableRecord
  2
HIDDEN
 70
64
  3
- - - - - - - - - - - - - - - - - - - -
 72
65
 73
2
 40
0.2
 49
0.1
 74
0
 49
-0.1
 74
0
  0
LTYPE
  5
1F7
100
AcDbSymbolTableRecord
100
AcDbLinetypeTableRecord
  2
PHANTOM
 70
64
  3
_____ _ _ _____ _ _ _____ _ _ _____
 72
65
 73
6
 40
0.8
 49
0.45
 74
0
 49
-0.05
 74
0
 49
0.1
 74
0
 49
-0.05
 74
0
 49
0.1
 74
0
 49
-0.05
 74
0
  0
LTYPE
  5
1F8
100
AcDbSymbolTableRecord
100
AcDbLinetypeTableRecord
  2
DOT
 70
64
  3
. . . . . . . . . . . . . . . . . . . .
 72
65
 73
2
 40
0.2
 49
0.1
 74
0
 49
-0.1
 74
0
  0
LTYPE
  5
1F9
100
AcDbSymbolTableRecord
100
AcDbLinetypeTableRecord
  2
DASHED
 70
64
  3
- - - - - - - - - - - - - - - - - - - -
 72
65
 73
2
 40
0.2
 49
0.1
 74
0
 49
-0.1
 74
0
  0
ENDTAB
  0
TABLE
  2
LAYER
  5
2
100
AcDbSymbolTable
 70
36
  0
LAYER
  5
10
100
AcDbSymbolTableRecord
100
AcDbLayerTableRecord
  2
0
 70
0
 62
7
  6
CONTINUOUS
370
-3
390
F
  0
LAYER
  5
1FA
100
AcDbSymbolTableRecord
100
AcDbLayerTableRecord
  2
DEFAULT_1
 70
0
 62
7
  6
CENTER
370
-3
390
F
  0
LAYER
  5
1FB
100
AcDbSymbolTableRecord
100
AcDbLayerTableRecord
  2
DEFAULT_2
 70
0
 62
7
  6
HIDDEN
370
-3
390
F
  0
LAYER
  5
1FC
100
AcDbSymbolTableRecord
100
AcDbLayerTableRecord
  2
DEFAULT_3
 70
0
 62
7
  6
PHANTOM
370
-3
390
F
  0
LAYER
  5
1FD
100
AcDbSymbolTableRecord
100
AcDbLayerTableRecord
  2
00_COMPONENTS
 70
0
 62
7
  6
CONTINUOUS
370
-3
390
F
  0
LAYER
  5
1FE
100
AcDbSymbolTableRecord
100
AcDbLayerTableRecord
  2
01_1_DEFAULT_DATUMS
 70
0
 62
7
  6
CONTINUOUS
370
-3
390
F
  0
LAYER
  5
1FF
100
AcDbSymbolTableRecord
100
AcDbLayerTableRecord
  2
01_PLANES
 70
0
 62
7
  6
CONTINUOUS
370
-3
390
F
  0
LAYER
  5
200
100
AcDbSymbolTableRecord
100
AcDbLayerTableRecord
  2
02_COORD_SYS
 70
0
 62
7
  6
CONTINUOUS
370
-3
390
F
  0
LAYER
  5
201
100
AcDbSymbolTableRecord
100
AcDbLayerTableRecord
  2
03_AXES
 70
0
 62
7
  6
CONTINUOUS
370
-3
390
F
  0
LAYER
  5
202
100
AcDbSymbolTableRecord
100
AcDbLayerTableRecord
  2
04_POINTS
 70
0
 62
7
  6
CONTINUOUS
370
-3
390
F
  0
LAYER
  5
203
100
AcDbSymbolTableRecord
100
AcDbLayerTableRecord
  2
05_CURVES
 70
0
 62
7
  6
CONTINUOUS
370
-3
390
F
  0
LAYER
  5
204
100
AcDbSymbolTableRecord
100
AcDbLayerTableRecord
  2
06_SURFS
 70
0
 62
7
  6
CONTINUOUS
370
-3
390
F
  0
LAYER
  5
205
100
AcDbSymbolTableRecord
100
AcDbLayerTableRecord
  2
07_COSMETICS
 70
0
 62
7
  6
CONTINUOUS
370
-3
390
F
  0
LAYER
  5
206
100
AcDbSymbolTableRecord
100
AcDbLayerTableRecord
  2
10_NOTES
 70
0
 62
7
  6
CONTINUOUS
370
-3
390
F
  0
LAYER
  5
207
100
AcDbSymbolTableRecord
100
AcDbLayerTableRecord
  2
11_NOTES_PUB
 70
0
 62
7
  6
CONTINUOUS
370
-3
390
F
  0
LAYER
  5
208
100
AcDbSymbolTableRecord
100
AcDbLayerTableRecord
  2
13_REF_GTOL
 70
0
 62
7
  6
CONTINUOUS
370
-3
390
F
  0
LAYER
  5
209
100
AcDbSymbolTableRecord
100
AcDbLayerTableRecord
  2
16_MISC
 70
0
 62
7
  6
CONTINUOUS
370
-3
390
F
  0
LAYER
  5
20A
100
AcDbSymbolTableRecord
100
AcDbLayerTableRecord
  2
17_NO_PRINT
 70
0
 62
7
  6
CONTINUOUS
370
-3
390
F
  0
LAYER
  5
20B
100
AcDbSymbolTableRecord
100
AcDbLayerTableRecord
  2
18_DATUM_CAMS_JOINTS
 70
0
 62
7
  6
CONTINUOUS
370
-3
390
F
  0
LAYER
  5
20C
100
AcDbSymbolTableRecord
100
AcDbLayerTableRecord
  2
19_DATUM_FUNCTIONAL
 70
0
 62
7
  6
CONTINUOUS
370
-3
390
F
  0
LAYER
  5
20D
100
AcDbSymbolTableRecord
100
AcDbLayerTableRecord
  2
20_DATUM_KINEMATIC_SCHEME
 70
0
 62
7
  6
CONTINUOUS
370
-3
390
F
  0
ENDTAB
  0
TABLE
  2
STYLE
  5
3
100
AcDbSymbolTable
 70
1
  0
STYLE
  5
11
100
AcDbSymbolTableRecord
100
AcDbTextStyleTableRecord
  2
STANDARD
 70
0
 40
0.0
 41
1.0
 50
0.0
 71
0
 42
0.2
  3
ARIAL.TTF
  4

  0
STYLE
  5
20E
100
AcDbSymbolTableRecord
100
AcDbTextStyleTableRecord
  2
TEXTSTYLE_1
 70
0
 40
0.0
 41
0.8
 50
0.0
 71
0
 42
0.2
  3
gdt
  4

  0
ENDTAB
  0
TABLE
  2
VIEW
  5
6
100
AcDbSymbolTable
 70
0
  0
ENDTAB
  0
TABLE
  2
UCS
  5
7
100
AcDbSymbolTable
 70
0
  0
ENDTAB
  0
TABLE
  2
APPID
  5
9
100
AcDbSymbolTable
 70
1
  0
APPID
  5
20F
100
AcDbSymbolTableRecord
100
AcDbRegAppTableRecord
  2
ACAD
 70
0
  0
ENDTAB
  0
TABLE
  2
BLOCK_RECORD
  5
1
100
AcDbSymbolTable
 70
0
  0
BLOCK_RECORD
  5
210
100
AcDbSymbolTableRecord
100
AcDbBlockTableRecord
  2
*Model_Space
  0
BLOCK_RECORD
  5
211
100
AcDbSymbolTableRecord
100
AcDbBlockTableRecord
  2
*Paper_Space
  0
BLOCK_RECORD
  5
212
100
AcDbSymbolTableRecord
100
AcDbBlockTableRecord
  2
_FILLED
  0
ENDTAB
  0
TABLE
  2
DIMSTYLE
  5
A
100
AcDbSymbolTable
 70
1
100
AcDbDimStyleTable
 71
0
  0
DIMSTYLE
105
213
100
AcDbSymbolTableRecord
100
AcDbDimStyleTableRecord
  2
STANDARD
 70
0
  3

  4

 40
1.0
 41
2.9645285827
 42
1.0
 43
0.38
 44
1.0
 45
0.0
 46
0.0
 47
0.01
 48
0.01
140
4.1503400158
141
0.09
142
0.0
143
25.4
144
1.0
145
0.0
146
1.0
147
0.625
 71
1
 72
0
 73
0
 74
0
 75
0
 76
0
 77
1
 78
8
 79
2
170
0
171
1
172
0
173
0
174
0
175
0
176
0
177
0
178
0
270
2
179
2
271
2
272
2
273
2
274
2
275
0
280
0
281
0
282
0
283
1
284
8
285
0
286
0
287
3
288
0
340
11
278
46
341
212
342
212
343
212
344
212
  0
ENDTAB
  0
ENDSEC
  0
SECTION
  2
BLOCKS
  0
BLOCK
  5
20
100
AcDbEntity
  8
0
100
AcDbBlockBegin
  2
*Model_Space
 70
0
 10
0.0
 20
0.0
 30
0.0
  3
*Model_Space
  1

  0
ENDBLK
  5
21
100
AcDbEntity
  8
0
100
AcDbBlockEnd
  0
BLOCK
  5
1C
100
AcDbEntity
  8
0
100
AcDbBlockBegin
  2
*Paper_Space
 70
0
 10
0.0
 20
0.0
 30
0.0
  3
*Paper_Space
  1

  0
ENDBLK
  5
1D
100
AcDbEntity
  8
0
100
AcDbBlockEnd
  0
BLOCK
  5
214
100
AcDbEntity
  8
0
100
AcDbBlockBegin
  2
_FILLED
 70
64
 10
0.0
 20
0.0
  3
_FILLED
  1

  0
SOLID
  5
215
100
AcDbEntity
  8
0
  6
BYBLOCK
 62
0
100
AcDbTrace
 10
0.0
 20
0.0
 11
-1.0
 21
0.25
 12
-1.0
 22
-0.25
 13
-1.0
 23
-0.25
  0
ENDBLK
  5
216
100
AcDbEntity
  8
0
  6
BYBLOCK
 62
0
100
AcDbBlockEnd
  0
ENDSEC
  0
SECTION
  2
ENTITIES
  0
LINE
  5
217
100
AcDbEntity
  8
0
100
AcDbLine
 62
7
  6
BYLAYER
 10
28.1655615233
 20
152.4078433595
 11
28.1655615233
 21
155.4078433595
  0
LINE
  5
218
100
AcDbEntity
  8
0
100
AcDbLine
 62
7
  6
BYLAYER
 10
103.6655615233
 20
266.1578433595
 11
100.9808827716
 21
264.6078433595
  0
LINE
  5
219
100
AcDbEntity
  8
0
100
AcDbLine
 62
7
  6
BYLAYER
 10
186.9305615233
 20
85.7280823904
 11
78.5645383573
 21
85.7280823904
  0
LINE
  5
21A
100
AcDbEntity
  8
0
100
AcDbLine
 62
7
  6
BYLAYER
 10
68.766584546
 20
85.7280823904
 11
66.4005615233
 21
85.7280823904
  0
LINE
  5
21B
100
AcDbEntity
  8
0
100
AcDbLine
 62
7
  6
BYLAYER
 10
99.0655615233
 20
86.8578433595
 11
91.2655615233
 21
86.8578433595
  0
LINE
  5
21C
100
AcDbEntity
  8
0
100
AcDbLine
 62
7
  6
BYLAYER
 10
66.4005615233
 20
87.9578433595
 11
186.9305615233
 21
87.9578433595
  0
LINE
  5
21D
100
AcDbEntity
  8
0
100
AcDbLine
 62
7
  6
BYLAYER
 10
188.9305615233
 20
89.9578433595
 11
64.4005615233
 21
89.9578433595
  0
LINE
  5
21E
100
AcDbEntity
  8
0
100
AcDbLine
 62
7
  6
BYLAYER
 10
64.4005615233
 20
90.9578433595
 11
188.9305615233
 21
90.9578433595
  0
LINE
  5
21F
100
AcDbEntity
  8
0
100
AcDbLine
 62
7
  6
BYLAYER
 10
185.9155615498
 20
92.9578433595
 11
67.4155615233
 21
92.9578433595
  0
LINE
  5
220
100
AcDbEntity
  8
0
100
AcDbLine
 62
7
  6
BYLAYER
 10
189.9155615233
 20
94.9578433595
 11
187.9155615233
 21
94.9578433595
  0
LINE
  5
221
100
AcDbEntity
  8
0
100
AcDbLine
 62
7
  6
BYLAYER
 10
65.4155615233
 20
94.957843382
 11
63.4155615233
 21
94.957843382
  0
LWPOLYLINE
  5
222
100
AcDbEntity
  8
0
100
AcDbPolyline
 62
7
  6
BYLAYER
 90
6
 70
0
 10
179.6655615249
 20
87.8646143193
 10
181.2934258631
 20
87.8362783807
 10
182.8665574962
 20
87.7470991018
 10
183.8970293176
 20
87.6375576224
 10
184.4766676565
 20
87.5354447015
 10
184.625055883
 20
87.4941043527
  0
LINE
  5
223
100
AcDbEntity
  8
0
100
AcDbLine
 62
7
  6
BYLAYER
 10
53.9335107158
 20
155.4078433595
 11
53.9335107158
 21
152.4078433595
  0
LINE
  5
224
100
AcDbEntity
  8
0
100
AcDbLine
 62
7
  6
BYLAYER
 10
56.5315869271
 20
152.4078433595
 11
56.5315869271
 21
155.4078433595
  0
LINE
  5
225
100
AcDbEntity
  8
0
100
AcDbLine
 62
7
  6
BYLAYER
 10
58.1655615233
 20
262.9578433595
 11
58.1655615233
 21
265.9578433595
  0
LINE
  5
226
100
AcDbEntity
  8
0
100
AcDbLine
 62
7
  6
BYLAYER
 10
63.4155615233
 20
147.9578433595
 11
63.4155615233
 21
94.9578433663
  0
LINE
  5
227
100
AcDbEntity
  8
0
100
AcDbLine
 62
7
  6
BYLAYER
 10
63.6655615233
 20
181.4078433595
 11
63.6655615233
 21
147.9578433595
  0
LINE
  5
228
100
AcDbEntity
  8
0
100
AcDbLine
 62
7
  6
BYLAYER
 10
64.4005615233
 20
90.9578433595
 11
64.4005615233
 21
87.7294135693
  0
LINE
  5
229
100
AcDbEntity
  8
0
100
AcDbLine
 62
7
  6
BYLAYER
 10
65.4155615233
 20
94.9578433731
 11
65.4155615233
 21
147.9578433595
  0
LINE
  5
22A
100
AcDbEntity
  8
0
100
AcDbLine
 62
7
  6
BYLAYER
 10
104.5587883907
 20
261.6078433595
 11
105.9155615233
 21
263.9578433595
  0
LINE
  5
22B
100
AcDbEntity
  8
0
100
AcDbLine
 62
7
  6
BYLAYER
 10
65.6655615233
 20
148.4578433595
 11
65.6655615233
 21
198.4578433595
  0
LINE
  5
22C
100
AcDbEntity
  8
0
100
AcDbLine
 62
7
  6
BYLAYER
 10
66.4005615233
 20
85.7280823904
 11
66.4005615233
 21
90.9578433595
  0
LINE
  5
22D
100
AcDbEntity
  8
0
100
AcDbLine
 62
7
  6
BYLAYER
 10
66.6655615233
 20
147.9578433595
 11
66.6655615233
 21
148.4578433595
  0
LINE
  5
22E
100
AcDbEntity
  8
0
100
AcDbLine
 62
7
  6
BYLAYER
 10
67.4155615233
 20
90.9578433595
 11
67.4155615233
 21
92.9578433595
  0
LINE
  5
22F
100
AcDbEntity
  8
0
100
AcDbLine
 62
7
  6
BYLAYER
 10
163.6655615233
 20
266.4578433595
 11
160.4612675293
 21
264.6078433595
  0
LINE
  5
230
100
AcDbEntity
  8
0
100
AcDbLine
 62
7
  6
BYLAYER
 10
82.1655615233
 20
206.4578433595
 11
82.1655615233
 21
204.4578433595
  0
LINE
  5
231
100
AcDbEntity
  8
0
100
AcDbLine
 62
7
  6
BYLAYER
 10
82.1655615233
 20
147.1078433595
 11
82.1655615233
 21
142.5078433595
  0
LINE
  5
232
100
AcDbEntity
  8
0
100
AcDbLine
 62
7
  6
BYLAYER
 10
87.5655615233
 20
206.2499789832
 11
85.7734258996
 21
204.4578433595
  0
LINE
  5
233
100
AcDbEntity
  8
0
100
AcDbLine
 62
7
  6
BYLAYER
 10
73.3272929331
 20
148.4578433595
 11
75.6655615233
 21
147.1078433595
  0
LINE
  5
234
100
AcDbEntity
  8
0
100
AcDbLine
 62
7
  6
BYLAYER
 10
84.6655615233
 20
147.1078433595
 11
84.6655615233
 21
145.0078433595
  0
LINE
  5
235
100
AcDbEntity
  8
0
100
AcDbLine
 62
7
  6
BYLAYER
 10
85.4155615233
 20
262.4578433595
 11
85.4155615233
 21
210.4578433595
  0
LINE
  5
236
100
AcDbEntity
  8
0
100
AcDbLine
 62
7
  6
BYLAYER
 10
86.6655615233
 20
261.2616909368
 11
86.6655615233
 21
262.4578433595
  0
LINE
  5
237
100
AcDbEntity
  8
0
100
AcDbLine
 62
7
  6
BYLAYER
 10
87.1655615233
 20
147.1078433595
 11
87.1655615233
 21
142.5078433595
  0
LINE
  5
238
100
AcDbEntity
  8
0
100
AcDbLine
 62
7
  6
BYLAYER
 10
87.5655615233
 20
206.2499789832
 11
87.5655615233
 21
259.8869182283
  0
LINE
  5
239
100
AcDbEntity
  8
0
100
AcDbLine
 62
7
  6
BYLAYER
 10
89.7655615233
 20
258.6078433595
 11
89.7655615233
 21
252.9578433595
  0
LINE
  5
23A
100
AcDbEntity
  8
0
100
AcDbLine
 62
7
  6
BYLAYER
 10
89.7655615233
 20
247.4578433595
 11
89.7655615233
 21
204.4578433595
  0
LINE
  5
23B
100
AcDbEntity
  8
0
100
AcDbLine
 62
7
  6
BYLAYER
 10
91.2655615233
 20
87.9578433595
 11
91.2655615233
 21
86.8578433595
  0
LINE
  5
23C
100
AcDbEntity
  8
0
100
AcDbLine
 62
7
  6
BYLAYER
 10
168.1655615233
 20
140.6078433595
 11
166.1655615233
 21
140.6078433595
  0
LINE
  5
23D
100
AcDbEntity
  8
0
100
AcDbLine
 62
7
  6
BYLAYER
 10
98.1655615233
 20
140.6078433595
 11
96.1655615233
 21
140.6078433595
  0
LINE
  5
23E
100
AcDbEntity
  8
0
100
AcDbLine
 62
7
  6
BYLAYER
 10
95.1655615233
 20
148.1078433595
 11
96.1655615233
 21
147.1078433595
  0
LINE
  5
23F
100
AcDbEntity
  8
0
100
AcDbLine
 62
7
  6
BYLAYER
 10
96.1655615233
 20
147.1078433595
 11
96.1655615233
 21
140.6078433595
  0
LINE
  5
240
100
AcDbEntity
  8
0
100
AcDbLine
 62
7
  6
BYLAYER
 10
98.1655615233
 20
142.1078433595
 11
98.1655615233
 21
140.6078433595
  0
LINE
  5
241
100
AcDbEntity
  8
0
100
AcDbLine
 62
7
  6
BYLAYER
 10
99.0655615233
 20
87.9578433595
 11
99.0655615233
 21
86.8578433595
  0
LINE
  5
242
100
AcDbEntity
  8
0
100
AcDbLine
 62
7
  6
BYLAYER
 10
100.1655615233
 20
145.0078433595
 11
100.1655615233
 21
142.1078433595
  0
LINE
  5
243
100
AcDbEntity
  8
0
100
AcDbLine
 62
7
  6
BYLAYER
 10
177.6655615233
 20
142.1078433595
 11
166.1655615233
 21
142.1078433595
  0
LINE
  5
244
100
AcDbEntity
  8
0
100
AcDbLine
 62
7
  6
BYLAYER
 10
107.6655615233
 20
142.1078433595
 11
96.1655615233
 21
142.1078433595
  0
LINE
  5
245
100
AcDbEntity
  8
0
100
AcDbLine
 62
7
  6
BYLAYER
 10
157.1655615233
 20
142.5078433595
 11
145.6655615233
 21
142.5078433595
  0
LINE
  5
246
100
AcDbEntity
  8
0
100
AcDbLine
 62
7
  6
BYLAYER
 10
87.1655615233
 20
142.5078433595
 11
82.1655615233
 21
142.5078433595
  0
LINE
  5
247
100
AcDbEntity
  8
0
100
AcDbLine
 62
7
  6
BYLAYER
 10
177.6655615233
 20
145.0078433595
 11
170.1655615233
 21
145.0078433595
  0
LINE
  5
248
100
AcDbEntity
  8
0
100
AcDbLine
 62
7
  6
BYLAYER
 10
154.6655615233
 20
145.0078433595
 11
145.6655615233
 21
145.0078433595
  0
LINE
  5
249
100
AcDbEntity
  8
0
100
AcDbLine
 62
7
  6
BYLAYER
 10
84.6655615233
 20
145.0078433595
 11
82.1655615233
 21
145.0078433595
  0
LINE
  5
24A
100
AcDbEntity
  8
0
100
AcDbLine
 62
7
  6
BYLAYER
 10
100.1655615233
 20
145.0078433595
 11
107.6655615233
 21
145.0078433595
  0
LINE
  5
24B
100
AcDbEntity
  8
0
100
AcDbLine
 62
7
  6
BYLAYER
 10
75.6655615233
 20
147.1078433595
 11
87.1655615233
 21
147.1078433595
  0
LINE
  5
24C
100
AcDbEntity
  8
0
100
AcDbLine
 62
7
  6
BYLAYER
 10
96.1655615233
 20
147.1078433595
 11
107.6655615233
 21
147.1078433595
  0
LINE
  5
24D
100
AcDbEntity
  8
0
100
AcDbLine
 62
7
  6
BYLAYER
 10
145.6655615233
 20
147.1078433595
 11
157.1655615233
 21
147.1078433595
  0
LINE
  5
24E
100
AcDbEntity
  8
0
100
AcDbLine
 62
7
  6
BYLAYER
 10
166.1655615233
 20
147.1078433595
 11
177.6655615233
 21
147.1078433595
  0
LINE
  5
24F
100
AcDbEntity
  8
0
100
AcDbLine
 62
7
  6
BYLAYER
 10
165.3155615233
 20
147.9578433595
 11
158.0155615233
 21
147.9578433595
  0
LINE
  5
250
100
AcDbEntity
  8
0
100
AcDbLine
 62
7
  6
BYLAYER
 10
144.1933183369
 20
147.9578433595
 11
134.1935801293
 21
147.9578433595
  0
LINE
  5
251
100
AcDbEntity
  8
0
100
AcDbLine
 62
7
  6
BYLAYER
 10
119.1374148401
 20
147.9578433595
 11
109.1378047098
 21
147.9578433595
  0
LINE
  5
252
100
AcDbEntity
  8
0
100
AcDbLine
 62
7
  6
BYLAYER
 10
95.3155615233
 20
147.9578433595
 11
88.0155615233
 21
147.9578433595
  0
LINE
  5
253
100
AcDbEntity
  8
0
100
AcDbLine
 62
7
  6
BYLAYER
 10
63.4155615233
 20
147.9578433595
 11
74.1933183369
 21
147.9578433595
  0
LINE
  5
254
100
AcDbEntity
  8
0
100
AcDbLine
 62
7
  6
BYLAYER
 10
179.1378047098
 20
147.9578433595
 11
189.9155615233
 21
147.9578433595
  0
LINE
  5
255
100
AcDbEntity
  8
0
100
AcDbLine
 62
7
  6
BYLAYER
 10
88.1655615233
 20
148.1078433595
 11
95.1655615233
 21
148.1078433595
  0
LINE
  5
256
100
AcDbEntity
  8
0
100
AcDbLine
 62
7
  6
BYLAYER
 10
65.6655615233
 20
148.4578433595
 11
73.3272929331
 21
148.4578433595
  0
LINE
  5
257
100
AcDbEntity
  8
0
100
AcDbLine
 62
7
  6
BYLAYER
 10
110.0038301135
 20
148.4578433595
 11
143.3272929331
 21
148.4578433595
  0
LINE
  5
258
100
AcDbEntity
  8
0
100
AcDbLine
 62
7
  6
BYLAYER
 10
180.0038301135
 20
148.4578433595
 11
187.6655615233
 21
148.4578433595
  0
LINE
  5
259
100
AcDbEntity
  8
0
100
AcDbLine
 62
7
  6
BYLAYER
 10
158.7655615233
 20
148.7078433595
 11
164.5655615233
 21
148.7078433595
  0
LINE
  5
25A
100
AcDbEntity
  8
0
100
AcDbLine
 62
7
  6
BYLAYER
 10
101.8655615233
 20
250.9578433595
 11
101.8655615233
 21
249.4578433595
  0
LINE
  5
25B
100
AcDbEntity
  8
0
100
AcDbLine
 62
7
  6
BYLAYER
 10
107.6655615233
 20
147.1078433595
 11
107.6655615233
 21
142.1078433595
  0
LINE
  5
25C
100
AcDbEntity
  8
0
100
AcDbLine
 62
7
  6
BYLAYER
 10
65.6655615233
 20
150.6578433595
 11
187.6655615233
 21
150.6578433595
  0
LINE
  5
25D
100
AcDbEntity
  8
0
100
AcDbLine
 62
7
  6
BYLAYER
 10
225.1655615233
 20
152.4078433595
 11
189.6655615233
 21
152.4078433595
  0
LINE
  5
25E
100
AcDbEntity
  8
0
100
AcDbLine
 62
7
  6
BYLAYER
 10
28.1655615233
 20
152.4078433595
 11
63.6655615233
 21
152.4078433595
  0
LINE
  5
25F
100
AcDbEntity
  8
0
100
AcDbLine
 62
7
  6
BYLAYER
 10
28.1655615233
 20
155.4078433595
 11
63.6655615233
 21
155.4078433595
  0
LINE
  5
260
100
AcDbEntity
  8
0
100
AcDbLine
 62
7
  6
BYLAYER
 10
189.6655615233
 20
155.4078433595
 11
225.1655615233
 21
155.4078433595
  0
LINE
  5
261
100
AcDbEntity
  8
0
100
AcDbLine
 62
7
  6
BYLAYER
 10
116.6655615233
 20
161.3578433595
 11
116.6655615233
 21
150.6578433595
  0
LINE
  5
262
100
AcDbEntity
  8
0
100
AcDbLine
 62
7
  6
BYLAYER
 10
65.6655615233
 20
161.3578433595
 11
116.6655615233
 21
161.3578433595
  0
LINE
  5
263
100
AcDbEntity
  8
0
100
AcDbLine
 62
7
  6
BYLAYER
 10
136.6655615233
 20
161.3578433595
 11
187.6655615233
 21
161.3578433595
  0
LINE
  5
264
100
AcDbEntity
  8
0
100
AcDbLine
 62
7
  6
BYLAYER
 10
143.3272929331
 20
148.4578433595
 11
145.6655615233
 21
147.1078433595
  0
LINE
  5
265
100
AcDbEntity
  8
0
100
AcDbLine
 62
7
  6
BYLAYER
 10
87.1655615233
 20
147.1078433595
 11
88.1655615233
 21
148.1078433595
  0
LINE
  5
266
100
AcDbEntity
  8
0
100
AcDbLine
 62
7
  6
BYLAYER
 10
73.2155615233
 20
171.4578433595
 11
74.6155615233
 21
171.4578433595
  0
LINE
  5
267
100
AcDbEntity
  8
0
100
AcDbLine
 62
7
  6
BYLAYER
 10
178.7155615233
 20
171.4578433595
 11
180.1155615233
 21
171.4578433595
  0
LINE
  5
268
100
AcDbEntity
  8
0
100
AcDbLine
 62
7
  6
BYLAYER
 10
136.6655615233
 20
150.6578433595
 11
136.6655615233
 21
161.3578433595
  0
LINE
  5
269
100
AcDbEntity
  8
0
100
AcDbLine
 62
7
  6
BYLAYER
 10
180.1155615233
 20
180.4578433595
 11
178.7155615233
 21
180.4578433595
  0
LINE
  5
26A
100
AcDbEntity
  8
0
100
AcDbLine
 62
7
  6
BYLAYER
 10
74.6155615233
 20
180.4578433595
 11
73.2155615233
 21
180.4578433595
  0
LINE
  5
26B
100
AcDbEntity
  8
0
100
AcDbLine
 62
7
  6
BYLAYER
 10
65.6655615233
 20
180.9370751712
 11
82.0178884083
 21
180.9370751712
  0
LINE
  5
26C
100
AcDbEntity
  8
0
100
AcDbLine
 62
7
  6
BYLAYER
 10
87.8132346384
 20
180.9370751712
 11
159.9659159993
 21
180.9370751712
  0
LINE
  5
26D
100
AcDbEntity
  8
0
100
AcDbLine
 62
7
  6
BYLAYER
 10
173.7954750845
 20
180.9370751712
 11
187.6655615233
 21
180.9370751712
  0
LINE
  5
26E
100
AcDbEntity
  8
0
100
AcDbLine
 62
7
  6
BYLAYER
 10
63.6655615233
 20
181.4078433595
 11
65.6655615233
 21
181.4078433595
  0
LINE
  5
26F
100
AcDbEntity
  8
0
100
AcDbLine
 62
7
  6
BYLAYER
 10
187.6655615233
 20
181.4078433595
 11
189.6655615233
 21
181.4078433595
  0
LINE
  5
270
100
AcDbEntity
  8
0
100
AcDbLine
 62
7
  6
BYLAYER
 10
164.5655615233
 20
148.7078433595
 11
166.1655615233
 21
147.1078433595
  0
LINE
  5
271
100
AcDbEntity
  8
0
100
AcDbLine
 62
7
  6
BYLAYER
 10
145.6655615233
 20
142.5078433595
 11
145.6655615233
 21
147.1078433595
  0
LINE
  5
272
100
AcDbEntity
  8
0
100
AcDbLine
 62
7
  6
BYLAYER
 10
107.6655615233
 20
147.1078433595
 11
110.0038301135
 21
148.4578433595
  0
LINE
  5
273
100
AcDbEntity
  8
0
100
AcDbLine
 62
7
  6
BYLAYER
 10
151.4655615233
 20
250.9578433595
 11
151.4655615233
 21
249.4578433595
  0
LINE
  5
274
100
AcDbEntity
  8
0
100
AcDbLine
 62
7
  6
BYLAYER
 10
154.6655615233
 20
147.1078433595
 11
154.6655615233
 21
145.0078433595
  0
LINE
  5
275
100
AcDbEntity
  8
0
100
AcDbLine
 62
7
  6
BYLAYER
 10
157.1655615233
 20
147.1078433595
 11
157.1655615233
 21
142.5078433595
  0
LINE
  5
276
100
AcDbEntity
  8
0
100
AcDbLine
 62
7
  6
BYLAYER
 10
171.1655615233
 20
204.4578433595
 11
82.1655615233
 21
204.4578433595
  0
LINE
  5
277
100
AcDbEntity
  8
0
100
AcDbLine
 62
7
  6
BYLAYER
 10
73.6655615233
 20
206.4578433595
 11
82.1655615233
 21
206.4578433595
  0
LINE
  5
278
100
AcDbEntity
  8
0
100
AcDbLine
 62
7
  6
BYLAYER
 10
171.1655615233
 20
206.4578433595
 11
179.6655615233
 21
206.4578433595
  0
LINE
  5
279
100
AcDbEntity
  8
0
100
AcDbLine
 62
7
  6
BYLAYER
 10
178.6655615233
 20
209.4578433595
 11
168.9155615233
 21
209.4578433595
  0
LINE
  5
27A
100
AcDbEntity
  8
0
100
AcDbLine
 62
7
  6
BYLAYER
 10
84.4155615233
 20
209.4578433595
 11
74.6655615233
 21
209.4578433595
  0
LINE
  5
27B
100
AcDbEntity
  8
0
100
AcDbLine
 62
7
  6
BYLAYER
 10
163.5655615233
 20
258.6078433595
 11
163.5655615233
 21
252.9578433595
  0
LINE
  5
27C
100
AcDbEntity
  8
0
100
AcDbLine
 62
7
  6
BYLAYER
 10
163.5655615233
 20
247.4578433595
 11
163.5655615233
 21
204.4578433595
  0
LINE
  5
27D
100
AcDbEntity
  8
0
100
AcDbLine
 62
7
  6
BYLAYER
 10
165.7655615233
 20
206.2499789832
 11
165.7655615233
 21
259.8869182283
  0
LINE
  5
27E
100
AcDbEntity
  8
0
100
AcDbLine
 62
7
  6
BYLAYER
 10
166.1655615233
 20
147.1078433595
 11
166.1655615233
 21
140.6078433595
  0
LINE
  5
27F
100
AcDbEntity
  8
0
100
AcDbLine
 62
7
  6
BYLAYER
 10
166.6655615233
 20
261.2616909368
 11
166.6655615233
 21
262.4578433595
  0
LINE
  5
280
100
AcDbEntity
  8
0
100
AcDbLine
 62
7
  6
BYLAYER
 10
167.9155615233
 20
210.4578433595
 11
167.9155615233
 21
262.4578433595
  0
LINE
  5
281
100
AcDbEntity
  8
0
100
AcDbLine
 62
7
  6
BYLAYER
 10
168.1655615233
 20
142.1078433595
 11
168.1655615233
 21
140.6078433595
  0
LINE
  5
282
100
AcDbEntity
  8
0
100
AcDbLine
 62
7
  6
BYLAYER
 10
170.1655615233
 20
142.1078433595
 11
170.1655615233
 21
145.0078433595
  0
LINE
  5
283
100
AcDbEntity
  8
0
100
AcDbLine
 62
7
  6
BYLAYER
 10
171.1655615233
 20
204.4578433595
 11
171.1655615233
 21
206.4578433595
  0
LINE
  5
284
100
AcDbEntity
  8
0
100
AcDbLine
 62
7
  6
BYLAYER
 10
157.1655615233
 20
147.1078433595
 11
158.7655615233
 21
148.7078433595
  0
LINE
  5
285
100
AcDbEntity
  8
0
100
AcDbLine
 62
7
  6
BYLAYER
 10
177.6655615233
 20
142.1078433595
 11
177.6655615233
 21
147.1078433595
  0
LINE
  5
286
100
AcDbEntity
  8
0
100
AcDbLine
 62
7
  6
BYLAYER
 10
179.6655615249
 20
87.8709232367
 11
179.6655615249
 21
87.8646143193
  0
LINE
  5
287
100
AcDbEntity
  8
0
100
AcDbLine
 62
7
  6
BYLAYER
 10
179.6655614994
 20
86.8082029152
 11
179.6655615544
 21
87.8050164511
  0
LINE
  5
288
100
AcDbEntity
  8
0
100
AcDbLine
 62
7
  6
BYLAYER
 10
177.6655615233
 20
147.1078433595
 11
180.0038301135
 21
148.4578433595
  0
LINE
  5
289
100
AcDbEntity
  8
0
100
AcDbLine
 62
7
  6
BYLAYER
 10
167.5576971471
 20
204.4578433595
 11
165.7655615233
 21
206.2499789832
  0
LINE
  5
28A
100
AcDbEntity
  8
0
100
AcDbLine
 62
7
  6
BYLAYER
 10
185.915561567
 20
92.9578433595
 11
185.915561567
 21
90.9578433595
  0
LINE
  5
28B
100
AcDbEntity
  8
0
100
AcDbLine
 62
7
  6
BYLAYER
 10
186.6655615233
 20
148.4578433595
 11
186.6655615233
 21
147.9578433595
  0
LINE
  5
28C
100
AcDbEntity
  8
0
100
AcDbLine
 62
7
  6
BYLAYER
 10
186.9305615233
 20
90.9578433595
 11
186.9305615233
 21
85.7280823904
  0
LINE
  5
28D
100
AcDbEntity
  8
0
100
AcDbLine
 62
7
  6
BYLAYER
 10
187.6655615233
 20
198.4578433595
 11
187.6655615233
 21
148.4578433595
  0
LINE
  5
28E
100
AcDbEntity
  8
0
100
AcDbLine
 62
7
  6
BYLAYER
 10
187.9155615233
 20
147.9578433595
 11
187.9155615233
 21
94.9578433595
  0
LINE
  5
28F
100
AcDbEntity
  8
0
100
AcDbLine
 62
7
  6
BYLAYER
 10
188.9305615233
 20
87.7283399533
 11
188.9305615233
 21
90.9578433595
  0
LINE
  5
290
100
AcDbEntity
  8
0
100
AcDbLine
 62
7
  6
BYLAYER
 10
189.6655615233
 20
147.9578433595
 11
189.6655615233
 21
181.4078433595
  0
LINE
  5
291
100
AcDbEntity
  8
0
100
AcDbLine
 62
7
  6
BYLAYER
 10
189.9155615233
 20
94.9578433601
 11
189.9155615233
 21
147.9578433595
  0
LINE
  5
292
100
AcDbEntity
  8
0
100
AcDbLine
 62
7
  6
BYLAYER
 10
92.8698555173
 20
264.6078433595
 11
89.6655615233
 21
266.4578433595
  0
LINE
  5
293
100
AcDbEntity
  8
0
100
AcDbLine
 62
7
  6
BYLAYER
 10
147.4155615233
 20
263.9578433595
 11
148.7723346559
 21
261.6078433595
  0
LINE
  5
294
100
AcDbEntity
  8
0
100
AcDbLine
 62
7
  6
BYLAYER
 10
195.1655615233
 20
262.9578433595
 11
195.1655615233
 21
265.9578433595
  0
LINE
  5
295
100
AcDbEntity
  8
0
100
AcDbLine
 62
7
  6
BYLAYER
 10
196.7995361195
 20
155.4078433595
 11
196.7995361195
 21
152.4078433595
  0
LINE
  5
296
100
AcDbEntity
  8
0
100
AcDbLine
 62
7
  6
BYLAYER
 10
199.3976123309
 20
152.4078433595
 11
199.3976123309
 21
155.4078433595
  0
LINE
  5
297
100
AcDbEntity
  8
0
100
AcDbLine
 62
7
  6
BYLAYER
 10
101.3655615233
 20
248.9578433595
 11
91.2655615233
 21
248.9578433595
  0
LINE
  5
298
100
AcDbEntity
  8
0
100
AcDbLine
 62
7
  6
BYLAYER
 10
151.9655615233
 20
248.9578433595
 11
162.0655615233
 21
248.9578433595
  0
LINE
  5
299
100
AcDbEntity
  8
0
100
AcDbLine
 62
7
  6
BYLAYER
 10
162.0655615233
 20
251.4578433595
 11
151.9655615233
 21
251.4578433595
  0
LINE
  5
29A
100
AcDbEntity
  8
0
100
AcDbLine
 62
7
  6
BYLAYER
 10
91.2655615233
 20
251.4578433595
 11
101.3655615233
 21
251.4578433595
  0
LINE
  5
29B
100
AcDbEntity
  8
0
100
AcDbLine
 62
7
  6
BYLAYER
 10
104.5587883907
 20
261.6078433595
 11
92.7655615233
 21
261.6078433595
  0
LINE
  5
29C
100
AcDbEntity
  8
0
100
AcDbLine
 62
7
  6
BYLAYER
 10
148.7723346559
 20
261.6078433595
 11
160.5655615233
 21
261.6078433595
  0
LINE
  5
29D
100
AcDbEntity
  8
0
100
AcDbLine
 62
7
  6
BYLAYER
 10
86.6655615233
 20
262.4578433595
 11
58.6655615233
 21
262.4578433595
  0
LINE
  5
29E
100
AcDbEntity
  8
0
100
AcDbLine
 62
7
  6
BYLAYER
 10
166.6655615233
 20
262.4578433595
 11
194.6655615233
 21
262.4578433595
  0
LINE
  5
29F
100
AcDbEntity
  8
0
100
AcDbLine
 62
7
  6
BYLAYER
 10
105.9155615233
 20
263.9578433595
 11
147.4155615233
 21
263.9578433595
  0
LINE
  5
2A0
100
AcDbEntity
  8
0
100
AcDbLine
 62
7
  6
BYLAYER
 10
160.4612675293
 20
264.6078433595
 11
152.3502402751
 21
264.6078433595
  0
LINE
  5
2A1
100
AcDbEntity
  8
0
100
AcDbLine
 62
7
  6
BYLAYER
 10
92.8698555173
 20
264.6078433595
 11
100.9808827716
 21
264.6078433595
  0
LINE
  5
2A2
100
AcDbEntity
  8
0
100
AcDbLine
 62
7
  6
BYLAYER
 10
161.5871005542
 20
265.2578433595
 11
151.2244072501
 21
265.2578433595
  0
LINE
  5
2A3
100
AcDbEntity
  8
0
100
AcDbLine
 62
7
  6
BYLAYER
 10
102.1067157965
 20
265.2578433595
 11
91.7440224924
 21
265.2578433595
  0
LINE
  5
2A4
100
AcDbEntity
  8
0
100
AcDbLine
 62
7
  6
BYLAYER
 10
149.6655615233
 20
266.1578433595
 11
103.6655615233
 21
266.1578433595
  0
LINE
  5
2A5
100
AcDbEntity
  8
0
100
AcDbLine
 62
7
  6
BYLAYER
 10
152.3502402751
 20
264.6078433595
 11
149.6655615233
 21
266.1578433595
  0
LINE
  5
2A6
100
AcDbEntity
  8
0
100
AcDbLine
 62
7
  6
BYLAYER
 10
225.1655615233
 20
155.4078433595
 11
225.1655615233
 21
152.4078433595
  0
LINE
  5
2A7
100
AcDbEntity
  8
0
100
AcDbLine
 62
7
  6
BYLAYER
 10
194.6655615233
 20
266.4578433595
 11
163.6655615233
 21
266.4578433595
  0
LINE
  5
2A8
100
AcDbEntity
  8
0
100
AcDbLine
 62
7
  6
BYLAYER
 10
58.6655615233
 20
266.4578433595
 11
89.6655615233
 21
266.4578433595
  0
LWPOLYLINE
  5
2A9
100
AcDbEntity
  8
0
100
AcDbPolyline
 62
7
  6
BYLAYER
 90
7
 70
0
 10
174.7418813541
 20
87.5127424179
 10
174.7171587003
 20
87.4995563512
 10
174.8497970578
 20
87.5343401059
 10
175.4230143158
 20
87.6360096102
 10
176.4446432092
 20
87.7454683423
 10
178.0057432233
 20
87.835129784
 10
179.6655615598
 20
87.8646215779
  0
ARC
  5
2AA
100
AcDbEntity
  8
0
100
AcDbCircle
 62
7
  6
BYLAYER
 10
67.4155615233
 20
94.9578433595
 40
4.0
100
AcDbArc
 50
179.9999999393
 51
270.0
  0
ARC
  5
2AB
100
AcDbEntity
  8
0
100
AcDbCircle
 62
7
  6
BYLAYER
 10
66.4005615233
 20
87.7280823904
 40
2.0
100
AcDbArc
 50
180.0
 51
270.0
  0
ARC
  5
2AC
100
AcDbEntity
  8
0
100
AcDbCircle
 62
7
  6
BYLAYER
 10
66.4005615233
 20
89.9578433595
 40
2.0
100
AcDbArc
 50
180.0
 51
270.0
  0
ARC
  5
2AD
100
AcDbEntity
  8
0
100
AcDbCircle
 62
7
  6
BYLAYER
 10
67.4155615233
 20
94.9578433595
 40
2.0
100
AcDbArc
 50
179.9999996093
 51
269.9999999997
  0
CIRCLE
  5
2AE
100
AcDbEntity
  8
0
100
AcDbCircle
 62
7
  6
BYLAYER
 10
84.9155615233
 20
189.4578433595
 40
9.0
  0
ARC
  5
2AF
100
AcDbEntity
  8
0
100
AcDbCircle
 62
7
  6
BYLAYER
 10
74.6655615233
 20
201.4578433595
 40
8.0
100
AcDbArc
 50
90.0
 51
170.3455563917
  0
ARC
  5
2B0
100
AcDbEntity
  8
0
100
AcDbCircle
 62
7
  6
BYLAYER
 10
73.6655615233
 20
198.4578433595
 40
8.0
100
AcDbArc
 50
90.0
 51
180.0
  0
CIRCLE
  5
2B1
100
AcDbEntity
  8
0
100
AcDbCircle
 62
7
  6
BYLAYER
 10
84.9155615233
 20
189.4578433595
 40
7.875
  0
ARC
  5
2B2
100
AcDbEntity
  8
0
100
AcDbCircle
 62
7
  6
BYLAYER
 10
74.6155615233
 20
175.9578433595
 40
4.5
100
AcDbArc
 50
270.0
 51
90.0
  0
ARC
  5
2B3
100
AcDbEntity
  8
0
100
AcDbCircle
 62
7
  6
BYLAYER
 10
73.2155615233
 20
175.9578433595
 40
4.5
100
AcDbArc
 50
90.0
 51
270.0
  0
ARC
  5
2B4
100
AcDbEntity
  8
0
100
AcDbCircle
 62
7
  6
BYLAYER
 10
92.7655615233
 20
258.6078433595
 40
3.0
100
AcDbArc
 50
90.0
 51
180.0
  0
ARC
  5
2B5
100
AcDbEntity
  8
0
100
AcDbCircle
 62
7
  6
BYLAYER
 10
91.2655615233
 20
252.9578433595
 40
1.5
100
AcDbArc
 50
180.0
 51
270.0
  0
ARC
  5
2B6
100
AcDbEntity
  8
0
100
AcDbCircle
 62
7
  6
BYLAYER
 10
91.2655615233
 20
247.4578433595
 40
1.5
100
AcDbArc
 50
90.0
 51
180.0
  0
ARC
  5
2B7
100
AcDbEntity
  8
0
100
AcDbCircle
 62
7
  6
BYLAYER
 10
86.0655615233
 20
259.8869182283
 40
1.5
100
AcDbArc
 50
0.0
 51
66.4218215219
  0
ARC
  5
2B8
100
AcDbEntity
  8
0
100
AcDbCircle
 62
7
  6
BYLAYER
 10
84.4155615233
 20
210.4578433595
 40
1.0
100
AcDbArc
 50
270.0
 51
360.0
  0
ARC
  5
2B9
100
AcDbEntity
  8
0
100
AcDbCircle
 62
7
  6
BYLAYER
 10
101.3655615233
 20
250.9578433595
 40
0.5
100
AcDbArc
 50
0.0
 51
90.0
  0
ARC
  5
2BA
100
AcDbEntity
  8
0
100
AcDbCircle
 62
7
  6
BYLAYER
 10
101.3655615233
 20
249.4578433595
 40
0.5
100
AcDbArc
 50
270.0
 51
360.0
  0
ARC
  5
2BB
100
AcDbEntity
  8
0
100
AcDbCircle
 62
7
  6
BYLAYER
 10
58.6655615233
 20
262.9578433595
 40
0.5
100
AcDbArc
 50
180.0
 51
270.0
  0
ARC
  5
2BC
100
AcDbEntity
  8
0
100
AcDbCircle
 62
7
  6
BYLAYER
 10
58.6655615233
 20
265.9578433595
 40
0.5
100
AcDbArc
 50
90.0
 51
180.0
  0
ARC
  5
2BD
100
AcDbEntity
  8
0
100
AcDbCircle
 62
7
  6
BYLAYER
 10
179.670918947
 20
40.8669298095
 40
47.0039814944
100
AcDbArc
 50
87.619334996
 51
90.0065304466
  0
ARC
  5
2BE
100
AcDbEntity
  8
0
100
AcDbCircle
 62
7
  6
BYLAYER
 10
179.6327993603
 20
42.1668893062
 40
45.7040334348
100
AcDbArc
 50
89.9589284695
 51
92.3633117447
  0
ARC
  5
2BF
100
AcDbEntity
  8
0
100
AcDbCircle
 62
7
  6
BYLAYER
 10
179.6635544945
 20
131.3740524501
 40
43.5690360452
100
AcDbArc
 50
270.0026393607
 51
272.0053752664
  0
ARC
  5
2C0
100
AcDbEntity
  8
0
100
AcDbCircle
 62
7
  6
BYLAYER
 10
179.6574336441
 20
130.7940242144
 40
42.9890085317
100
AcDbArc
 50
267.987281547
 51
270.0108328459
  0
ARC
  5
2C1
100
AcDbEntity
  8
0
100
AcDbCircle
 62
7
  6
BYLAYER
 10
126.6655615233
 20
149.7578433595
 40
7.85
100
AcDbArc
 50
189.5323874933
 51
350.4676125067
  0
ARC
  5
2C2
100
AcDbEntity
  8
0
100
AcDbCircle
 62
7
  6
BYLAYER
 10
185.9155615233
 20
94.9578433595
 40
4.0
100
AcDbArc
 50
270.0
 51
360.0
  0
ARC
  5
2C3
100
AcDbEntity
  8
0
100
AcDbCircle
 62
7
  6
BYLAYER
 10
186.9305615233
 20
87.7280823904
 40
2.0
100
AcDbArc
 50
270.0
 51
360.0
  0
ARC
  5
2C4
100
AcDbEntity
  8
0
100
AcDbCircle
 62
7
  6
BYLAYER
 10
186.9305615233
 20
89.9578433595
 40
2.0
100
AcDbArc
 50
270.0
 51
360.0
  0
ARC
  5
2C5
100
AcDbEntity
  8
0
100
AcDbCircle
 62
7
  6
BYLAYER
 10
185.9155615233
 20
94.9578433595
 40
2.0
100
AcDbArc
 50
270.0000007584
 51
359.9999999998
  0
ARC
  5
2C6
100
AcDbEntity
  8
0
100
AcDbCircle
 62
7
  6
BYLAYER
 10
168.4155615233
 20
189.4578433595
 40
12.0
100
AcDbArc
 50
327.1840693559
 51
287.5005112566
  0
ARC
  5
2C7
100
AcDbEntity
  8
0
100
AcDbCircle
 62
7
  6
BYLAYER
 10
179.6655615233
 20
198.4578433595
 40
8.0
100
AcDbArc
 50
0.0
 51
90.0
  0
ARC
  5
2C8
100
AcDbEntity
  8
0
100
AcDbCircle
 62
7
  6
BYLAYER
 10
178.6655615233
 20
201.4578433595
 40
8.0
100
AcDbArc
 50
9.6711741101
 51
90.0
  0
ARC
  5
2C9
100
AcDbEntity
  8
0
100
AcDbCircle
 62
7
  6
BYLAYER
 10
178.7155615233
 20
175.9578433595
 40
7.0
100
AcDbArc
 50
91.7601458531
 51
162.9244347594
  0
ARC
  5
2CA
100
AcDbEntity
  8
0
100
AcDbCircle
 62
7
  6
BYLAYER
 10
180.1155615233
 20
175.9578433595
 40
4.5
100
AcDbArc
 50
270.0
 51
90.0
  0
ARC
  5
2CB
100
AcDbEntity
  8
0
100
AcDbCircle
 62
7
  6
BYLAYER
 10
178.7155615233
 20
175.9578433595
 40
4.5
100
AcDbArc
 50
90.0
 51
270.0
  0
ARC
  5
2CC
100
AcDbEntity
  8
0
100
AcDbCircle
 62
7
  6
BYLAYER
 10
160.5655615233
 20
258.6078433595
 40
3.0
100
AcDbArc
 50
0.0
 51
90.0
  0
ARC
  5
2CD
100
AcDbEntity
  8
0
100
AcDbCircle
 62
7
  6
BYLAYER
 10
162.0655615233
 20
247.4578433595
 40
1.5
100
AcDbArc
 50
0.0
 51
90.0
  0
ARC
  5
2CE
100
AcDbEntity
  8
0
100
AcDbCircle
 62
7
  6
BYLAYER
 10
162.0655615233
 20
252.9578433595
 40
1.5
100
AcDbArc
 50
270.0
 51
360.0
  0
ARC
  5
2CF
100
AcDbEntity
  8
0
100
AcDbCircle
 62
7
  6
BYLAYER
 10
167.2655615233
 20
259.8869182283
 40
1.5
100
AcDbArc
 50
113.5781784781
 51
180.0
  0
ARC
  5
2D0
100
AcDbEntity
  8
0
100
AcDbCircle
 62
7
  6
BYLAYER
 10
168.9155615233
 20
210.4578433595
 40
1.0
100
AcDbArc
 50
180.0
 51
270.0
  0
ARC
  5
2D1
100
AcDbEntity
  8
0
100
AcDbCircle
 62
7
  6
BYLAYER
 10
151.9655615233
 20
249.4578433595
 40
0.5
100
AcDbArc
 50
180.0
 51
270.0
  0
ARC
  5
2D2
100
AcDbEntity
  8
0
100
AcDbCircle
 62
7
  6
BYLAYER
 10
151.9655615233
 20
250.9578433595
 40
0.5
100
AcDbArc
 50
90.0
 51
180.0
  0
ARC
  5
2D3
100
AcDbEntity
  8
0
100
AcDbCircle
 62
7
  6
BYLAYER
 10
194.6655615233
 20
265.9578433595
 40
0.5
100
AcDbArc
 50
0.0
 51
90.0
  0
ARC
  5
2D4
100
AcDbEntity
  8
0
100
AcDbCircle
 62
7
  6
BYLAYER
 10
194.6655615233
 20
262.9578433595
 40
0.5
100
AcDbArc
 50
270.0
 51
360.0
  0
SPLINE
  5
2D5
100
AcDbEntity
  8
0
100
AcDbSpline
 62
7
  6
BYLAYER
 70
0
 71
3
 72
9
 73
5
 74
0
 42
0.0000001
 43
0.0000001
 44
0.0000000001
 40
0.0
 40
0.0
 40
0.0
 40
0.0
 40
0.4137756827
 40
1.0
 40
1.0
 40
1.0
 40
1.0
 10
68.7728480167
 20
85.7280830379
 30
0.0
 10
69.4476792871
 20
85.7281375703
 30
0.0
 10
71.0785712193
 20
85.7380022419
 30
0.0
 10
72.7094819012
 20
85.7414062348
 30
0.0
 10
73.6655615323
 20
85.7413961446
 30
0.0
  0
SPLINE
  5
2D6
100
AcDbEntity
  8
0
100
AcDbSpline
 62
7
  6
BYLAYER
 70
0
 71
3
 72
9
 73
5
 74
0
 42
0.0000001
 43
0.0000001
 44
0.0000000001
 40
0.0
 40
0.0
 40
0.0
 40
0.0
 40
0.5866669749
 40
1.0
 40
1.0
 40
1.0
 40
1.0
 10
73.6655615323
 20
85.7413961446
 30
0.0
 10
74.6235673276
 20
85.7414059569
 30
0.0
 10
76.2565305873
 20
85.7380019093
 30
0.0
 10
77.8894753101
 20
85.7280901691
 30
0.0
 10
78.5644330807
 20
85.7280827579
 30
0.0
  0
SPLINE
  5
2D7
100
AcDbEntity
  8
0
100
AcDbSpline
 62
7
  6
BYLAYER
 70
0
 71
3
 72
12
 73
8
 74
0
 42
0.0000001
 43
0.0000001
 44
0.0000000001
 40
0.0
 40
0.0
 40
0.0
 40
0.0
 40
0.3213043219
 40
0.6120480773
 40
0.8451853376
 40
0.9333511237
 40
1.0
 40
1.0
 40
1.0
 40
1.0
 10
179.6655615173
 20
86.8081910126
 30
0.0
 10
179.1080051253
 20
86.8082079533
 30
0.0
 10
178.0458177473
 20
86.8206237289
 30
0.0
 10
176.580246155
 20
86.8774758515
 30
0.0
 10
175.5203227391
 20
86.9558422152
 30
0.0
 10
174.8528197245
 20
87.0437993892
 30
0.0
 10
174.588464427
 20
87.0940331623
 30
0.0
 10
174.4765206833
 20
87.1230971843
 30
0.0
  0
SPLINE
  5
2D8
100
AcDbEntity
  8
0
100
AcDbSpline
 62
7
  6
BYLAYER
 70
0
 71
3
 72
15
 73
11
 74
0
 42
0.0000001
 43
0.0000001
 44
0.0000000001
 40
0.0
 40
0.0
 40
0.0
 40
0.0
 40
0.1816955483
 40
0.3154756628
 40
0.4046994515
 40
0.4645613989
 40
0.5341127433
 40
0.6422974543
 40
0.7970940758
 40
1.0
 40
1.0
 40
1.0
 40
1.0
 10
174.4765206833
 20
87.1230971843
 30
0.0
 10
174.4287960502
 20
87.1354879597
 30
0.0
 10
174.3460553844
 20
87.1591483683
 30
0.0
 10
174.2457685472
 20
87.2026612546
 30
0.0
 10
174.1790318294
 20
87.2449902315
 30
0.0
 10
174.1576808606
 20
87.3083285473
 30
0.0
 10
174.203705736
 20
87.3631414504
 30
0.0
 10
174.2810477338
 20
87.4069953613
 30
0.0
 10
174.3996598843
 20
87.4537584261
 30
0.0
 10
174.4928404262
 20
87.4804646666
 30
0.0
 10
174.5461113823
 20
87.4943972526
 30
0.0
  0
SPLINE
  5
2D9
100
AcDbEntity
  8
0
100
AcDbSpline
 62
7
  6
BYLAYER
 70
0
 71
3
 72
9
 73
5
 74
0
 42
0.0000001
 43
0.0000001
 44
0.0000000001
 40
0.0
 40
0.0
 40
0.0
 40
0.0
 40
0.2081232496
 40
1.0
 40
1.0
 40
1.0
 40
1.0
 10
174.5461113823
 20
87.4943972526
 30
0.0
 10
174.5913253602
 20
87.5062226013
 30
0.0
 10
174.8098792173
 20
87.5580299044
 30
0.0
 10
175.0316661978
 20
87.5950140331
 30
0.0
 10
175.2075912307
 20
87.6208961181
 30
0.0
  0
SPLINE
  5
2DA
100
AcDbEntity
  8
0
100
AcDbSpline
 62
7
  6
BYLAYER
 70
0
 71
3
 72
9
 73
5
 74
0
 42
0.0000001
 43
0.0000001
 44
0.0000000001
 40
0.0
 40
0.0
 40
0.0
 40
0.0
 40
0.2302029986
 40
1.0
 40
1.0
 40
1.0
 40
1.0
 10
175.2075912307
 20
87.6208961181
 30
0.0
 10
175.2587337986
 20
87.628420211
 30
0.0
 10
175.4811187541
 20
87.6595944699
 30
0.0
 10
175.7042437094
 20
87.6853354608
 30
0.0
 10
175.8761918615
 20
87.7030792268
 30
0.0
  0
SPLINE
  5
2DB
100
AcDbEntity
  8
0
100
AcDbSpline
 62
7
  6
BYLAYER
 70
0
 71
3
 72
9
 73
5
 74
0
 42
0.0000001
 43
0.0000001
 44
0.0000000001
 40
0.0
 40
0.0
 40
0.0
 40
0.0
 40
0.2251972343
 40
1.0
 40
1.0
 40
1.0
 40
1.0
 10
175.8761918615
 20
87.7030792268
 30
0.0
 10
176.0163135435
 20
87.7175387387
 30
0.0
 10
176.6391813658
 20
87.7754209348
 30
0.0
 10
177.2639185314
 20
87.8118522695
 30
0.0
 10
177.7481535041
 20
87.8320486972
 30
0.0
  0
SPLINE
  5
2DC
100
AcDbEntity
  8
0
100
AcDbSpline
 62
7
  6
BYLAYER
 70
0
 71
3
 72
9
 73
5
 74
0
 42
0.0000001
 43
0.0000001
 44
0.0000000001
 40
0.0
 40
0.0
 40
0.0
 40
0.0
 40
0.2721536177
 40
1.0
 40
1.0
 40
1.0
 40
1.0
 10
181.6233932691
 20
87.8303423808
 30
0.0
 10
181.7896267929
 20
87.8232448279
 30
0.0
 10
182.4002452893
 20
87.7933602431
 30
0.0
 10
183.010304054
 20
87.7489180313
 30
0.0
 10
183.4529372381
 20
87.7032851357
 30
0.0
  0
SPLINE
  5
2DD
100
AcDbEntity
  8
0
100
AcDbSpline
 62
7
  6
BYLAYER
 70
0
 71
3
 72
9
 73
5
 74
0
 42
0.0000001
 43
0.0000001
 44
0.0000000001
 40
0.0
 40
0.0
 40
0.0
 40
0.0
 40
0.269650839
 40
1.0
 40
1.0
 40
1.0
 40
1.0
 10
183.4529372381
 20
87.7032851357
 30
0.0
 10
183.5140437771
 20
87.6969854085
 30
0.0
 10
183.7405479899
 20
87.6726080984
 30
0.0
 10
183.9666333355
 20
87.6440916017
 30
0.0
 10
184.1312289859
 20
87.6197607927
 30
0.0
  0
SPLINE
  5
2DE
100
AcDbEntity
  8
0
100
AcDbSpline
 62
7
  6
BYLAYER
 70
0
 71
3
 72
9
 73
5
 74
0
 42
0.0000001
 43
0.0000001
 44
0.0000000001
 40
0.0
 40
0.0
 40
0.0
 40
0.0
 40
0.2944825517
 40
1.0
 40
1.0
 40
1.0
 40
1.0
 10
184.1312289859
 20
87.6197607927
 30
0.0
 10
184.1992869785
 20
87.6097003444
 30
0.0
 10
184.4299754292
 20
87.5732321135
 30
0.0
 10
184.6599454092
 20
87.5289784454
 30
0.0
 10
184.8188824282
 20
87.4853199434
 30
0.0
  0
SPLINE
  5
2DF
100
AcDbEntity
  8
0
100
AcDbSpline
 62
7
  6
BYLAYER
 70
0
 71
3
 72
15
 73
11
 74
0
 42
0.0000001
 43
0.0000001
 44
0.0000000001
 40
0.0
 40
0.0
 40
0.0
 40
0.0
 40
0.2010720091
 40
0.3546872103
 40
0.4626056476
 40
0.5332608194
 40
0.595057217
 40
0.6852745936
 40
0.8190488361
 40
1.0
 40
1.0
 40
1.0
 40
1.0
 10
184.8188824282
 20
87.4853199434
 30
0.0
 10
184.8675820797
 20
87.4719426079
 30
0.0
 10
184.9528139076
 20
87.446282759
 30
0.0
 10
185.0609829988
 20
87.401555242
 30
0.0
 10
185.1318679726
 20
87.3592375624
 30
0.0
 10
185.1728312732
 20
87.3067798843
 30
0.0
 10
185.1531443613
 20
87.2473916754
 30
0.0
 10
185.0919027712
 20
87.2062113388
 30
0.0
 10
184.9994974792
 20
87.1645595856
 30
0.0
 10
184.9234325661
 20
87.1416815387
 30
0.0
 10
184.8795802159
 20
87.1297377842
 30
0.0
  0
SPLINE
  5
2E0
100
AcDbEntity
  8
0
100
AcDbSpline
 62
7
  6
BYLAYER
 70
0
 71
3
 72
12
 73
8
 74
0
 42
0.0000001
 43
0.0000001
 44
0.0000000001
 40
0.0
 40
0.0
 40
0.0
 40
0.0
 40
0.0651615784
 40
0.1523447765
 40
0.3849595601
 40
0.6767572043
 40
1.0
 40
1.0
 40
1.0
 40
1.0
 10
184.8795802159
 20
87.1297377842
 30
0.0
 10
184.7699392087
 20
87.0998756386
 30
0.0
 10
184.5087514514
 20
87.0485984709
 30
0.0
 10
183.8434151308
 20
86.9587216184
 30
0.0
 10
182.7790406163
 20
86.8789028525
 30
0.0
 10
181.3019440011
 20
86.820863255
 30
0.0
 10
180.2292629283
 20
86.8082054958
 30
0.0
 10
179.6655615173
 20
86.8081910126
 30
0.0
  0
ENDSEC
  0
SECTION
  2
OBJECTS
  0
DICTIONARY
  5
C
100
AcDbDictionary
280
0
281
1
  3
ACAD_GROUP
350
D
  3
ACAD_MLINESTYLE
350
17
  3
ACAD_LAYOUT
350
1A
  3
ACAD_PLOTSETTINGS
350
19
  3
ACAD_PLOTSTYLENAME
350
E
  0
DICTIONARY
  5
D
102
{ACAD_REACTORS
330
C
102
}
100
AcDbDictionary
280
0
281
1
  0
ACDBDICTIONARYWDFLT
  5
E
102
{ACAD_REACTORS
330
C
102
}
100
AcDbDictionary
281
1
  3
Normal
350
F
100
AcDbDictionaryWithDefault
340
F
  0
DICTIONARY
  5
17
102
{ACAD_REACTORS
330
C
102
}
100
AcDbDictionary
280
0
281
1
  3
Standard
350
18
  0
DICTIONARY
  5
19
102
{ACAD_REACTORS
330
C
102
}
100
AcDbDictionary
281
1
  0
DICTIONARY
  5
1A
102
{ACAD_REACTORS
330
C
102
}
100
AcDbDictionary
281
1
  3
Model
350
2E1
  3
Layout1
350
2E2
  0
ACDBPLACEHOLDER
  5
F
102
{ACAD_REACTORS
330
E
102
}
  0
MLINESTYLE
  5
18
102
{ACAD_REACTORS
330
17
102
}
100
AcDbMlineStyle
  2
STANDARD
 70
0
  3

 62
256
 51
90.0
 52
90.0
 71
2
 49
0.5
 62
256
  6
BYLAYER
 49
-0.5
 62
256
  6
BYLAYER
  0
LAYOUT
  5
2E1
102
{ACAD_REACTORS
330
1A
102
}
100
AcDbPlotSettings
  1

  2
none_device
  4

  6

 40
0.0
 41
0.0
 42
0.0
 43
0.0
 44
210.0
 45
297.0
 46
0.0
 47
0.0
 48
0.0
 49
0.0
140
0.0
141
0.0
142
1.0
143
1.0
 70
1024
 72
1
 73
0
 74
0
  7

 75
0
147
1.0
148
0.0
149
0.0
100
AcDbLayout
  1
Model
 70
0
 71
0
 10
0.0
 20
0.0
 11
210.0
 21
297.0
 12
0.0
 22
0.0
 32
0.0
 14
0.0
 24
0.0
 34
0.0
 15
0.0
 25
0.0
 35
0.0
146
0.0
 13
0.0
 23
0.0
 33
0.0
 16
1.0
 26
0.0
 36
0.0
 17
0.0
 27
1.0
 37
0.0
 76
0
330
210
345
0
346
0
  0
LAYOUT
  5
2E2
102
{ACAD_REACTORS
330
1A
102
}
100
AcDbPlotSettings
  1

  2
none_device
  4

  6

 40
0.0
 41
0.0
 42
0.0
 43
0.0
 44
210.0
 45
297.0
 46
0.0
 47
0.0
 48
0.0
 49
0.0
140
0.0
141
0.0
142
1.0
143
1.0
 70
0
 72
1
 73
0
 74
0
  7

 75
0
147
1.0
148
0.0
149
0.0
100
AcDbLayout
  1
Layout1
 70
0
 71
1
 10
0.0
 20
0.0
 11
210.0
 21
297.0
 12
0.0
 22
0.0
 32
0.0
 14
0.0
 24
0.0
 34
0.0
 15
0.0
 25
0.0
 35
0.0
146
0.0
 13
0.0
 23
0.0
 33
0.0
 16
1.0
 26
0.0
 36
0.0
 17
0.0
 27
1.0
 37
0.0
 76
0
330
211
345
0
346
0
  0
ENDSEC
  0
EOF
