999
DXF file: C:\Users\sesa63760\Dev\_Creo\CAD\MCADPP0003519_3D-CAD\drw0001_5.dxf
999
Pro/ENGINEER 2019471 by Parametric Technology Corporation
  0
SECTION
  2
HEADER
  9
$ACADVER
  1
AC1024
  9
$DWGCODEPAGE
  3
ANSI_1252
  9
$EXTMAX
 10
75.5133029643
 20
106.7973856209
 30
0.0
  9
$EXTMIN
 10
0.0
 20
0.0
 30
0.0
  9
$LIMMIN
 10
0.0
 20
0.0
  9
$LIMMAX
 10
75.5133029643
 20
106.7973856209
  9
$VIEWCTR
 10
37.7566514821
 20
53.3986928105
  9
$VIEWSIZE
 40
106.7973856209
  9
$CLAYER
  8
0
  9
$LTSCALE
 40
6.961607359
  9
$CELTYPE
  6
BYLAYER
  9
$DIMSCALE
 40
1.0
  9
$DIMASZ
 40
0.8989678924
  9
$DIMEXO
 40
1.0
  9
$DIMDLI
 40
4.8098378117
  9
$DIMEXE
 40
1.0
  9
$DIMCEN
 40
1.1391721133
  9
$DIMLFAC
 40
1.0
  9
$DIMBLK
  1
_FILLED
  9
$DIMALT
 70
0
  9
$DIMALTF
 40
0.0393700787
  9
$DIMTXT
 40
1.2585550494
  9
$DIMTOL
 70
1
  9
$DIMLIM
 70
0
  9
$DIMTFAC
 40
1.0
  9
$DIMTP
 40
0.01
  9
$DIMTM
 40
0.01
  9
$DIMGAP
 40
0.625
  9
$DIMDSEP
 70
46
  9
$AUNITS
 70
0
  9
$PDMODE
 70
3
  9
$PDSIZE
 40
0.3125
  9
$HANDSEED
  5
24A
  9
$TILEMODE
 70
1
  9
$MEASUREMENT
 70
1
  9
$INSUNITS
 70
4
  0
ENDSEC
  0
SECTION
  2
CLASSES
  0
CLASS
  1
ACDBDICTIONARYWDFLT
  2
AcDbDictionaryWithDefault
  3
AutoCAD 2000
 90
0
 91
1
280
0
281
0
  0
CLASS
  1
ACDBPLACEHOLDER
  2
AcDbPlaceHolder
  3
AutoCAD 2000
 90
0
 91
1
280
0
281
0
  0
CLASS
  1
LAYOUT
  2
AcDbLayout
  3
AutoCAD 2000
 90
0
 91
0
280
0
281
0
  0
ENDSEC
  0
SECTION
  2
TABLES
  0
TABLE
  2
VPORT
  5
8
100
AcDbSymbolTable
 70
2
  0
VPORT
  5
1F4
100
AcDbSymbolTableRecord
100
AcDbViewportTableRecord
  2
*ACTIVE
 70
0
 10
0.0
 20
0.0
 11
1.0
 21
1.0
 12
37.7566514821
 22
53.3986928105
 13
0.0
 23
0.0
 14
1.0
 24
1.0
 15
0.0
 25
0.0
 16
0.0
 26
0.0
 36
1.0
 17
0.0
 27
0.0
 37
0.0
 40
106.7973856209
 41
0.7070707071
 42
50.0
 43
0.0
 44
0.0
 50
0.0
 51
0.0
 71
0
 72
100
 73
1
 74
1
 75
0
 76
0
 77
0
 78
0
  0
ENDTAB
  0
TABLE
  2
LTYPE
  5
5
100
AcDbSymbolTable
 70
6
  0
LTYPE
  5
14
100
AcDbSymbolTableRecord
100
AcDbLinetypeTableRecord
  2
BYBLOCK
 70
0
  3

 72
65
 73
0
 40
0.0
  0
LTYPE
  5
15
100
AcDbSymbolTableRecord
100
AcDbLinetypeTableRecord
  2
BYLAYER
 70
0
  3

 72
65
 73
0
 40
0.0
  0
LTYPE
  5
16
100
AcDbSymbolTableRecord
100
AcDbLinetypeTableRecord
  2
CONTINUOUS
 70
64
  3
Solid line
 72
65
 73
0
 40
0.0
  0
LTYPE
  5
1F5
100
AcDbSymbolTableRecord
100
AcDbLinetypeTableRecord
  2
CENTER
 70
64
  3
____ _ ____ _ ____ _ ____ _ ____ _ ____ _ ____
 72
65
 73
4
 40
0.6
 49
0.375
 74
0
 49
-0.075
 74
0
 49
0.075
 74
0
 49
-0.075
 74
0
  0
LTYPE
  5
1F6
100
AcDbSymbolTableRecord
100
AcDbLinetypeTableRecord
  2
HIDDEN
 70
64
  3
- - - - - - - - - - - - - - - - - - - -
 72
65
 73
2
 40
0.2
 49
0.1
 74
0
 49
-0.1
 74
0
  0
LTYPE
  5
1F7
100
AcDbSymbolTableRecord
100
AcDbLinetypeTableRecord
  2
PHANTOM
 70
64
  3
_____ _ _ _____ _ _ _____ _ _ _____
 72
65
 73
6
 40
0.8
 49
0.45
 74
0
 49
-0.05
 74
0
 49
0.1
 74
0
 49
-0.05
 74
0
 49
0.1
 74
0
 49
-0.05
 74
0
  0
LTYPE
  5
1F8
100
AcDbSymbolTableRecord
100
AcDbLinetypeTableRecord
  2
DOT
 70
64
  3
. . . . . . . . . . . . . . . . . . . .
 72
65
 73
2
 40
0.2
 49
0.1
 74
0
 49
-0.1
 74
0
  0
LTYPE
  5
1F9
100
AcDbSymbolTableRecord
100
AcDbLinetypeTableRecord
  2
DASHED
 70
64
  3
- - - - - - - - - - - - - - - - - - - -
 72
65
 73
2
 40
0.2
 49
0.1
 74
0
 49
-0.1
 74
0
  0
ENDTAB
  0
TABLE
  2
LAYER
  5
2
100
AcDbSymbolTable
 70
36
  0
LAYER
  5
10
100
AcDbSymbolTableRecord
100
AcDbLayerTableRecord
  2
0
 70
0
 62
7
  6
CONTINUOUS
370
-3
390
F
  0
LAYER
  5
1FA
100
AcDbSymbolTableRecord
100
AcDbLayerTableRecord
  2
DEFAULT_1
 70
0
 62
7
  6
CENTER
370
-3
390
F
  0
LAYER
  5
1FB
100
AcDbSymbolTableRecord
100
AcDbLayerTableRecord
  2
DEFAULT_2
 70
0
 62
8
  6
HIDDEN
370
-3
390
F
  0
LAYER
  5
1FC
100
AcDbSymbolTableRecord
100
AcDbLayerTableRecord
  2
DEFAULT_3
 70
0
 62
7
  6
PHANTOM
370
-3
390
F
  0
LAYER
  5
1FD
100
AcDbSymbolTableRecord
100
AcDbLayerTableRecord
  2
00_COMPONENTS
 70
0
 62
7
  6
CONTINUOUS
370
-3
390
F
  0
LAYER
  5
1FE
100
AcDbSymbolTableRecord
100
AcDbLayerTableRecord
  2
01_1_DEFAULT_DATUMS
 70
0
 62
7
  6
CONTINUOUS
370
-3
390
F
  0
LAYER
  5
1FF
100
AcDbSymbolTableRecord
100
AcDbLayerTableRecord
  2
01_PLANES
 70
0
 62
7
  6
CONTINUOUS
370
-3
390
F
  0
LAYER
  5
200
100
AcDbSymbolTableRecord
100
AcDbLayerTableRecord
  2
02_COORD_SYS
 70
0
 62
7
  6
CONTINUOUS
370
-3
390
F
  0
LAYER
  5
201
100
AcDbSymbolTableRecord
100
AcDbLayerTableRecord
  2
03_AXES
 70
0
 62
7
  6
CONTINUOUS
370
-3
390
F
  0
LAYER
  5
202
100
AcDbSymbolTableRecord
100
AcDbLayerTableRecord
  2
04_POINTS
 70
0
 62
7
  6
CONTINUOUS
370
-3
390
F
  0
LAYER
  5
203
100
AcDbSymbolTableRecord
100
AcDbLayerTableRecord
  2
05_CURVES
 70
0
 62
7
  6
CONTINUOUS
370
-3
390
F
  0
LAYER
  5
204
100
AcDbSymbolTableRecord
100
AcDbLayerTableRecord
  2
06_SURFS
 70
0
 62
7
  6
CONTINUOUS
370
-3
390
F
  0
LAYER
  5
205
100
AcDbSymbolTableRecord
100
AcDbLayerTableRecord
  2
07_COSMETICS
 70
0
 62
7
  6
CONTINUOUS
370
-3
390
F
  0
LAYER
  5
206
100
AcDbSymbolTableRecord
100
AcDbLayerTableRecord
  2
10_NOTES
 70
0
 62
7
  6
CONTINUOUS
370
-3
390
F
  0
LAYER
  5
207
100
AcDbSymbolTableRecord
100
AcDbLayerTableRecord
  2
11_NOTES_PUB
 70
0
 62
7
  6
CONTINUOUS
370
-3
390
F
  0
LAYER
  5
208
100
AcDbSymbolTableRecord
100
AcDbLayerTableRecord
  2
13_REF_GTOL
 70
0
 62
7
  6
CONTINUOUS
370
-3
390
F
  0
LAYER
  5
209
100
AcDbSymbolTableRecord
100
AcDbLayerTableRecord
  2
16_MISC
 70
0
 62
7
  6
CONTINUOUS
370
-3
390
F
  0
LAYER
  5
20A
100
AcDbSymbolTableRecord
100
AcDbLayerTableRecord
  2
17_NO_PRINT
 70
0
 62
7
  6
CONTINUOUS
370
-3
390
F
  0
LAYER
  5
20B
100
AcDbSymbolTableRecord
100
AcDbLayerTableRecord
  2
18_DATUM_CAMS_JOINTS
 70
0
 62
7
  6
CONTINUOUS
370
-3
390
F
  0
LAYER
  5
20C
100
AcDbSymbolTableRecord
100
AcDbLayerTableRecord
  2
19_DATUM_FUNCTIONAL
 70
0
 62
7
  6
CONTINUOUS
370
-3
390
F
  0
LAYER
  5
20D
100
AcDbSymbolTableRecord
100
AcDbLayerTableRecord
  2
20_DATUM_KINEMATIC_SCHEME
 70
0
 62
7
  6
CONTINUOUS
370
-3
390
F
  0
ENDTAB
  0
TABLE
  2
STYLE
  5
3
100
AcDbSymbolTable
 70
1
  0
STYLE
  5
11
100
AcDbSymbolTableRecord
100
AcDbTextStyleTableRecord
  2
STANDARD
 70
0
 40
0.0
 41
0.8
 50
0.0
 71
0
 42
0.2
  3
txt
  4

  0
STYLE
  5
20E
100
AcDbSymbolTableRecord
100
AcDbTextStyleTableRecord
  2
TEXTSTYLE_1
 70
0
 40
0.0
 41
0.8
 50
0.0
 71
0
 42
0.2
  3
gdt
  4

  0
ENDTAB
  0
TABLE
  2
VIEW
  5
6
100
AcDbSymbolTable
 70
0
  0
ENDTAB
  0
TABLE
  2
UCS
  5
7
100
AcDbSymbolTable
 70
0
  0
ENDTAB
  0
TABLE
  2
APPID
  5
9
100
AcDbSymbolTable
 70
1
  0
APPID
  5
20F
100
AcDbSymbolTableRecord
100
AcDbRegAppTableRecord
  2
ACAD
 70
0
  0
ENDTAB
  0
TABLE
  2
BLOCK_RECORD
  5
1
100
AcDbSymbolTable
 70
0
  0
BLOCK_RECORD
  5
210
100
AcDbSymbolTableRecord
100
AcDbBlockTableRecord
  2
*Model_Space
  0
BLOCK_RECORD
  5
211
100
AcDbSymbolTableRecord
100
AcDbBlockTableRecord
  2
*Paper_Space
  0
BLOCK_RECORD
  5
212
100
AcDbSymbolTableRecord
100
AcDbBlockTableRecord
  2
_FILLED
  0
ENDTAB
  0
TABLE
  2
DIMSTYLE
  5
A
100
AcDbSymbolTable
 70
1
100
AcDbDimStyleTable
 71
0
  0
DIMSTYLE
105
213
100
AcDbSymbolTableRecord
100
AcDbDimStyleTableRecord
  2
STANDARD
 70
0
  3

  4

 40
1.0
 41
0.8989678924
 42
1.0
 43
0.38
 44
1.0
 45
0.0
 46
0.0
 47
0.01
 48
0.01
140
1.2585550494
141
0.09
142
0.0
143
25.4
144
1.0
145
0.0
146
1.0
147
0.625
 71
1
 72
0
 73
0
 74
0
 75
0
 76
0
 77
1
 78
8
 79
2
170
0
171
1
172
0
173
0
174
0
175
0
176
0
177
0
178
0
270
2
179
2
271
2
272
2
273
2
274
2
275
0
280
0
281
0
282
0
283
1
284
8
285
0
286
0
287
3
288
0
340
11
278
46
341
212
342
212
343
212
344
212
  0
ENDTAB
  0
ENDSEC
  0
SECTION
  2
BLOCKS
  0
BLOCK
  5
20
100
AcDbEntity
  8
0
100
AcDbBlockBegin
  2
*Model_Space
 70
0
 10
0.0
 20
0.0
 30
0.0
  3
*Model_Space
  1

  0
ENDBLK
  5
21
100
AcDbEntity
  8
0
100
AcDbBlockEnd
  0
BLOCK
  5
1C
100
AcDbEntity
  8
0
100
AcDbBlockBegin
  2
*Paper_Space
 70
0
 10
0.0
 20
0.0
 30
0.0
  3
*Paper_Space
  1

  0
ENDBLK
  5
1D
100
AcDbEntity
  8
0
100
AcDbBlockEnd
  0
BLOCK
  5
214
100
AcDbEntity
  8
0
100
AcDbBlockBegin
  2
_FILLED
 70
64
 10
0.0
 20
0.0
  3
_FILLED
  1

  0
SOLID
  5
215
100
AcDbEntity
  8
0
  6
BYBLOCK
 62
0
100
AcDbTrace
 10
0.0
 20
0.0
 11
-1.0
 21
0.25
 12
-1.0
 22
-0.25
 13
-1.0
 23
-0.25
  0
ENDBLK
  5
216
100
AcDbEntity
  8
0
  6
BYBLOCK
 62
0
100
AcDbBlockEnd
  0
ENDSEC
  0
SECTION
  2
ENTITIES
  0
LINE
  5
217
100
AcDbEntity
  8
0
100
AcDbLine
 62
7
  6
CONTINUOUS
 10
37.3274031161
 20
10.9294117647
 11
40.2774031161
 21
10.9294117647
  0
LINE
  5
218
100
AcDbEntity
  8
0
100
AcDbLine
 62
7
  6
CONTINUOUS
 10
35.8274031161
 20
12.4294117647
 11
41.7774031161
 21
12.4294117647
  0
LINE
  5
219
100
AcDbEntity
  8
0
100
AcDbLine
 62
7
  6
CONTINUOUS
 10
37.3274031161
 20
10.9294117647
 11
35.8274031161
 21
12.4294117647
  0
LINE
  5
21A
100
AcDbEntity
  8
0
100
AcDbLine
 62
7
  6
CONTINUOUS
 10
8.8024031161
 20
55.3294117647
 11
8.8024031161
 21
51.0294117647
  0
LINE
  5
21B
100
AcDbEntity
  8
0
100
AcDbLine
 62
7
  6
CONTINUOUS
 10
27.8026903059
 20
23.6294117647
 11
49.8021159263
 21
23.6294117647
  0
LINE
  5
21C
100
AcDbEntity
  8
0
100
AcDbLine
 62
7
  6
CONTINUOUS
 10
11.8024031161
 20
56.3294117647
 11
11.8024031161
 21
51.0294117647
  0
LINE
  5
21D
100
AcDbEntity
  8
0
100
AcDbLine
 62
7
  6
CONTINUOUS
 10
16.3024031161
 20
56.3294117647
 11
16.3024031161
 21
94.1294117647
  0
LINE
  5
21E
100
AcDbEntity
  8
0
100
AcDbLine
 62
7
  6
CONTINUOUS
 10
16.7348758764
 20
78.3294117625
 11
16.7348758764
 21
94.1294117647
  0
LINE
  5
21F
100
AcDbEntity
  8
0
100
AcDbLine
 62
7
  6
CONTINUOUS
 10
18.5524031161
 20
41.5294117647
 11
18.5524031161
 21
46.0294117647
  0
LINE
  5
220
100
AcDbEntity
  8
0
100
AcDbLine
 62
7
  6
CONTINUOUS
 10
18.6964338532
 20
96.1294117647
 11
18.6964338532
 21
78.3294117647
  0
LINE
  5
221
100
AcDbEntity
  8
0
100
AcDbLine
 62
7
  6
CONTINUOUS
 10
20.9024031161
 20
41.5294117647
 11
20.9024031161
 21
35.0294117647
  0
LINE
  5
222
100
AcDbEntity
  8
0
100
AcDbLine
 62
7
  6
CONTINUOUS
 10
20.9024031161
 20
35.0294117647
 11
56.7024031161
 21
35.0294117647
  0
LINE
  5
223
100
AcDbEntity
  8
0
100
AcDbLine
 62
7
  6
CONTINUOUS
 10
27.8024031161
 20
51.0294117647
 11
27.8024031161
 21
46.0294117647
  0
LINE
  5
224
100
AcDbEntity
  8
0
100
AcDbLine
 62
7
  6
CONTINUOUS
 10
27.8024031161
 20
35.0294117647
 11
27.8024031161
 21
23.6294117647
  0
LINE
  5
225
100
AcDbEntity
  8
0
100
AcDbLine
 62
7
  6
CONTINUOUS
 10
18.552571946
 20
41.5294117647
 11
59.0522342863
 21
41.5294117647
  0
LINE
  5
226
100
AcDbEntity
  8
0
100
AcDbLine
 62
7
  6
CONTINUOUS
 10
59.0522342863
 20
46.0294117647
 11
18.552571946
 21
46.0294117647
  0
LINE
  5
227
100
AcDbEntity
  8
0
100
AcDbLine
 62
7
  6
CONTINUOUS
 10
35.8274031161
 20
12.4294117647
 11
35.8274031161
 21
23.6294117647
  0
LINE
  5
228
100
AcDbEntity
  8
0
100
AcDbLine
 62
7
  6
CONTINUOUS
 10
8.8024031161
 20
51.0294117647
 11
68.8024031161
 21
51.0294117647
  0
LINE
  5
229
100
AcDbEntity
  8
0
100
AcDbLine
 62
7
  6
CONTINUOUS
 10
41.7774031161
 20
12.4294117647
 11
41.7774031161
 21
23.6294117647
  0
LINE
  5
22A
100
AcDbEntity
  8
0
100
AcDbLine
 62
7
  6
CONTINUOUS
 10
68.8024031161
 20
55.3294117647
 11
8.8024031161
 21
55.3294117647
  0
LINE
  5
22B
100
AcDbEntity
  8
0
100
AcDbLine
 62
7
  6
CONTINUOUS
 10
9.8024031161
 20
56.3294117647
 11
67.8024031161
 21
56.3294117647
  0
LINE
  5
22C
100
AcDbEntity
  8
0
100
AcDbLine
 62
7
  6
CONTINUOUS
 10
49.5702538378
 20
64.3294117647
 11
28.0345523945
 21
64.3294117647
  0
LINE
  5
22D
100
AcDbEntity
  8
0
100
AcDbLine
 62
7
  6
CONTINUOUS
 10
49.8024031161
 20
51.0294117647
 11
49.8024031161
 21
46.0294117647
  0
LINE
  5
22E
100
AcDbEntity
  8
0
100
AcDbLine
 62
7
  6
CONTINUOUS
 10
49.8024031161
 20
35.0294117647
 11
49.8024031161
 21
23.6294117647
  0
LINE
  5
22F
100
AcDbEntity
  8
0
100
AcDbLine
 62
7
  6
CONTINUOUS
 10
48.6131115513
 20
66.3294117647
 11
28.991694681
 21
66.3294117647
  0
LINE
  5
230
100
AcDbEntity
  8
0
100
AcDbLine
 62
7
  6
CONTINUOUS
 10
56.7024031161
 20
41.5294117647
 11
56.7024031161
 21
35.0294117647
  0
LINE
  5
231
100
AcDbEntity
  8
0
100
AcDbLine
 62
7
  6
CONTINUOUS
 10
58.908372379
 20
78.3294117647
 11
58.908372379
 21
96.1294117647
  0
LINE
  5
232
100
AcDbEntity
  8
0
100
AcDbLine
 62
7
  6
CONTINUOUS
 10
59.0524031161
 20
41.5294117647
 11
59.0524031161
 21
46.0294117647
  0
LINE
  5
233
100
AcDbEntity
  8
0
100
AcDbLine
 62
7
  6
CONTINUOUS
 10
60.8699303559
 20
94.1294117647
 11
60.8699303559
 21
78.3294117647
  0
LINE
  5
234
100
AcDbEntity
  8
0
100
AcDbLine
 62
7
  6
CONTINUOUS
 10
61.3024031161
 20
56.3294117647
 11
61.3024031161
 21
94.1294117647
  0
LINE
  5
235
100
AcDbEntity
  8
0
100
AcDbLine
 62
7
  6
CONTINUOUS
 10
65.8024031161
 20
51.0294117647
 11
65.8024031161
 21
56.3294117647
  0
LINE
  5
236
100
AcDbEntity
  8
0
100
AcDbLine
 62
7
  6
CONTINUOUS
 10
16.7348758764
 20
78.3294117625
 11
60.8699303559
 21
78.3294117647
  0
LINE
  5
237
100
AcDbEntity
  8
0
100
AcDbLine
 62
7
  6
CONTINUOUS
 10
68.8024031161
 20
55.3294117647
 11
68.8024031161
 21
51.0294117647
  0
LINE
  5
238
100
AcDbEntity
  8
0
100
AcDbLine
 62
7
  6
CONTINUOUS
 10
40.2774031161
 20
10.9294117647
 11
41.7774031161
 21
12.4294117647
  0
LINE
  5
239
100
AcDbEntity
  8
0
100
AcDbLine
 62
7
  6
CONTINUOUS
 10
61.3024031161
 20
94.1294117647
 11
16.3024031161
 21
94.1294117647
  0
LINE
  5
23A
100
AcDbEntity
  8
0
100
AcDbLine
 62
7
  6
CONTINUOUS
 10
18.3024046259
 20
96.1294117647
 11
59.3023909888
 21
96.1294117647
  0
ARC
  5
23B
100
AcDbEntity
  8
0
100
AcDbCircle
 62
7
  6
CONTINUOUS
 10
59.3024031161
 20
94.1294117647
 40
2.0
100
AcDbArc
 50
0.0
 51
90.0
  0
ARC
  5
23C
100
AcDbEntity
  8
0
100
AcDbCircle
 62
7
  6
CONTINUOUS
 10
18.3024031161
 20
94.1294117647
 40
2.0
100
AcDbArc
 50
90.0
 51
180.0
  0
ARC
  5
23D
100
AcDbEntity
  8
0
100
AcDbCircle
 62
7
  6
CONTINUOUS
 10
18.6974269476
 20
94.1968448265
 40
1.9325671934
100
AcDbArc
 50
90.029442762
 51
101.3308451038
  0
ARC
  5
23E
100
AcDbEntity
  8
0
100
AcDbCircle
 62
7
  6
CONTINUOUS
 10
67.8024031161
 20
55.3294117647
 40
1.0
100
AcDbArc
 50
0.0
 51
90.0
  0
ARC
  5
23F
100
AcDbEntity
  8
0
100
AcDbCircle
 62
7
  6
CONTINUOUS
 10
9.8024031161
 20
55.3294117647
 40
1.0
100
AcDbArc
 50
90.0
 51
180.0
  0
SPLINE
  5
240
100
AcDbEntity
  8
0
100
AcDbSpline
 62
7
  6
CONTINUOUS
 70
0
 71
3
 72
25
 73
21
 74
0
 42
0.0000001
 43
0.0000001
 44
0.0000000001
 40
0.0
 40
0.0
 40
0.0
 40
0.0
 40
0.0679498845
 40
0.132702328
 40
0.19397966
 40
0.2517209867
 40
0.3061552157
 40
0.3579826391
 40
0.4084658526
 40
0.4337604747
 40
0.4593888869
 40
0.5125004513
 40
0.5694052503
 40
0.5995987469
 40
0.6310261753
 40
0.6975550612
 40
0.7686659842
 40
0.8435362787
 40
0.9210930189
 40
1.0
 40
1.0
 40
1.0
 40
1.0
 10
28.0345523945
 20
64.3294117647
 30
0.0
 10
27.5482968732
 20
64.3294118464
 30
0.0
 10
26.5985571194
 20
64.3413804959
 30
0.0
 10
25.2118405264
 20
64.4150166602
 30
0.0
 10
23.9039685392
 20
64.5623356447
 30
0.0
 10
22.6843630153
 20
64.8030020663
 30
0.0
 10
21.5624156344
 20
65.1581964128
 30
0.0
 10
20.5488971564
 20
65.649614047
 30
0.0
 10
19.8046199953
 20
66.188389187
 30
0.0
 10
19.2826801161
 20
66.6939357469
 30
0.0
 10
18.7982230288
 20
67.2605409975
 30
0.0
 10
18.2723046552
 20
68.082666622
 30
0.0
 10
17.8709635597
 20
69.0059233459
 30
0.0
 10
17.6047066799
 20
69.8115522331
 30
0.0
 10
17.3650117791
 20
70.6971626077
 30
0.0
 10
17.1323212723
 20
71.8859301423
 30
0.0
 10
16.9413819463
 20
73.3953736909
 30
0.0
 10
16.8178375325
 20
74.990729376
 30
0.0
 10
16.7494274774
 20
76.64501534
 30
0.0
 10
16.7348759003
 20
77.7647462689
 30
0.0
 10
16.7348758764
 20
78.3294117647
 30
0.0
  0
SPLINE
  5
241
100
AcDbEntity
  8
0
100
AcDbSpline
 62
7
  6
CONTINUOUS
 70
0
 71
3
 72
23
 73
19
 74
0
 42
0.0000001
 43
0.0000001
 44
0.0000000001
 40
0.0
 40
0.0
 40
0.0
 40
0.0
 40
0.0704442349
 40
0.1377327823
 40
0.2015408925
 40
0.2616861423
 40
0.3182903656
 40
0.3719179774
 40
0.423718069
 40
0.4753625234
 40
0.5286966199
 40
0.5852083353
 40
0.6457785875
 40
0.7105611841
 40
0.779204886
 40
0.8509750304
 40
0.9249341071
 40
1.0
 40
1.0
 40
1.0
 40
1.0
 10
28.9916938119
 20
66.3294117647
 30
0.0
 10
28.5478661379
 20
66.3294121929
 30
0.0
 10
27.6800008398
 20
66.339604678
 30
0.0
 10
26.4113738047
 20
66.4033878777
 30
0.0
 10
25.2123772512
 20
66.5310097163
 30
0.0
 10
24.0926356304
 20
66.7406952623
 30
0.0
 10
23.0624082785
 20
67.051584441
 30
0.0
 10
22.1319779234
 20
67.4819786062
 30
0.0
 10
21.3151783027
 20
68.0506109936
 30
0.0
 10
20.6215139353
 20
68.7624753334
 30
0.0
 10
20.059093957
 20
69.616765447
 30
0.0
 10
19.617556789
 20
70.5994882695
 30
0.0
 10
19.2853939311
 20
71.6985756316
 30
0.0
 10
19.0437841738
 20
72.8980209431
 30
0.0
 10
18.8762715083
 20
74.1806899334
 30
0.0
 10
18.769002097
 20
75.5274584225
 30
0.0
 10
18.7086766371
 20
76.9174812098
 30
0.0
 10
18.6964323045
 20
77.856465743
 30
0.0
 10
18.6964317961
 20
78.3294117647
 30
0.0
  0
SPLINE
  5
242
100
AcDbEntity
  8
0
100
AcDbSpline
 62
7
  6
CONTINUOUS
 70
0
 71
3
 72
23
 73
19
 74
0
 42
0.0000001
 43
0.0000001
 44
0.0000000001
 40
0.0
 40
0.0
 40
0.0
 40
0.0
 40
0.0750652757
 40
0.1490248599
 40
0.2207910529
 40
0.2894285693
 40
0.3542061022
 40
0.4147728206
 40
0.4712820466
 40
0.5246134244
 40
0.576253935
 40
0.6280512167
 40
0.6816800768
 40
0.7382895416
 40
0.7984431639
 40
0.8622601143
 40
0.9295547808
 40
1.0
 40
1.0
 40
1.0
 40
1.0
 10
58.908373454
 20
78.3294117647
 30
0.0
 10
58.9083725569
 20
77.8564696132
 30
0.0
 10
58.8961262228
 20
76.9174857837
 30
0.0
 10
58.8358053116
 20
75.5274884036
 30
0.0
 10
58.7285436087
 20
74.1807800794
 30
0.0
 10
58.5610473457
 20
72.8982057344
 30
0.0
 10
58.319476548
 20
71.6988481849
 30
0.0
 10
57.9873685996
 20
70.5998178127
 30
0.0
 10
57.5458989504
 20
69.61712636
 30
0.0
 10
56.9835781544
 20
68.7628431656
 30
0.0
 10
56.2900336034
 20
68.0509466543
 30
0.0
 10
55.4733151744
 20
67.4822568817
 30
0.0
 10
54.542899601
 20
67.0517740637
 30
0.0
 10
53.5126015407
 20
66.7407889482
 30
0.0
 10
52.3927249979
 20
66.5310478158
 30
0.0
 10
51.1935834063
 20
66.4033967093
 30
0.0
 10
49.9248559763
 20
66.3396051461
 30
0.0
 10
49.0569458984
 20
66.3294123483
 30
0.0
 10
48.6131120054
 20
66.3294117647
 30
0.0
  0
SPLINE
  5
243
100
AcDbEntity
  8
0
100
AcDbSpline
 62
7
  6
CONTINUOUS
 70
0
 71
3
 72
13
 73
9
 74
0
 42
0.0000001
 43
0.0000001
 44
0.0000000001
 40
0.0
 40
0.0
 40
0.0
 40
0.0
 40
0.2514748564
 40
0.5018711015
 40
0.6269602792
 40
0.7516299971
 40
0.8759095653
 40
1.0
 40
1.0
 40
1.0
 40
1.0
 10
16.7348758764
 20
94.1294117647
 30
0.0
 10
16.7348758764
 20
94.3575817676
 30
0.0
 10
16.8124372563
 20
94.8165100838
 30
0.0
 10
17.0948443292
 20
95.3236183876
 30
0.0
 10
17.4102897245
 20
95.6525183207
 30
0.0
 10
17.6851160565
 20
95.8546476871
 30
0.0
 10
17.9897922105
 20
96.0057517333
 30
0.0
 10
18.2073305786
 20
96.0696281085
 30
0.0
 10
18.317727686
 20
96.091744409
 30
0.0
  0
SPLINE
  5
244
100
AcDbEntity
  8
0
100
AcDbSpline
 62
7
  6
CONTINUOUS
 70
0
 71
3
 72
15
 73
11
 74
0
 42
0.0000001
 43
0.0000001
 44
0.0000000001
 40
0.0
 40
0.0
 40
0.0
 40
0.0
 40
0.1237699196
 40
0.2478164987
 40
0.372120138
 40
0.4968915594
 40
0.6221366016
 40
0.7477876326
 40
0.873852131
 40
1.0
 40
1.0
 40
1.0
 40
1.0
 10
58.908372379
 20
96.1294117647
 30
0.0
 10
59.0365342435
 20
96.1294117657
 30
0.0
 10
59.2938696261
 20
96.1035171656
 30
0.0
 10
59.6643242135
 20
95.9889195619
 30
0.0
 10
60.0057512032
 20
95.8026397112
 30
0.0
 10
60.3048819992
 20
95.5522207368
 30
0.0
 10
60.5501902446
 20
95.247129983
 30
0.0
 10
60.7325222639
 20
94.8991837948
 30
0.0
 10
60.84462039
 20
94.5218845131
 30
0.0
 10
60.8699303559
 20
94.2600359596
 30
0.0
 10
60.8699303559
 20
94.1294117647
 30
0.0
  0
SPLINE
  5
245
100
AcDbEntity
  8
0
100
AcDbSpline
 62
7
  6
CONTINUOUS
 70
0
 71
3
 72
23
 73
19
 74
0
 42
0.0000001
 43
0.0000001
 44
0.0000000001
 40
0.0
 40
0.0
 40
0.0
 40
0.0
 40
0.0789235018
 40
0.1564630446
 40
0.2313299192
 40
0.3024232837
 40
0.3689454467
 40
0.4305376317
 40
0.4874262773
 40
0.5405249116
 40
0.5913759932
 40
0.6418466508
 40
0.6936748985
 40
0.7481229075
 40
0.8058885494
 40
0.8672055502
 40
0.9319958561
 40
1.0
 40
1.0
 40
1.0
 40
1.0
 10
60.8699303559
 20
78.3294117647
 30
0.0
 10
60.8699302923
 20
77.7646710773
 30
0.0
 10
60.8553912714
 20
76.6450305186
 30
0.0
 10
60.7868720709
 20
74.9908997107
 30
0.0
 10
60.6634993825
 20
73.3959506398
 30
0.0
 10
60.4726181195
 20
71.886736972
 30
0.0
 10
60.1985981422
 20
70.4863933597
 30
0.0
 10
59.8243700924
 20
69.2139600025
 30
0.0
 10
59.3331084972
 20
68.0843725142
 30
0.0
 10
58.7108449327
 20
67.1094222941
 30
0.0
 10
57.9511579577
 20
66.2978141016
 30
0.0
 10
57.0586278181
 20
65.6511242578
 30
0.0
 10
56.0452108988
 20
65.1593508566
 30
0.0
 10
54.9232458165
 20
64.8037065773
 30
0.0
 10
53.703221371
 20
64.5626769564
 30
0.0
 10
52.3947363361
 20
64.4151898326
 30
0.0
 10
51.0071873635
 20
64.3414203525
 30
0.0
 10
50.0568605656
 20
64.3294118249
 30
0.0
 10
49.5702538378
 20
64.3294117647
 30
0.0
  0
SPLINE
  5
246
100
AcDbEntity
  8
0
100
AcDbSpline
 62
7
  6
CONTINUOUS
 70
0
 71
3
 72
16
 73
12
 74
0
 42
0.0000001
 43
0.0000001
 44
0.0000000001
 40
0.0
 40
0.0
 40
0.0
 40
0.0
 40
0.1524452916
 40
0.3094003269
 40
0.4636896009
 40
0.6071369628
 40
0.7329765406
 40
0.7885286524
 40
0.8389819665
 40
0.9257758533
 40
1.0
 40
1.0
 40
1.0
 40
1.0
 10
49.5702539359
 20
64.3294117647
 30
0.0
 10
49.5702539358
 20
64.4509544109
 30
0.0
 10
49.5593955371
 20
64.6977532754
 30
0.0
 10
49.5099979562
 20
65.0647198659
 30
0.0
 10
49.4232841878
 20
65.4175084762
 30
0.0
 10
49.303917368
 20
65.7344835881
 30
0.0
 10
49.17393764
 20
65.9604185954
 30
0.0
 10
49.0572713262
 20
66.1043182908
 30
0.0
 10
48.9466804764
 20
66.2114688716
 30
0.0
 10
48.8014926634
 20
66.30295704
 30
0.0
 10
48.6722895837
 20
66.3294117647
 30
0.0
 10
48.6131116379
 20
66.3294117647
 30
0.0
  0
SPLINE
  5
247
100
AcDbEntity
  8
0
100
AcDbSpline
 62
7
  6
CONTINUOUS
 70
0
 71
3
 72
16
 73
12
 74
0
 42
0.0000001
 43
0.0000001
 44
0.0000000001
 40
0.0
 40
0.0
 40
0.0
 40
0.0
 40
0.0742241428
 40
0.161018026
 40
0.2114713369
 40
0.2670234476
 40
0.3928630245
 40
0.536310385
 40
0.690599662
 40
0.8475547023
 40
1.0
 40
1.0
 40
1.0
 40
1.0
 10
28.9916946817
 20
66.3294117647
 30
0.0
 10
28.9325167392
 20
66.3294117679
 30
0.0
 10
28.8033136664
 20
66.3029570383
 30
0.0
 10
28.6581258585
 20
66.2114688822
 30
0.0
 10
28.5475350092
 20
66.1043183097
 30
0.0
 10
28.4308687008
 20
65.9604186158
 30
0.0
 10
28.3008889708
 20
65.7344836141
 30
0.0
 10
28.1815221465
 20
65.4175085037
 30
0.0
 10
28.0948083788
 20
65.0647198887
 30
0.0
 10
28.0454107937
 20
64.6977532884
 30
0.0
 10
28.0345523954
 20
64.4509544155
 30
0.0
 10
28.0345523954
 20
64.3294117647
 30
0.0
  0
ENDSEC
  0
SECTION
  2
OBJECTS
  0
DICTIONARY
  5
C
100
AcDbDictionary
280
0
281
1
  3
ACAD_GROUP
350
D
  3
ACAD_MLINESTYLE
350
17
  3
ACAD_LAYOUT
350
1A
  3
ACAD_PLOTSETTINGS
350
19
  3
ACAD_PLOTSTYLENAME
350
E
  0
DICTIONARY
  5
D
102
{ACAD_REACTORS
330
C
102
}
100
AcDbDictionary
280
0
281
1
  0
ACDBDICTIONARYWDFLT
  5
E
102
{ACAD_REACTORS
330
C
102
}
100
AcDbDictionary
281
1
  3
Normal
350
F
100
AcDbDictionaryWithDefault
340
F
  0
DICTIONARY
  5
17
102
{ACAD_REACTORS
330
C
102
}
100
AcDbDictionary
280
0
281
1
  3
Standard
350
18
  0
DICTIONARY
  5
19
102
{ACAD_REACTORS
330
C
102
}
100
AcDbDictionary
281
1
  0
DICTIONARY
  5
1A
102
{ACAD_REACTORS
330
C
102
}
100
AcDbDictionary
281
1
  3
Model
350
248
  3
Layout1
350
249
  0
ACDBPLACEHOLDER
  5
F
102
{ACAD_REACTORS
330
E
102
}
  0
MLINESTYLE
  5
18
102
{ACAD_REACTORS
330
17
102
}
100
AcDbMlineStyle
  2
STANDARD
 70
0
  3

 62
256
 51
90.0
 52
90.0
 71
2
 49
0.5
 62
256
  6
BYLAYER
 49
-0.5
 62
256
  6
BYLAYER
  0
LAYOUT
  5
248
102
{ACAD_REACTORS
330
1A
102
}
100
AcDbPlotSettings
  1

  2
none_device
  4

  6

 40
0.0
 41
0.0
 42
0.0
 43
0.0
 44
210.0
 45
297.0
 46
0.0
 47
0.0
 48
0.0
 49
0.0
140
0.0
141
0.0
142
1.0
143
1.0
 70
1024
 72
1
 73
0
 74
0
  7

 75
0
147
1.0
148
0.0
149
0.0
100
AcDbLayout
  1
Model
 70
0
 71
0
 10
0.0
 20
0.0
 11
210.0
 21
297.0
 12
0.0
 22
0.0
 32
0.0
 14
0.0
 24
0.0
 34
0.0
 15
0.0
 25
0.0
 35
0.0
146
0.0
 13
0.0
 23
0.0
 33
0.0
 16
1.0
 26
0.0
 36
0.0
 17
0.0
 27
1.0
 37
0.0
 76
0
330
210
345
0
346
0
  0
LAYOUT
  5
249
102
{ACAD_REACTORS
330
1A
102
}
100
AcDbPlotSettings
  1

  2
none_device
  4

  6

 40
0.0
 41
0.0
 42
0.0
 43
0.0
 44
210.0
 45
297.0
 46
0.0
 47
0.0
 48
0.0
 49
0.0
140
0.0
141
0.0
142
1.0
143
1.0
 70
0
 72
1
 73
0
 74
0
  7

 75
0
147
1.0
148
0.0
149
0.0
100
AcDbLayout
  1
Layout1
 70
0
 71
1
 10
0.0
 20
0.0
 11
210.0
 21
297.0
 12
0.0
 22
0.0
 32
0.0
 14
0.0
 24
0.0
 34
0.0
 15
0.0
 25
0.0
 35
0.0
146
0.0
 13
0.0
 23
0.0
 33
0.0
 16
1.0
 26
0.0
 36
0.0
 17
0.0
 27
1.0
 37
0.0
 76
0
330
211
345
0
346
0
  0
ENDSEC
  0
EOF
