999
DXF file: C:\Users\sesa63760\Dev\_Creo\CAD\MCADPD0004432_3D-CAD\drw0001_7.dxf
999
Pro/ENGINEER 2019471 by Parametric Technology Corporation
  0
SECTION
  2
HEADER
  9
$ACADVER
  1
AC1024
  9
$DWGCODEPAGE
  3
ANSI_1252
  9
$EXTMAX
 10
263.9363437438
 20
373.2814004376
 30
0.0
  9
$EXTMIN
 10
0.0
 20
0.0
 30
0.0
  9
$LIMMIN
 10
0.0
 20
0.0
  9
$LIMMAX
 10
263.9363437438
 20
373.2814004376
  9
$VIEWCTR
 10
131.9681718719
 20
186.6407002188
  9
$VIEWSIZE
 40
373.2814004376
  9
$CLAYER
  8
0
  9
$LTSCALE
 40
24.3324172137
  9
$CELTYPE
  6
BYLAYER
  9
$DIMSCALE
 40
1.0
  9
$DIMASZ
 40
3.1420993303
  9
$DIMEXO
 40
1.0
  9
$DIMDLI
 40
16.8114882567
  9
$DIMEXE
 40
1.0
  9
$DIMCEN
 40
3.9816682713
  9
$DIMLFAC
 40
1.0
  9
$DIMBLK
  1
_FILLED
  9
$DIMALT
 70
0
  9
$DIMALTF
 40
0.0393700787
  9
$DIMTXT
 40
4.3989390624
  9
$DIMTOL
 70
1
  9
$DIMLIM
 70
0
  9
$DIMTFAC
 40
1.0
  9
$DIMTP
 40
0.01
  9
$DIMTM
 40
0.01
  9
$DIMGAP
 40
0.625
  9
$DIMDSEP
 70
46
  9
$AUNITS
 70
0
  9
$PDMODE
 70
3
  9
$PDSIZE
 40
0.3125
  9
$HANDSEED
  5
5A3
  9
$TILEMODE
 70
1
  9
$MEASUREMENT
 70
1
  9
$INSUNITS
 70
4
  0
ENDSEC
  0
SECTION
  2
CLASSES
  0
CLASS
  1
ACDBDICTIONARYWDFLT
  2
AcDbDictionaryWithDefault
  3
AutoCAD 2000
 90
0
 91
1
280
0
281
0
  0
CLASS
  1
ACDBPLACEHOLDER
  2
AcDbPlaceHolder
  3
AutoCAD 2000
 90
0
 91
1
280
0
281
0
  0
CLASS
  1
LAYOUT
  2
AcDbLayout
  3
AutoCAD 2000
 90
0
 91
0
280
0
281
0
  0
ENDSEC
  0
SECTION
  2
TABLES
  0
TABLE
  2
VPORT
  5
8
100
AcDbSymbolTable
 70
2
  0
VPORT
  5
1F4
100
AcDbSymbolTableRecord
100
AcDbViewportTableRecord
  2
*ACTIVE
 70
0
 10
0.0
 20
0.0
 11
1.0
 21
1.0
 12
131.9681718719
 22
186.6407002188
 13
0.0
 23
0.0
 14
1.0
 24
1.0
 15
0.0
 25
0.0
 16
0.0
 26
0.0
 36
1.0
 17
0.0
 27
0.0
 37
0.0
 40
373.2814004376
 41
0.7070707071
 42
50.0
 43
0.0
 44
0.0
 50
0.0
 51
0.0
 71
0
 72
100
 73
1
 74
1
 75
0
 76
0
 77
0
 78
0
  0
ENDTAB
  0
TABLE
  2
LTYPE
  5
5
100
AcDbSymbolTable
 70
6
  0
LTYPE
  5
14
100
AcDbSymbolTableRecord
100
AcDbLinetypeTableRecord
  2
BYBLOCK
 70
0
  3

 72
65
 73
0
 40
0.0
  0
LTYPE
  5
15
100
AcDbSymbolTableRecord
100
AcDbLinetypeTableRecord
  2
BYLAYER
 70
0
  3

 72
65
 73
0
 40
0.0
  0
LTYPE
  5
16
100
AcDbSymbolTableRecord
100
AcDbLinetypeTableRecord
  2
CONTINUOUS
 70
64
  3
Solid line
 72
65
 73
0
 40
0.0
  0
LTYPE
  5
1F5
100
AcDbSymbolTableRecord
100
AcDbLinetypeTableRecord
  2
CENTER
 70
64
  3
____ _ ____ _ ____ _ ____ _ ____ _ ____ _ ____
 72
65
 73
4
 40
0.6
 49
0.375
 74
0
 49
-0.075
 74
0
 49
0.075
 74
0
 49
-0.075
 74
0
  0
LTYPE
  5
1F6
100
AcDbSymbolTableRecord
100
AcDbLinetypeTableRecord
  2
HIDDEN
 70
64
  3
- - - - - - - - - - - - - - - - - - - -
 72
65
 73
2
 40
0.2
 49
0.1
 74
0
 49
-0.1
 74
0
  0
LTYPE
  5
1F7
100
AcDbSymbolTableRecord
100
AcDbLinetypeTableRecord
  2
PHANTOM
 70
64
  3
_____ _ _ _____ _ _ _____ _ _ _____
 72
65
 73
6
 40
0.8
 49
0.45
 74
0
 49
-0.05
 74
0
 49
0.1
 74
0
 49
-0.05
 74
0
 49
0.1
 74
0
 49
-0.05
 74
0
  0
LTYPE
  5
1F8
100
AcDbSymbolTableRecord
100
AcDbLinetypeTableRecord
  2
DOT
 70
64
  3
. . . . . . . . . . . . . . . . . . . .
 72
65
 73
2
 40
0.2
 49
0.1
 74
0
 49
-0.1
 74
0
  0
LTYPE
  5
1F9
100
AcDbSymbolTableRecord
100
AcDbLinetypeTableRecord
  2
DASHED
 70
64
  3
- - - - - - - - - - - - - - - - - - - -
 72
65
 73
2
 40
0.2
 49
0.1
 74
0
 49
-0.1
 74
0
  0
ENDTAB
  0
TABLE
  2
LAYER
  5
2
100
AcDbSymbolTable
 70
36
  0
LAYER
  5
10
100
AcDbSymbolTableRecord
100
AcDbLayerTableRecord
  2
0
 70
0
 62
7
  6
CONTINUOUS
370
-3
390
F
  0
LAYER
  5
1FA
100
AcDbSymbolTableRecord
100
AcDbLayerTableRecord
  2
DEFAULT_1
 70
0
 62
7
  6
CENTER
370
-3
390
F
  0
LAYER
  5
1FB
100
AcDbSymbolTableRecord
100
AcDbLayerTableRecord
  2
DEFAULT_2
 70
0
 62
7
  6
HIDDEN
370
-3
390
F
  0
LAYER
  5
1FC
100
AcDbSymbolTableRecord
100
AcDbLayerTableRecord
  2
DEFAULT_3
 70
0
 62
7
  6
PHANTOM
370
-3
390
F
  0
LAYER
  5
1FD
100
AcDbSymbolTableRecord
100
AcDbLayerTableRecord
  2
00_COMPONENTS
 70
0
 62
7
  6
CONTINUOUS
370
-3
390
F
  0
LAYER
  5
1FE
100
AcDbSymbolTableRecord
100
AcDbLayerTableRecord
  2
01_1_DEFAULT_DATUMS
 70
0
 62
7
  6
CONTINUOUS
370
-3
390
F
  0
LAYER
  5
1FF
100
AcDbSymbolTableRecord
100
AcDbLayerTableRecord
  2
01_PLANES
 70
0
 62
7
  6
CONTINUOUS
370
-3
390
F
  0
LAYER
  5
200
100
AcDbSymbolTableRecord
100
AcDbLayerTableRecord
  2
02_COORD_SYS
 70
0
 62
7
  6
CONTINUOUS
370
-3
390
F
  0
LAYER
  5
201
100
AcDbSymbolTableRecord
100
AcDbLayerTableRecord
  2
03_AXES
 70
0
 62
7
  6
CONTINUOUS
370
-3
390
F
  0
LAYER
  5
202
100
AcDbSymbolTableRecord
100
AcDbLayerTableRecord
  2
04_POINTS
 70
0
 62
7
  6
CONTINUOUS
370
-3
390
F
  0
LAYER
  5
203
100
AcDbSymbolTableRecord
100
AcDbLayerTableRecord
  2
05_CURVES
 70
0
 62
7
  6
CONTINUOUS
370
-3
390
F
  0
LAYER
  5
204
100
AcDbSymbolTableRecord
100
AcDbLayerTableRecord
  2
06_SURFS
 70
0
 62
7
  6
CONTINUOUS
370
-3
390
F
  0
LAYER
  5
205
100
AcDbSymbolTableRecord
100
AcDbLayerTableRecord
  2
07_COSMETICS
 70
0
 62
7
  6
CONTINUOUS
370
-3
390
F
  0
LAYER
  5
206
100
AcDbSymbolTableRecord
100
AcDbLayerTableRecord
  2
10_NOTES
 70
0
 62
7
  6
CONTINUOUS
370
-3
390
F
  0
LAYER
  5
207
100
AcDbSymbolTableRecord
100
AcDbLayerTableRecord
  2
11_NOTES_PUB
 70
0
 62
7
  6
CONTINUOUS
370
-3
390
F
  0
LAYER
  5
208
100
AcDbSymbolTableRecord
100
AcDbLayerTableRecord
  2
13_REF_GTOL
 70
0
 62
7
  6
CONTINUOUS
370
-3
390
F
  0
LAYER
  5
209
100
AcDbSymbolTableRecord
100
AcDbLayerTableRecord
  2
16_MISC
 70
0
 62
7
  6
CONTINUOUS
370
-3
390
F
  0
LAYER
  5
20A
100
AcDbSymbolTableRecord
100
AcDbLayerTableRecord
  2
17_NO_PRINT
 70
0
 62
7
  6
CONTINUOUS
370
-3
390
F
  0
LAYER
  5
20B
100
AcDbSymbolTableRecord
100
AcDbLayerTableRecord
  2
18_DATUM_CAMS_JOINTS
 70
0
 62
7
  6
CONTINUOUS
370
-3
390
F
  0
LAYER
  5
20C
100
AcDbSymbolTableRecord
100
AcDbLayerTableRecord
  2
19_DATUM_FUNCTIONAL
 70
0
 62
7
  6
CONTINUOUS
370
-3
390
F
  0
LAYER
  5
20D
100
AcDbSymbolTableRecord
100
AcDbLayerTableRecord
  2
20_DATUM_KINEMATIC_SCHEME
 70
0
 62
7
  6
CONTINUOUS
370
-3
390
F
  0
ENDTAB
  0
TABLE
  2
STYLE
  5
3
100
AcDbSymbolTable
 70
1
  0
STYLE
  5
11
100
AcDbSymbolTableRecord
100
AcDbTextStyleTableRecord
  2
STANDARD
 70
0
 40
0.0
 41
1.0
 50
0.0
 71
0
 42
0.2
  3
ARIAL.TTF
  4

  0
STYLE
  5
20E
100
AcDbSymbolTableRecord
100
AcDbTextStyleTableRecord
  2
TEXTSTYLE_1
 70
0
 40
0.0
 41
0.8
 50
0.0
 71
0
 42
0.2
  3
gdt
  4

  0
ENDTAB
  0
TABLE
  2
VIEW
  5
6
100
AcDbSymbolTable
 70
0
  0
ENDTAB
  0
TABLE
  2
UCS
  5
7
100
AcDbSymbolTable
 70
0
  0
ENDTAB
  0
TABLE
  2
APPID
  5
9
100
AcDbSymbolTable
 70
1
  0
APPID
  5
20F
100
AcDbSymbolTableRecord
100
AcDbRegAppTableRecord
  2
ACAD
 70
0
  0
ENDTAB
  0
TABLE
  2
BLOCK_RECORD
  5
1
100
AcDbSymbolTable
 70
0
  0
BLOCK_RECORD
  5
210
100
AcDbSymbolTableRecord
100
AcDbBlockTableRecord
  2
*Model_Space
  0
BLOCK_RECORD
  5
211
100
AcDbSymbolTableRecord
100
AcDbBlockTableRecord
  2
*Paper_Space
  0
BLOCK_RECORD
  5
212
100
AcDbSymbolTableRecord
100
AcDbBlockTableRecord
  2
_FILLED
  0
ENDTAB
  0
TABLE
  2
DIMSTYLE
  5
A
100
AcDbSymbolTable
 70
1
100
AcDbDimStyleTable
 71
0
  0
DIMSTYLE
105
213
100
AcDbSymbolTableRecord
100
AcDbDimStyleTableRecord
  2
STANDARD
 70
0
  3

  4

 40
1.0
 41
3.1420993303
 42
1.0
 43
0.38
 44
1.0
 45
0.0
 46
0.0
 47
0.01
 48
0.01
140
4.3989390624
141
0.09
142
0.0
143
25.4
144
1.0
145
0.0
146
1.0
147
0.625
 71
1
 72
0
 73
0
 74
0
 75
0
 76
0
 77
1
 78
8
 79
2
170
0
171
1
172
0
173
0
174
0
175
0
176
0
177
0
178
0
270
2
179
2
271
2
272
2
273
2
274
2
275
0
280
0
281
0
282
0
283
1
284
8
285
0
286
0
287
3
288
0
340
11
278
46
341
212
342
212
343
212
344
212
  0
ENDTAB
  0
ENDSEC
  0
SECTION
  2
BLOCKS
  0
BLOCK
  5
20
100
AcDbEntity
  8
0
100
AcDbBlockBegin
  2
*Model_Space
 70
0
 10
0.0
 20
0.0
 30
0.0
  3
*Model_Space
  1

  0
ENDBLK
  5
21
100
AcDbEntity
  8
0
100
AcDbBlockEnd
  0
BLOCK
  5
1C
100
AcDbEntity
  8
0
100
AcDbBlockBegin
  2
*Paper_Space
 70
0
 10
0.0
 20
0.0
 30
0.0
  3
*Paper_Space
  1

  0
ENDBLK
  5
1D
100
AcDbEntity
  8
0
100
AcDbBlockEnd
  0
BLOCK
  5
214
100
AcDbEntity
  8
0
100
AcDbBlockBegin
  2
_FILLED
 70
64
 10
0.0
 20
0.0
  3
_FILLED
  1

  0
SOLID
  5
215
100
AcDbEntity
  8
0
  6
BYBLOCK
 62
0
100
AcDbTrace
 10
0.0
 20
0.0
 11
-1.0
 21
0.25
 12
-1.0
 22
-0.25
 13
-1.0
 23
-0.25
  0
ENDBLK
  5
216
100
AcDbEntity
  8
0
  6
BYBLOCK
 62
0
100
AcDbBlockEnd
  0
ENDSEC
  0
SECTION
  2
ENTITIES
  0
LINE
  5
217
100
AcDbEntity
  8
0
100
AcDbLine
 62
7
  6
BYLAYER
 10
142.5949517201
 20
74.8228456496
 11
144.6628626904
 21
74.9974333911
  0
LINE
  5
218
100
AcDbEntity
  8
0
100
AcDbLine
 62
7
  6
BYLAYER
 10
140.3723135012
 20
74.6448749485
 11
142.5852199232
 21
74.8220446222
  0
LINE
  5
219
100
AcDbEntity
  8
0
100
AcDbLine
 62
7
  6
BYLAYER
 10
137.9185905174
 20
74.459977769
 11
140.3880280573
 21
74.646099026
  0
LWPOLYLINE
  5
21A
100
AcDbEntity
  8
0
100
AcDbPolyline
 62
7
  6
BYLAYER
 90
3
 70
0
 10
133.6375353197
 20
74.1664756524
 10
134.1858275833
 20
74.2019715551
 10
137.9343660107
 20
74.461126952
  0
LINE
  5
21B
100
AcDbEntity
  8
0
100
AcDbLine
 62
7
  6
BYLAYER
 10
180.4750646509
 20
75.0715803626
 11
158.6750646509
 21
75.0715803626
  0
LWPOLYLINE
  5
21C
100
AcDbEntity
  8
0
100
AcDbPolyline
 62
7
  6
BYLAYER
 90
3
 70
0
 10
98.2838111401
 20
73.1482081507
 10
100.4967354189
 20
73.1385364796
 10
102.5786812199
 20
73.1384211696
  0
LINE
  5
21D
100
AcDbEntity
  8
0
100
AcDbLine
 62
7
  6
BYLAYER
 10
95.8316338236
 20
73.1703644805
 11
98.2996750136
 21
73.1481046831
  0
LINE
  5
21E
100
AcDbEntity
  8
0
100
AcDbLine
 62
7
  6
BYLAYER
 10
92.0992977133
 20
73.2271725364
 11
95.8474817263
 21
73.1701819706
  0
LINE
  5
21F
100
AcDbEntity
  8
0
100
AcDbLine
 62
7
  6
BYLAYER
 10
91.5534156049
 20
73.2378575481
 11
92.1021643434
 21
73.2271201701
  0
LINE
  5
220
100
AcDbEntity
  8
0
100
AcDbLine
 62
7
  6
BYLAYER
 10
102.5770653674
 20
73.1384025051
 11
102.075233235
 21
73.2722209843
  0
LINE
  5
221
100
AcDbEntity
  8
0
100
AcDbLine
 62
7
  6
BYLAYER
 10
28.0250646509
 20
223.4715803626
 11
28.0250646509
 21
174.1215803626
  0
LINE
  5
222
100
AcDbEntity
  8
0
100
AcDbLine
 62
7
  6
BYLAYER
 10
29.0250646509
 20
179.7715803625
 11
29.0250646509
 21
174.1215803626
  0
LINE
  5
223
100
AcDbEntity
  8
0
100
AcDbLine
 62
7
  6
BYLAYER
 10
30.0250646509
 20
225.4715803626
 11
30.0250646509
 21
180.7715803907
  0
LINE
  5
224
100
AcDbEntity
  8
0
100
AcDbLine
 62
7
  6
BYLAYER
 10
187.5750646509
 20
76.1715803626
 11
156.5750653547
 21
76.1715803626
  0
LINE
  5
225
100
AcDbEntity
  8
0
100
AcDbLine
 62
7
  6
BYLAYER
 10
48.5750646509
 20
77.9656865567
 11
46.5750646509
 21
77.9656865567
  0
LINE
  5
226
100
AcDbEntity
  8
0
100
AcDbLine
 62
7
  6
BYLAYER
 10
189.5750646509
 20
78.1715803626
 11
156.4646022901
 21
78.1715803626
  0
LINE
  5
227
100
AcDbEntity
  8
0
100
AcDbLine
 62
7
  6
BYLAYER
 10
46.5750646509
 20
81.6715803626
 11
189.5750646509
 21
81.6715803626
  0
LWPOLYLINE
  5
228
100
AcDbEntity
  8
0
100
AcDbPolyline
 62
7
  6
BYLAYER
 90
4
 70
0
 10
144.6612318221
 20
74.9972907428
 10
144.1245880507
 20
75.1007028446
 10
143.7239913258
 20
75.468303395
 10
143.5749511777
 20
75.9935255626
  0
LWPOLYLINE
  5
229
100
AcDbEntity
  8
0
100
AcDbPolyline
 62
7
  6
BYLAYER
 90
3
 70
0
 10
102.0752144357
 20
73.2722248296
 10
101.7093603055
 20
73.6376382208
 10
101.5749522586
 20
74.1383750449
  0
LWPOLYLINE
  5
22A
100
AcDbEntity
  8
0
100
AcDbPolyline
 62
7
  6
BYLAYER
 90
7
 70
0
 10
28.0251544534
 20
180.7716449289
 10
28.0663632355
 20
180.4881617257
 10
28.1917256954
 20
180.2186935352
 10
28.3953657947
 20
179.9945485595
 10
28.6253316889
 20
179.8548433593
 10
28.833561476
 20
179.7900851083
 10
29.0144060245
 20
179.7716761651
  0
LWPOLYLINE
  5
22B
100
AcDbEntity
  8
0
100
AcDbPolyline
 62
7
  6
BYLAYER
 90
12
 70
0
 10
28.0251241221
 20
180.7715821297
 10
28.0525803501
 20
180.5420532573
 10
28.1156663916
 20
180.3539875139
 10
28.205031028
 20
180.1991986436
 10
28.3041863581
 20
180.0779713102
 10
28.4097185679
 20
179.9830881211
 10
28.5083797534
 20
179.9154044153
 10
28.6147747584
 20
179.8595194083
 10
28.7205671029
 20
179.819049193
 10
28.8032829341
 20
179.7964813087
 10
28.8916210142
 20
179.7805155357
 10
28.9720682636
 20
179.7729936347
  0
LINE
  5
22C
100
AcDbEntity
  8
0
100
AcDbLine
 62
7
  6
BYLAYER
 10
33.2750646509
 20
174.1215803626
 11
33.2750646509
 21
180.1215803626
  0
LINE
  5
22D
100
AcDbEntity
  8
0
100
AcDbLine
 62
7
  6
BYLAYER
 10
33.5250646509
 20
291.2715803626
 11
33.5250646509
 21
226.4715803626
  0
LINE
  5
22E
100
AcDbEntity
  8
0
100
AcDbLine
 62
7
  6
BYLAYER
 10
34.3250646509
 20
301.9715803626
 11
34.3250646509
 21
291.9715803626
  0
LINE
  5
22F
100
AcDbEntity
  8
0
100
AcDbLine
 62
7
  6
BYLAYER
 10
34.5250646509
 20
291.2715803626
 11
34.5250646509
 21
225.4715803626
  0
LINE
  5
230
100
AcDbEntity
  8
0
100
AcDbLine
 62
7
  6
BYLAYER
 10
35.9327598055
 20
301.9715803626
 11
35.9327598055
 21
291.9715803626
  0
LINE
  5
231
100
AcDbEntity
  8
0
100
AcDbLine
 62
7
  6
BYLAYER
 10
37.8397832767
 20
301.9715803626
 11
37.8397832767
 21
291.9715803626
  0
LINE
  5
232
100
AcDbEntity
  8
0
100
AcDbLine
 62
7
  6
BYLAYER
 10
38.0250646509
 20
191.2715803626
 11
38.0250646509
 21
182.2715803626
  0
LINE
  5
233
100
AcDbEntity
  8
0
100
AcDbLine
 62
7
  6
BYLAYER
 10
92.064501486
 20
73.3655061136
 11
91.5550271207
 21
73.2378237077
  0
LINE
  5
234
100
AcDbEntity
  8
0
100
AcDbLine
 62
7
  6
BYLAYER
 10
190.4250646509
 20
86.6715803626
 11
184.0750646509
 21
86.6715803626
  0
LINE
  5
235
100
AcDbEntity
  8
0
100
AcDbLine
 62
7
  6
BYLAYER
 10
148.0750646509
 20
86.6715803626
 11
136.0750646509
 21
86.6715803626
  0
LINE
  5
236
100
AcDbEntity
  8
0
100
AcDbLine
 62
7
  6
BYLAYER
 10
100.0750646509
 20
86.6715803626
 11
88.0750646509
 21
86.6715803626
  0
LINE
  5
237
100
AcDbEntity
  8
0
100
AcDbLine
 62
7
  6
BYLAYER
 10
52.0750646509
 20
86.6715803626
 11
45.7250646509
 21
86.6715803626
  0
LINE
  5
238
100
AcDbEntity
  8
0
100
AcDbLine
 62
7
  6
BYLAYER
 10
50.2750646509
 20
156.6715803626
 11
50.3405161593
 21
149.1715803626
  0
LINE
  5
239
100
AcDbEntity
  8
0
100
AcDbLine
 62
7
  6
BYLAYER
 10
50.9260317567
 20
177.5490585337
 11
51.0750646509
 21
160.4715803626
  0
LINE
  5
23A
100
AcDbEntity
  8
0
100
AcDbLine
 62
7
  6
BYLAYER
 10
45.7250646509
 20
160.4715803626
 11
45.7842318532
 21
149.1715803626
  0
LINE
  5
23B
100
AcDbEntity
  8
0
100
AcDbLine
 62
7
  6
BYLAYER
 10
50.7840719307
 20
149.1715803626
 11
50.7249047283
 21
160.4715803631
  0
LINE
  5
23C
100
AcDbEntity
  8
0
100
AcDbLine
 62
7
  6
BYLAYER
 10
41.2750646509
 20
174.1215803626
 11
41.2750646509
 21
180.1215803626
  0
LINE
  5
23D
100
AcDbEntity
  8
0
100
AcDbLine
 62
7
  6
BYLAYER
 10
43.0750646509
 20
301.9715803626
 11
43.0750646509
 21
291.9715803626
  0
LINE
  5
23E
100
AcDbEntity
  8
0
100
AcDbLine
 62
7
  6
BYLAYER
 10
43.5250646509
 20
174.1215803626
 11
43.5250646509
 21
192.7715803626
  0
LINE
  5
23F
100
AcDbEntity
  8
0
100
AcDbLine
 62
7
  6
BYLAYER
 10
43.8103460251
 20
301.9715803626
 11
43.8103460251
 21
291.9715803626
  0
LINE
  5
240
100
AcDbEntity
  8
0
100
AcDbLine
 62
7
  6
BYLAYER
 10
45.7250646509
 20
149.1715803626
 11
45.7250646509
 21
86.6715803626
  0
LINE
  5
241
100
AcDbEntity
  8
0
100
AcDbLine
 62
7
  6
BYLAYER
 10
45.8250646509
 20
291.9715803626
 11
45.8250646509
 21
179.9715747813
  0
LINE
  5
242
100
AcDbEntity
  8
0
100
AcDbLine
 62
7
  6
BYLAYER
 10
46.5750646509
 20
81.6715803626
 11
46.5750646509
 21
77.9656865567
  0
LINE
  5
243
100
AcDbEntity
  8
0
100
AcDbLine
 62
7
  6
BYLAYER
 10
47.3250646509
 20
301.9715803626
 11
47.3250646509
 21
291.9715803626
  0
LINE
  5
244
100
AcDbEntity
  8
0
100
AcDbLine
 62
7
  6
BYLAYER
 10
47.4750646509
 20
179.6715803626
 11
47.4750646509
 21
167.2715803626
  0
LINE
  5
245
100
AcDbEntity
  8
0
100
AcDbLine
 62
7
  6
BYLAYER
 10
48.5750646509
 20
179.6715803626
 11
48.5750646509
 21
172.6715803626
  0
LINE
  5
246
100
AcDbEntity
  8
0
100
AcDbLine
 62
7
  6
BYLAYER
 10
48.5750646509
 20
81.6715803626
 11
48.5750646509
 21
77.9656865718
  0
LINE
  5
247
100
AcDbEntity
  8
0
100
AcDbLine
 62
7
  6
BYLAYER
 10
49.0750646509
 20
179.9715803626
 11
49.0750646509
 21
169.4715803626
  0
LINE
  5
248
100
AcDbEntity
  8
0
100
AcDbLine
 62
7
  6
BYLAYER
 10
50.4750646509
 20
167.2715803626
 11
50.4750646509
 21
169.2715803626
  0
LINE
  5
249
100
AcDbEntity
  8
0
100
AcDbLine
 62
7
  6
BYLAYER
 10
50.7250646509
 20
149.1715803626
 11
50.7250646509
 21
81.6715803626
  0
LINE
  5
24A
100
AcDbEntity
  8
0
100
AcDbLine
 62
7
  6
BYLAYER
 10
50.8250646509
 20
256.5715803626
 11
50.8250646509
 21
273.0715803626
  0
LINE
  5
24B
100
AcDbEntity
  8
0
100
AcDbLine
 62
7
  6
BYLAYER
 10
45.8271672836
 20
179.9715685913
 11
45.7250646509
 21
160.4715803626
  0
LINE
  5
24C
100
AcDbEntity
  8
0
100
AcDbLine
 62
7
  6
BYLAYER
 10
50.7249047283
 20
160.4715803625
 11
50.7994848961
 21
174.7152130401
  0
LINE
  5
24D
100
AcDbEntity
  8
0
100
AcDbLine
 62
7
  6
BYLAYER
 10
56.9757394848
 20
164.2709055287
 11
57.3750646509
 21
160.4715803626
  0
LINE
  5
24E
100
AcDbEntity
  8
0
100
AcDbLine
 62
7
  6
BYLAYER
 10
52.704635079
 20
168.5420099344
 11
52.7750646509
 21
160.4715803626
  0
LINE
  5
24F
100
AcDbEntity
  8
0
100
AcDbLine
 62
7
  6
BYLAYER
 10
57.2075087893
 20
179.6715803626
 11
57.3750646509
 21
160.4715803626
  0
LINE
  5
250
100
AcDbEntity
  8
0
100
AcDbLine
 62
7
  6
BYLAYER
 10
51.5750646509
 20
301.9715803626
 11
51.5750646509
 21
291.9715803626
  0
LINE
  5
251
100
AcDbEntity
  8
0
100
AcDbLine
 62
7
  6
BYLAYER
 10
52.0750646509
 20
149.1715803626
 11
52.0750646509
 21
82.6715803626
  0
LINE
  5
252
100
AcDbEntity
  8
0
100
AcDbLine
 62
7
  6
BYLAYER
 10
53.3776235341
 20
301.9715803626
 11
53.3776235341
 21
291.9715803626
  0
LINE
  5
253
100
AcDbEntity
  8
0
100
AcDbLine
 62
7
  6
BYLAYER
 10
54.0750646509
 20
179.6715803626
 11
54.0750646519
 21
168.4715803626
  0
LINE
  5
254
100
AcDbEntity
  8
0
100
AcDbLine
 62
7
  6
BYLAYER
 10
54.2250646509
 20
273.0715803626
 11
54.2250646509
 21
256.5715803626
  0
LINE
  5
255
100
AcDbEntity
  8
0
100
AcDbLine
 62
7
  6
BYLAYER
 10
56.0750646509
 20
156.6715803626
 11
56.0750646509
 21
154.1716569994
  0
LINE
  5
256
100
AcDbEntity
  8
0
100
AcDbLine
 62
7
  6
BYLAYER
 10
56.8750646509
 20
156.4715803626
 11
56.8750646509
 21
164.4715803626
  0
LINE
  5
257
100
AcDbEntity
  8
0
100
AcDbLine
 62
7
  6
BYLAYER
 10
57.3750646509
 20
168.4715803626
 11
57.3750646509
 21
173.9715803626
  0
LINE
  5
258
100
AcDbEntity
  8
0
100
AcDbLine
 62
7
  6
BYLAYER
 10
57.5750646509
 20
164.4715803626
 11
57.5750646509
 21
156.4715803626
  0
LINE
  5
259
100
AcDbEntity
  8
0
100
AcDbLine
 62
7
  6
BYLAYER
 10
58.0750646509
 20
149.1715803626
 11
58.0750646509
 21
81.6715803626
  0
LINE
  5
25A
100
AcDbEntity
  8
0
100
AcDbLine
 62
7
  6
BYLAYER
 10
58.7750646509
 20
168.4715803626
 11
58.7750646509
 21
173.9715803626
  0
LINE
  5
25B
100
AcDbEntity
  8
0
100
AcDbLine
 62
7
  6
BYLAYER
 10
61.3750647376
 20
172.6715803626
 11
61.3750647166
 21
160.4715803626
  0
LINE
  5
25C
100
AcDbEntity
  8
0
100
AcDbLine
 62
7
  6
BYLAYER
 10
51.0750646509
 20
160.4715803626
 11
50.9764510448
 21
149.1715803626
  0
LINE
  5
25D
100
AcDbEntity
  8
0
100
AcDbLine
 62
7
  6
BYLAYER
 10
53.0750646509
 20
160.4715803626
 11
52.9764510448
 21
149.1715803626
  0
LINE
  5
25E
100
AcDbEntity
  8
0
100
AcDbLine
 62
7
  6
BYLAYER
 10
53.1885139322
 20
156.4715803626
 11
53.1248077973
 21
149.1715803626
  0
LINE
  5
25F
100
AcDbEntity
  8
0
100
AcDbLine
 62
7
  6
BYLAYER
 10
53.2454179631
 20
149.1715803626
 11
53.3091240979
 21
156.4715803626
  0
LINE
  5
260
100
AcDbEntity
  8
0
100
AcDbLine
 62
7
  6
BYLAYER
 10
56.8750646509
 20
164.4715803626
 11
56.7415435737
 21
149.1715803626
  0
LINE
  5
261
100
AcDbEntity
  8
0
100
AcDbLine
 62
7
  6
BYLAYER
 10
56.8750836894
 20
160.4715803625
 11
56.7764700833
 21
149.1715803626
  0
LINE
  5
262
100
AcDbEntity
  8
0
100
AcDbLine
 62
7
  6
BYLAYER
 10
57.1846395428
 20
156.4715803626
 11
57.1209334079
 21
149.1715803626
  0
LINE
  5
263
100
AcDbEntity
  8
0
100
AcDbLine
 62
7
  6
BYLAYER
 10
57.3750646509
 20
164.4715803626
 11
57.2415435737
 21
149.1715803626
  0
LINE
  5
264
100
AcDbEntity
  8
0
100
AcDbLine
 62
7
  6
BYLAYER
 10
57.3750646509
 20
160.4715803626
 11
57.2764510448
 21
149.1715803626
  0
LINE
  5
265
100
AcDbEntity
  8
0
100
AcDbLine
 62
7
  6
BYLAYER
 10
48.5750646509
 20
77.9656865566
 11
48.3622132453
 21
75.9770452418
  0
LINE
  5
266
100
AcDbEntity
  8
0
100
AcDbLine
 62
7
  6
BYLAYER
 10
61.7750646509
 20
175.4715803626
 11
61.7750646509
 21
173.4715803626
  0
LINE
  5
267
100
AcDbEntity
  8
0
100
AcDbLine
 62
7
  6
BYLAYER
 10
61.8250646509
 20
273.0715803626
 11
61.8250646509
 21
256.5715803626
  0
LINE
  5
268
100
AcDbEntity
  8
0
100
AcDbLine
 62
7
  6
BYLAYER
 10
63.7699283796
 20
301.9715803626
 11
63.7699283796
 21
291.9715803626
  0
LINE
  5
269
100
AcDbEntity
  8
0
100
AcDbLine
 62
7
  6
BYLAYER
 10
64.0750646509
 20
168.4715803626
 11
64.0750646509
 21
173.4715803626
  0
LINE
  5
26A
100
AcDbEntity
  8
0
100
AcDbLine
 62
7
  6
BYLAYER
 10
64.1860919051
 20
164.9715803626
 11
64.1860919052
 21
171.4715803626
  0
LINE
  5
26B
100
AcDbEntity
  8
0
100
AcDbLine
 62
7
  6
BYLAYER
 10
64.5750646509
 20
156.4715803626
 11
64.5750646509
 21
160.4715803626
  0
LINE
  5
26C
100
AcDbEntity
  8
0
100
AcDbLine
 62
7
  6
BYLAYER
 10
66.3750646509
 20
256.5715803626
 11
66.3750646509
 21
258.5715803626
  0
LINE
  5
26D
100
AcDbEntity
  8
0
100
AcDbLine
 62
7
  6
BYLAYER
 10
66.3750646509
 20
271.0911064371
 11
66.3750646509
 21
273.0715803626
  0
LINE
  5
26E
100
AcDbEntity
  8
0
100
AcDbLine
 62
7
  6
BYLAYER
 10
66.8250646509
 20
173.4715803626
 11
66.8250646509
 21
171.4715803626
  0
LINE
  5
26F
100
AcDbEntity
  8
0
100
AcDbLine
 62
7
  6
BYLAYER
 10
66.9750646509
 20
160.4715803626
 11
66.9750646509
 21
164.4715803626
  0
LINE
  5
270
100
AcDbEntity
  8
0
100
AcDbLine
 62
7
  6
BYLAYER
 10
67.130578278
 20
164.9715803626
 11
67.130578278
 21
171.4715803626
  0
LINE
  5
271
100
AcDbEntity
  8
0
100
AcDbLine
 62
7
  6
BYLAYER
 10
67.3750646509
 20
168.4715803626
 11
67.3750646509
 21
164.4715803626
  0
LINE
  5
272
100
AcDbEntity
  8
0
100
AcDbLine
 62
7
  6
BYLAYER
 10
67.5750646509
 20
160.4715803626
 11
67.5750646509
 21
164.4715803626
  0
LINE
  5
273
100
AcDbEntity
  8
0
100
AcDbLine
 62
7
  6
BYLAYER
 10
51.9750646509
 20
169.2715803626
 11
57.6276581158
 21
163.6189848989
  0
LINE
  5
274
100
AcDbEntity
  8
0
100
AcDbLine
 62
7
  6
BYLAYER
 10
73.3082261583
 20
164.4715803626
 11
73.0195510238
 21
164.9715803626
  0
LINE
  5
275
100
AcDbEntity
  8
0
100
AcDbLine
 62
7
  6
BYLAYER
 10
80.9703209646
 20
172.4715803626
 11
81.0750646509
 21
168.4715803626
  0
LINE
  5
276
100
AcDbEntity
  8
0
100
AcDbLine
 62
7
  6
BYLAYER
 10
72.5750646509
 20
160.4715803626
 11
72.5750646509
 21
164.4715803626
  0
LINE
  5
277
100
AcDbEntity
  8
0
100
AcDbLine
 62
7
  6
BYLAYER
 10
72.7750646509
 20
168.4715803626
 11
72.7750646509
 21
164.4715803626
  0
LINE
  5
278
100
AcDbEntity
  8
0
100
AcDbLine
 62
7
  6
BYLAYER
 10
73.0195510237
 20
164.9715803626
 11
73.0195510237
 21
171.4715803626
  0
LINE
  5
279
100
AcDbEntity
  8
0
100
AcDbLine
 62
7
  6
BYLAYER
 10
73.1750646509
 20
160.4715803626
 11
73.1750646509
 21
164.4715803626
  0
LINE
  5
27A
100
AcDbEntity
  8
0
100
AcDbLine
 62
7
  6
BYLAYER
 10
73.3250646509
 20
173.4715803626
 11
73.3250646509
 21
171.4715803626
  0
LINE
  5
27B
100
AcDbEntity
  8
0
100
AcDbLine
 62
7
  6
BYLAYER
 10
74.4750646509
 20
259.5715803626
 11
74.4750646509
 21
270.0715803626
  0
LINE
  5
27C
100
AcDbEntity
  8
0
100
AcDbLine
 62
7
  6
BYLAYER
 10
75.5750646509
 20
156.4715803626
 11
75.5750646509
 21
160.4715803626
  0
LINE
  5
27D
100
AcDbEntity
  8
0
100
AcDbLine
 62
7
  6
BYLAYER
 10
75.9640373966
 20
164.9715803626
 11
75.9640373966
 21
171.4715803626
  0
LINE
  5
27E
100
AcDbEntity
  8
0
100
AcDbLine
 62
7
  6
BYLAYER
 10
76.0750646509
 20
168.4715803626
 11
76.0750646509
 21
173.4715803626
  0
LINE
  5
27F
100
AcDbEntity
  8
0
100
AcDbLine
 62
7
  6
BYLAYER
 10
78.3750646509
 20
175.4715803626
 11
78.3750646509
 21
173.4715803626
  0
LINE
  5
280
100
AcDbEntity
  8
0
100
AcDbLine
 62
7
  6
BYLAYER
 10
78.7750645298
 20
172.6715803626
 11
78.7750645592
 21
160.4715803626
  0
LINE
  5
281
100
AcDbEntity
  8
0
100
AcDbLine
 62
7
  6
BYLAYER
 10
79.0750646509
 20
179.6715803626
 11
79.0750646496
 21
168.4715803626
  0
LINE
  5
282
100
AcDbEntity
  8
0
100
AcDbLine
 62
7
  6
BYLAYER
 10
81.3750646509
 20
168.4715803626
 11
81.3750646509
 21
173.9715803626
  0
LINE
  5
283
100
AcDbEntity
  8
0
100
AcDbLine
 62
7
  6
BYLAYER
 10
82.0750646509
 20
149.1715803626
 11
82.0750646509
 21
81.6715803626
  0
LINE
  5
284
100
AcDbEntity
  8
0
100
AcDbLine
 62
7
  6
BYLAYER
 10
78.1798083372
 20
172.4715803626
 11
78.0750646509
 21
168.4715803626
  0
LINE
  5
285
100
AcDbEntity
  8
0
100
AcDbLine
 62
7
  6
BYLAYER
 10
76.5413876658
 20
164.4715803626
 11
75.9640373966
 21
164.9715803626
  0
LINE
  5
286
100
AcDbEntity
  8
0
100
AcDbLine
 62
7
  6
BYLAYER
 10
90.2100326896
 20
182.7151582339
 11
90.4500646509
 21
179.9715803626
  0
LINE
  5
287
100
AcDbEntity
  8
0
100
AcDbLine
 62
7
  6
BYLAYER
 10
82.7750646509
 20
160.4715803626
 11
82.8736782569
 21
149.1715803626
  0
LINE
  5
288
100
AcDbEntity
  8
0
100
AcDbLine
 62
7
  6
BYLAYER
 10
82.7750646509
 20
164.4715803626
 11
82.9085857281
 21
149.1715803626
  0
LINE
  5
289
100
AcDbEntity
  8
0
100
AcDbLine
 62
7
  6
BYLAYER
 10
82.965489759
 20
156.4715803626
 11
83.0291958939
 21
149.1715803626
  0
LINE
  5
28A
100
AcDbEntity
  8
0
100
AcDbLine
 62
7
  6
BYLAYER
 10
83.2750456124
 20
160.4715803625
 11
83.3736592185
 21
149.1715803626
  0
LINE
  5
28B
100
AcDbEntity
  8
0
100
AcDbLine
 62
7
  6
BYLAYER
 10
83.2750646509
 20
164.4715803626
 11
83.4085857281
 21
149.1715803626
  0
LINE
  5
28C
100
AcDbEntity
  8
0
100
AcDbLine
 62
7
  6
BYLAYER
 10
86.5837915187
 20
166.6715803626
 11
86.4703422374
 21
179.6715803626
  0
LINE
  5
28D
100
AcDbEntity
  8
0
100
AcDbLine
 62
7
  6
BYLAYER
 10
86.9047113387
 20
149.1715803626
 11
86.8410052038
 21
156.4715803626
  0
LINE
  5
28E
100
AcDbEntity
  8
0
100
AcDbLine
 62
7
  6
BYLAYER
 10
86.9616153696
 20
156.4715803626
 11
87.0253215045
 21
149.1715803626
  0
LINE
  5
28F
100
AcDbEntity
  8
0
100
AcDbLine
 62
7
  6
BYLAYER
 10
87.0750646509
 20
160.4715803626
 11
87.1736782569
 21
149.1715803626
  0
LINE
  5
290
100
AcDbEntity
  8
0
100
AcDbLine
 62
7
  6
BYLAYER
 10
87.0750646509
 20
179.6715803626
 11
87.1974692659
 21
165.6454007561
  0
LINE
  5
291
100
AcDbEntity
  8
0
100
AcDbLine
 62
7
  6
BYLAYER
 10
87.5750646509
 20
162.6715803626
 11
87.4267078984
 21
179.6715803626
  0
LINE
  5
292
100
AcDbEntity
  8
0
100
AcDbLine
 62
7
  6
BYLAYER
 10
89.0750646222
 20
160.471583649
 11
89.1736782569
 21
149.1715803626
  0
LINE
  5
293
100
AcDbEntity
  8
0
100
AcDbLine
 62
7
  6
BYLAYER
 10
89.5750456124
 20
160.4715803626
 11
89.6736592185
 21
149.1715803626
  0
LINE
  5
294
100
AcDbEntity
  8
0
100
AcDbLine
 62
7
  6
BYLAYER
 10
90.0750646509
 20
156.6715803626
 11
90.0227034441
 21
162.6715803626
  0
LINE
  5
295
100
AcDbEntity
  8
0
100
AcDbLine
 62
7
  6
BYLAYER
 10
90.0749504201
 20
179.6715803626
 11
90.1973550351
 21
165.6454007561
  0
LINE
  5
296
100
AcDbEntity
  8
0
100
AcDbLine
 62
7
  6
BYLAYER
 10
90.8229018088
 20
156.9194175204
 11
90.737795973
 21
166.6715803626
  0
LINE
  5
297
100
AcDbEntity
  8
0
100
AcDbLine
 62
7
  6
BYLAYER
 10
82.5750646509
 20
164.4715803626
 11
82.5750646509
 21
156.4715803626
  0
LINE
  5
298
100
AcDbEntity
  8
0
100
AcDbLine
 62
7
  6
BYLAYER
 10
82.7750646509
 20
168.4715803626
 11
82.7750646509
 21
173.9849734878
  0
LINE
  5
299
100
AcDbEntity
  8
0
100
AcDbLine
 62
7
  6
BYLAYER
 10
83.2750646509
 20
156.4715803626
 11
83.2750646509
 21
164.4715803626
  0
LINE
  5
29A
100
AcDbEntity
  8
0
100
AcDbLine
 62
7
  6
BYLAYER
 10
84.0750646509
 20
181.9715803626
 11
84.0750646509
 21
169.4715803626
  0
LINE
  5
29B
100
AcDbEntity
  8
0
100
AcDbLine
 62
7
  6
BYLAYER
 10
84.0750646509
 20
156.6715803626
 11
84.0750646509
 21
154.1715803549
  0
LINE
  5
29C
100
AcDbEntity
  8
0
100
AcDbLine
 62
7
  6
BYLAYER
 10
85.0750646584
 20
182.4715803626
 11
85.0750646526
 21
179.9715803626
  0
LINE
  5
29D
100
AcDbEntity
  8
0
100
AcDbLine
 62
7
  6
BYLAYER
 10
86.0750646509
 20
179.6715803626
 11
86.0750646509
 21
172.6715803626
  0
LINE
  5
29E
100
AcDbEntity
  8
0
100
AcDbLine
 62
7
  6
BYLAYER
 10
88.0750646509
 20
301.9715803626
 11
88.0750646509
 21
291.9715803626
  0
LINE
  5
29F
100
AcDbEntity
  8
0
100
AcDbLine
 62
7
  6
BYLAYER
 10
88.0750646509
 20
149.1715803626
 11
88.0750646509
 21
82.6715803626
  0
LINE
  5
2A0
100
AcDbEntity
  8
0
100
AcDbLine
 62
7
  6
BYLAYER
 10
89.3250646471
 20
182.4715803626
 11
89.3250646492
 21
179.9715803626
  0
LINE
  5
2A1
100
AcDbEntity
  8
0
100
AcDbLine
 62
7
  6
BYLAYER
 10
89.6750646509
 20
169.2715803626
 11
89.6750646509
 21
167.2715803626
  0
LINE
  5
2A2
100
AcDbEntity
  8
0
100
AcDbLine
 62
7
  6
BYLAYER
 10
90.0750646509
 20
179.6715803626
 11
90.0750646509
 21
172.6715803626
  0
LINE
  5
2A3
100
AcDbEntity
  8
0
100
AcDbLine
 62
7
  6
BYLAYER
 10
90.1973550351
 20
165.6454007561
 11
90.1973550351
 21
162.6715803626
  0
LINE
  5
2A4
100
AcDbEntity
  8
0
100
AcDbLine
 62
7
  6
BYLAYER
 10
90.3250646509
 20
181.9715803626
 11
90.3250646509
 21
179.9715803626
  0
LINE
  5
2A5
100
AcDbEntity
  8
0
100
AcDbLine
 62
7
  6
BYLAYER
 10
90.5750646509
 20
149.1715803626
 11
90.5750646509
 21
156.6715803626
  0
LINE
  5
2A6
100
AcDbEntity
  8
0
100
AcDbLine
 62
7
  6
BYLAYER
 10
90.8750646509
 20
179.9715803626
 11
90.8750646509
 21
171.6715803626
  0
LINE
  5
2A7
100
AcDbEntity
  8
0
100
AcDbLine
 62
7
  6
BYLAYER
 10
92.0750646509
 20
179.6715803626
 11
92.0750646509
 21
172.6715803626
  0
LINE
  5
2A8
100
AcDbEntity
  8
0
100
AcDbLine
 62
7
  6
BYLAYER
 10
89.4115380058
 20
156.6715803626
 11
89.3608130868
 21
149.1715803626
  0
LINE
  5
2A9
100
AcDbEntity
  8
0
100
AcDbLine
 62
7
  6
BYLAYER
 10
82.9426205125
 20
179.6715803626
 11
82.7750646509
 21
160.4715803626
  0
LINE
  5
2AA
100
AcDbEntity
  8
0
100
AcDbLine
 62
7
  6
BYLAYER
 10
86.0707392947
 20
171.1759436303
 11
85.8787101256
 21
149.1715803626
  0
LINE
  5
2AB
100
AcDbEntity
  8
0
100
AcDbLine
 62
7
  6
BYLAYER
 10
87.4454942228
 20
168.5420099344
 11
87.3750646509
 21
160.4715803626
  0
LINE
  5
2AC
100
AcDbEntity
  8
0
100
AcDbLine
 62
7
  6
BYLAYER
 10
88.0576109153
 20
156.6715803626
 11
87.9931930833
 21
149.2900279546
  0
LINE
  5
2AD
100
AcDbEntity
  8
0
100
AcDbLine
 62
7
  6
BYLAYER
 10
89.2157526056
 20
176.595621231
 11
89.0750646479
 21
160.4715803626
  0
LINE
  5
2AE
100
AcDbEntity
  8
0
100
AcDbLine
 62
7
  6
BYLAYER
 10
89.6993480116
 20
174.7152244942
 11
89.5750456124
 21
160.4715803626
  0
LINE
  5
2AF
100
AcDbEntity
  8
0
100
AcDbLine
 62
7
  6
BYLAYER
 10
89.7921594069
 20
149.1715803626
 11
89.8750646509
 21
158.6715803626
  0
LINE
  5
2B0
100
AcDbEntity
  8
0
100
AcDbLine
 62
7
  6
BYLAYER
 10
84.3400966121
 20
182.7151582339
 11
84.0999813408
 21
179.9706281241
  0
LINE
  5
2B1
100
AcDbEntity
  8
0
100
AcDbLine
 62
7
  6
BYLAYER
 10
83.174389817
 20
164.2709055287
 11
82.7750646509
 21
160.4715803626
  0
LINE
  5
2B2
100
AcDbEntity
  8
0
100
AcDbLine
 62
7
  6
BYLAYER
 10
66.8419031434
 20
164.4715803626
 11
67.130578278
 21
164.9715803626
  0
LINE
  5
2B3
100
AcDbEntity
  8
0
100
AcDbLine
 62
7
  6
BYLAYER
 10
178.2750646509
 20
271.0911064371
 11
177.4750646509
 21
270.5715803626
  0
LINE
  5
2B4
100
AcDbEntity
  8
0
100
AcDbLine
 62
7
  6
BYLAYER
 10
95.5750646509
 20
158.6715803626
 11
97.5926720439
 21
156.6539729696
  0
LINE
  5
2B5
100
AcDbEntity
  8
0
100
AcDbLine
 62
7
  6
BYLAYER
 10
104.9757394848
 20
164.2709055287
 11
105.3750646509
 21
160.4715803626
  0
LINE
  5
2B6
100
AcDbEntity
  8
0
100
AcDbLine
 62
7
  6
BYLAYER
 10
97.6579698949
 20
149.1715803626
 11
97.5925755096
 21
156.6650347043
  0
LINE
  5
2B7
100
AcDbEntity
  8
0
100
AcDbLine
 62
7
  6
BYLAYER
 10
98.3579698949
 20
149.1715803626
 11
98.2750646509
 21
158.6715803626
  0
LINE
  5
2B8
100
AcDbEntity
  8
0
100
AcDbLine
 62
7
  6
BYLAYER
 10
98.4507812902
 20
174.7152244946
 11
98.5750836894
 21
160.4715803626
  0
LINE
  5
2B9
100
AcDbEntity
  8
0
100
AcDbLine
 62
7
  6
BYLAYER
 10
100.0925183865
 20
156.6715803626
 11
100.1569362184
 21
149.2900279546
  0
LINE
  5
2BA
100
AcDbEntity
  8
0
100
AcDbLine
 62
7
  6
BYLAYER
 10
100.704635079
 20
168.5420099344
 11
100.7750646509
 21
160.4715803626
  0
LINE
  5
2BB
100
AcDbEntity
  8
0
100
AcDbLine
 62
7
  6
BYLAYER
 10
102.0793900071
 20
171.1759436303
 11
102.2714191762
 21
149.1715803626
  0
LINE
  5
2BC
100
AcDbEntity
  8
0
100
AcDbLine
 62
7
  6
BYLAYER
 10
99.0750646509
 20
160.4715803626
 11
98.9343766808
 21
176.5956232537
  0
LINE
  5
2BD
100
AcDbEntity
  8
0
100
AcDbLine
 62
7
  6
BYLAYER
 10
98.738591296
 20
156.6715803626
 11
98.789316215
 21
149.1715803626
  0
LINE
  5
2BE
100
AcDbEntity
  8
0
100
AcDbLine
 62
7
  6
BYLAYER
 10
92.5750646509
 20
167.6715803626
 11
92.5750646509
 21
158.6715803626
  0
LINE
  5
2BF
100
AcDbEntity
  8
0
100
AcDbLine
 62
7
  6
BYLAYER
 10
92.5750646509
 20
81.6715803626
 11
92.5750646509
 21
74.2375824177
  0
LINE
  5
2C0
100
AcDbEntity
  8
0
100
AcDbLine
 62
7
  6
BYLAYER
 10
92.6750646509
 20
167.2715803626
 11
92.6750646509
 21
179.6715803626
  0
LINE
  5
2C1
100
AcDbEntity
  8
0
100
AcDbLine
 62
7
  6
BYLAYER
 10
93.0250646509
 20
167.1715803626
 11
93.0250646509
 21
158.6715803626
  0
LINE
  5
2C2
100
AcDbEntity
  8
0
100
AcDbLine
 62
7
  6
BYLAYER
 10
95.0141755184
 20
301.9715803626
 11
95.0141755184
 21
291.9715803626
  0
LINE
  5
2C3
100
AcDbEntity
  8
0
100
AcDbLine
 62
7
  6
BYLAYER
 10
95.1250646509
 20
167.1715803626
 11
95.1250646509
 21
158.6715803626
  0
LINE
  5
2C4
100
AcDbEntity
  8
0
100
AcDbLine
 62
7
  6
BYLAYER
 10
95.4750646509
 20
179.6715803626
 11
95.4750646509
 21
167.2715803626
  0
LINE
  5
2C5
100
AcDbEntity
  8
0
100
AcDbLine
 62
7
  6
BYLAYER
 10
95.5750646509
 20
167.6715803626
 11
95.5750646509
 21
158.6715803626
  0
LINE
  5
2C6
100
AcDbEntity
  8
0
100
AcDbLine
 62
7
  6
BYLAYER
 10
96.0750646509
 20
179.6715803626
 11
96.0750646509
 21
172.6715803626
  0
LINE
  5
2C7
100
AcDbEntity
  8
0
100
AcDbLine
 62
7
  6
BYLAYER
 10
96.5750646509
 20
301.9715803626
 11
96.5750646509
 21
291.9715803626
  0
LINE
  5
2C8
100
AcDbEntity
  8
0
100
AcDbLine
 62
7
  6
BYLAYER
 10
97.2750646509
 20
179.9715803626
 11
97.2750646509
 21
171.6715803626
  0
LINE
  5
2C9
100
AcDbEntity
  8
0
100
AcDbLine
 62
7
  6
BYLAYER
 10
97.8250646509
 20
181.9715803626
 11
97.8250646509
 21
179.9715803626
  0
LINE
  5
2CA
100
AcDbEntity
  8
0
100
AcDbLine
 62
7
  6
BYLAYER
 10
97.9527742667
 20
165.6454007561
 11
97.9527742667
 21
162.6715803626
  0
LINE
  5
2CB
100
AcDbEntity
  8
0
100
AcDbLine
 62
7
  6
BYLAYER
 10
98.0750646509
 20
179.6715803626
 11
98.0750646509
 21
172.6715803626
  0
LINE
  5
2CC
100
AcDbEntity
  8
0
100
AcDbLine
 62
7
  6
BYLAYER
 10
98.4750646509
 20
167.2715803626
 11
98.4750646509
 21
169.2715803626
  0
LINE
  5
2CD
100
AcDbEntity
  8
0
100
AcDbLine
 62
7
  6
BYLAYER
 10
98.8250646584
 20
182.4715803626
 11
98.8250646526
 21
179.9715803626
  0
LINE
  5
2CE
100
AcDbEntity
  8
0
100
AcDbLine
 62
7
  6
BYLAYER
 10
100.0750646509
 20
149.1715803626
 11
100.0750646509
 21
82.6715803626
  0
LINE
  5
2CF
100
AcDbEntity
  8
0
100
AcDbLine
 62
7
  6
BYLAYER
 10
101.5750646509
 20
81.6715803626
 11
101.5750646509
 21
74.1383750385
  0
LINE
  5
2D0
100
AcDbEntity
  8
0
100
AcDbLine
 62
7
  6
BYLAYER
 10
102.0750646509
 20
179.6715803626
 11
102.0750646509
 21
172.6715803626
  0
LINE
  5
2D1
100
AcDbEntity
  8
0
100
AcDbLine
 62
7
  6
BYLAYER
 10
97.327227493
 20
156.9194175204
 11
97.4123333288
 21
166.6715803626
  0
LINE
  5
2D2
100
AcDbEntity
  8
0
100
AcDbLine
 62
7
  6
BYLAYER
 10
98.0751788817
 20
179.6715803626
 11
97.9527742667
 21
165.6454007561
  0
LINE
  5
2D3
100
AcDbEntity
  8
0
100
AcDbLine
 62
7
  6
BYLAYER
 10
98.0750646509
 20
156.6715803626
 11
98.1274258576
 21
162.6715803626
  0
LINE
  5
2D4
100
AcDbEntity
  8
0
100
AcDbLine
 62
7
  6
BYLAYER
 10
98.5750836893
 20
160.4715803626
 11
98.4764700833
 21
149.1715803626
  0
LINE
  5
2D5
100
AcDbEntity
  8
0
100
AcDbLine
 62
7
  6
BYLAYER
 10
99.0750646796
 20
160.471583649
 11
98.9764510449
 21
149.1715803626
  0
LINE
  5
2D6
100
AcDbEntity
  8
0
100
AcDbLine
 62
7
  6
BYLAYER
 10
100.5750646509
 20
162.6715803626
 11
100.7234214033
 21
179.6715803626
  0
LINE
  5
2D7
100
AcDbEntity
  8
0
100
AcDbLine
 62
7
  6
BYLAYER
 10
101.0750646509
 20
179.6715803626
 11
100.9526600358
 21
165.6454007561
  0
LINE
  5
2D8
100
AcDbEntity
  8
0
100
AcDbLine
 62
7
  6
BYLAYER
 10
101.0750646509
 20
160.4715803626
 11
100.9764510448
 21
149.1715803626
  0
LINE
  5
2D9
100
AcDbEntity
  8
0
100
AcDbLine
 62
7
  6
BYLAYER
 10
101.1885139322
 20
156.4715803626
 11
101.1248077973
 21
149.1715803626
  0
LINE
  5
2DA
100
AcDbEntity
  8
0
100
AcDbLine
 62
7
  6
BYLAYER
 10
101.2454179631
 20
149.1715803626
 11
101.309124098
 21
156.4715803626
  0
LINE
  5
2DB
100
AcDbEntity
  8
0
100
AcDbLine
 62
7
  6
BYLAYER
 10
101.5663377831
 20
166.6715803626
 11
101.6797870644
 21
179.6715803626
  0
LINE
  5
2DC
100
AcDbEntity
  8
0
100
AcDbLine
 62
7
  6
BYLAYER
 10
190.4250646509
 20
149.1715803626
 11
45.7250646509
 21
149.1715803626
  0
LINE
  5
2DD
100
AcDbEntity
  8
0
100
AcDbLine
 62
7
  6
BYLAYER
 10
50.3328159819
 20
150.0539333037
 11
45.7796118218
 21
150.0539333037
  0
LINE
  5
2DE
100
AcDbEntity
  8
0
100
AcDbLine
 62
7
  6
BYLAYER
 10
185.8173133143
 20
150.0539333038
 11
190.37051748
 21
150.0539333038
  0
LINE
  5
2DF
100
AcDbEntity
  8
0
100
AcDbLine
 62
7
  6
BYLAYER
 10
219.8250646509
 20
154.2215803626
 11
209.8250646509
 21
154.2215803626
  0
LINE
  5
2E0
100
AcDbEntity
  8
0
100
AcDbLine
 62
7
  6
BYLAYER
 10
225.8250646509
 20
155.7215803626
 11
219.8250646509
 21
155.7215803626
  0
LINE
  5
2E1
100
AcDbEntity
  8
0
100
AcDbLine
 62
7
  6
BYLAYER
 10
209.8250646509
 20
155.7215803626
 11
203.8250646509
 21
155.7215803626
  0
LINE
  5
2E2
100
AcDbEntity
  8
0
100
AcDbLine
 62
7
  6
BYLAYER
 10
223.8250646509
 20
156.1215803626
 11
219.5250646509
 21
156.1215803626
  0
LINE
  5
2E3
100
AcDbEntity
  8
0
100
AcDbLine
 62
7
  6
BYLAYER
 10
210.1250646509
 20
156.1215803626
 11
205.8250646509
 21
156.1215803626
  0
LINE
  5
2E4
100
AcDbEntity
  8
0
100
AcDbLine
 62
7
  6
BYLAYER
 10
182.9616153696
 20
156.4715803626
 11
178.8099721221
 21
156.4715803626
  0
LINE
  5
2E5
100
AcDbEntity
  8
0
100
AcDbLine
 62
7
  6
BYLAYER
 10
178.5750646509
 20
156.4715803626
 11
153.5750646509
 21
156.4715803626
  0
LINE
  5
2E6
100
AcDbEntity
  8
0
100
AcDbLine
 62
7
  6
BYLAYER
 10
153.3401571797
 20
156.4715803626
 11
149.1885139322
 21
156.4715803626
  0
LINE
  5
2E7
100
AcDbEntity
  8
0
100
AcDbLine
 62
7
  6
BYLAYER
 10
134.9616153696
 20
156.4715803626
 11
130.809972122
 21
156.4715803626
  0
LINE
  5
2E8
100
AcDbEntity
  8
0
100
AcDbLine
 62
7
  6
BYLAYER
 10
130.5750646509
 20
156.4715803626
 11
105.5750646509
 21
156.4715803626
  0
LINE
  5
2E9
100
AcDbEntity
  8
0
100
AcDbLine
 62
7
  6
BYLAYER
 10
105.3401571797
 20
156.4715803626
 11
101.1885139322
 21
156.4715803626
  0
LINE
  5
2EA
100
AcDbEntity
  8
0
100
AcDbLine
 62
7
  6
BYLAYER
 10
86.9616153696
 20
156.4715803626
 11
82.809972122
 21
156.4715803626
  0
LINE
  5
2EB
100
AcDbEntity
  8
0
100
AcDbLine
 62
7
  6
BYLAYER
 10
82.5750646509
 20
156.4715803626
 11
57.5750646509
 21
156.4715803626
  0
LINE
  5
2EC
100
AcDbEntity
  8
0
100
AcDbLine
 62
7
  6
BYLAYER
 10
57.3401571797
 20
156.4715803626
 11
53.1885139322
 21
156.4715803626
  0
LINE
  5
2ED
100
AcDbEntity
  8
0
100
AcDbLine
 62
7
  6
BYLAYER
 10
190.4051677156
 20
156.6715803626
 11
185.8750646509
 21
156.6715803626
  0
LINE
  5
2EE
100
AcDbEntity
  8
0
100
AcDbLine
 62
7
  6
BYLAYER
 10
180.0750646509
 20
156.6715803626
 11
178.8082267485
 21
156.6715803626
  0
LINE
  5
2EF
100
AcDbEntity
  8
0
100
AcDbLine
 62
7
  6
BYLAYER
 10
153.3419025533
 20
156.6715803626
 11
152.0750646509
 21
156.6715803626
  0
LINE
  5
2F0
100
AcDbEntity
  8
0
100
AcDbLine
 62
7
  6
BYLAYER
 10
148.0925183865
 20
156.6715803626
 11
136.0576109153
 21
156.6715803626
  0
LINE
  5
2F1
100
AcDbEntity
  8
0
100
AcDbLine
 62
7
  6
BYLAYER
 10
132.0750646509
 20
156.6715803626
 11
130.8082267485
 21
156.6715803626
  0
LINE
  5
2F2
100
AcDbEntity
  8
0
100
AcDbLine
 62
7
  6
BYLAYER
 10
105.3419025533
 20
156.6715803626
 11
104.0750646509
 21
156.6715803626
  0
LINE
  5
2F3
100
AcDbEntity
  8
0
100
AcDbLine
 62
7
  6
BYLAYER
 10
100.0925183865
 20
156.6715803626
 11
88.0576109153
 21
156.6715803626
  0
LINE
  5
2F4
100
AcDbEntity
  8
0
100
AcDbLine
 62
7
  6
BYLAYER
 10
84.0750646509
 20
156.6715803626
 11
82.8082267485
 21
156.6715803626
  0
LINE
  5
2F5
100
AcDbEntity
  8
0
100
AcDbLine
 62
7
  6
BYLAYER
 10
57.3419025533
 20
156.6715803626
 11
56.0750646509
 21
156.6715803626
  0
LINE
  5
2F6
100
AcDbEntity
  8
0
100
AcDbLine
 62
7
  6
BYLAYER
 10
50.2750646509
 20
156.6715803626
 11
45.7449615862
 21
156.6715803626
  0
LINE
  5
2F7
100
AcDbEntity
  8
0
100
AcDbLine
 62
7
  6
BYLAYER
 10
222.8250646509
 20
156.7215803626
 11
190.4054295174
 21
156.7215803626
  0
LINE
  5
2F8
100
AcDbEntity
  8
0
100
AcDbLine
 62
7
  6
BYLAYER
 10
146.2890276394
 20
157.0715803626
 11
137.8611016624
 21
157.0715803626
  0
LINE
  5
2F9
100
AcDbEntity
  8
0
100
AcDbLine
 62
7
  6
BYLAYER
 10
98.2890276394
 20
157.0715803626
 11
89.8611016624
 21
157.0715803626
  0
LINE
  5
2FA
100
AcDbEntity
  8
0
100
AcDbLine
 62
7
  6
BYLAYER
 10
105.6276871125
 20
163.6189559209
 11
99.9750646509
 21
169.2715803626
  0
LINE
  5
2FB
100
AcDbEntity
  8
0
100
AcDbLine
 62
7
  6
BYLAYER
 10
109.9703209646
 20
172.4715803626
 11
110.0750646509
 21
168.4715803626
  0
LINE
  5
2FC
100
AcDbEntity
  8
0
100
AcDbLine
 62
7
  6
BYLAYER
 10
105.2075087891
 20
179.6715803893
 11
105.3750646509
 21
160.4715803626
  0
LINE
  5
2FD
100
AcDbEntity
  8
0
100
AcDbLine
 62
7
  6
BYLAYER
 10
103.0750646471
 20
182.4715803625
 11
103.0750646501
 21
179.9715803626
  0
LINE
  5
2FE
100
AcDbEntity
  8
0
100
AcDbLine
 62
7
  6
BYLAYER
 10
104.0750646509
 20
181.9715803626
 11
104.0750646509
 21
169.4715803626
  0
LINE
  5
2FF
100
AcDbEntity
  8
0
100
AcDbLine
 62
7
  6
BYLAYER
 10
104.0750646509
 20
156.6715803626
 11
104.0750646509
 21
154.1715803549
  0
LINE
  5
300
100
AcDbEntity
  8
0
100
AcDbLine
 62
7
  6
BYLAYER
 10
104.8750646509
 20
156.4715803626
 11
104.8750646509
 21
164.4715803626
  0
LINE
  5
301
100
AcDbEntity
  8
0
100
AcDbLine
 62
7
  6
BYLAYER
 10
105.3750646509
 20
168.4715803626
 11
105.3750646509
 21
173.9849734878
  0
LINE
  5
302
100
AcDbEntity
  8
0
100
AcDbLine
 62
7
  6
BYLAYER
 10
105.4064803638
 20
301.9715803626
 11
105.4064803638
 21
291.9715803626
  0
LINE
  5
303
100
AcDbEntity
  8
0
100
AcDbLine
 62
7
  6
BYLAYER
 10
105.5750646509
 20
164.4715803626
 11
105.5750646509
 21
156.4715803626
  0
LINE
  5
304
100
AcDbEntity
  8
0
100
AcDbLine
 62
7
  6
BYLAYER
 10
106.0750646509
 20
149.1715803626
 11
106.0750646509
 21
81.6715803626
  0
LINE
  5
305
100
AcDbEntity
  8
0
100
AcDbLine
 62
7
  6
BYLAYER
 10
106.7750646509
 20
168.4715803626
 11
106.7750646509
 21
173.9715803626
  0
LINE
  5
306
100
AcDbEntity
  8
0
100
AcDbLine
 62
7
  6
BYLAYER
 10
109.0750646509
 20
179.6715803626
 11
109.0750646519
 21
168.4715803626
  0
LINE
  5
307
100
AcDbEntity
  8
0
100
AcDbLine
 62
7
  6
BYLAYER
 10
109.3750646509
 20
172.6715803626
 11
109.3750646509
 21
160.4715803626
  0
LINE
  5
308
100
AcDbEntity
  8
0
100
AcDbLine
 62
7
  6
BYLAYER
 10
109.7750646509
 20
175.4715803626
 11
109.7750646509
 21
173.4715803626
  0
LINE
  5
309
100
AcDbEntity
  8
0
100
AcDbLine
 62
7
  6
BYLAYER
 10
112.0750646509
 20
168.4715803626
 11
112.0750646509
 21
173.4715803626
  0
LINE
  5
30A
100
AcDbEntity
  8
0
100
AcDbLine
 62
7
  6
BYLAYER
 10
112.1860919052
 20
164.9715803626
 11
112.1860919052
 21
171.4715803626
  0
LINE
  5
30B
100
AcDbEntity
  8
0
100
AcDbLine
 62
7
  6
BYLAYER
 10
112.5750646509
 20
156.4715803626
 11
112.5750646509
 21
160.4715803626
  0
LINE
  5
30C
100
AcDbEntity
  8
0
100
AcDbLine
 62
7
  6
BYLAYER
 10
104.8750646509
 20
164.4715803626
 11
104.7415435737
 21
149.1715803626
  0
LINE
  5
30D
100
AcDbEntity
  8
0
100
AcDbLine
 62
7
  6
BYLAYER
 10
104.8750836894
 20
160.4715803625
 11
104.7764700833
 21
149.1715803626
  0
LINE
  5
30E
100
AcDbEntity
  8
0
100
AcDbLine
 62
7
  6
BYLAYER
 10
105.1846395428
 20
156.4715803626
 11
105.1209334079
 21
149.1715803626
  0
LINE
  5
30F
100
AcDbEntity
  8
0
100
AcDbLine
 62
7
  6
BYLAYER
 10
105.3750646509
 20
164.4715803626
 11
105.2415435737
 21
149.1715803626
  0
LINE
  5
310
100
AcDbEntity
  8
0
100
AcDbLine
 62
7
  6
BYLAYER
 10
105.3750646509
 20
160.4715803626
 11
105.2764510448
 21
149.1715803626
  0
LINE
  5
311
100
AcDbEntity
  8
0
100
AcDbLine
 62
7
  6
BYLAYER
 10
107.1798083372
 20
172.4715803626
 11
107.0750646509
 21
168.4715803626
  0
LINE
  5
312
100
AcDbEntity
  8
0
100
AcDbLine
 62
7
  6
BYLAYER
 10
63.608741636
 20
164.4715803626
 11
64.1860919052
 21
164.9715803626
  0
LINE
  5
313
100
AcDbEntity
  8
0
100
AcDbLine
 62
7
  6
BYLAYER
 10
225.8250646509
 20
158.6215803626
 11
223.9250646509
 21
158.6215803626
  0
LINE
  5
314
100
AcDbEntity
  8
0
100
AcDbLine
 62
7
  6
BYLAYER
 10
223.8250646509
 20
158.6215803626
 11
221.8250646509
 21
158.6215803626
  0
LINE
  5
315
100
AcDbEntity
  8
0
100
AcDbLine
 62
7
  6
BYLAYER
 10
207.8250646509
 20
158.6215803626
 11
205.8250646509
 21
158.6215803626
  0
LINE
  5
316
100
AcDbEntity
  8
0
100
AcDbLine
 62
7
  6
BYLAYER
 10
205.7250646509
 20
158.6215803626
 11
203.8250646509
 21
158.6215803626
  0
LINE
  5
317
100
AcDbEntity
  8
0
100
AcDbLine
 62
7
  6
BYLAYER
 10
146.2750646509
 20
158.6715803626
 11
137.8750646509
 21
158.6715803626
  0
LINE
  5
318
100
AcDbEntity
  8
0
100
AcDbLine
 62
7
  6
BYLAYER
 10
98.2750646509
 20
158.6715803626
 11
89.8750646509
 21
158.6715803626
  0
LINE
  5
319
100
AcDbEntity
  8
0
100
AcDbLine
 62
7
  6
BYLAYER
 10
178.5750646509
 20
158.8715803626
 11
153.5750646509
 21
158.8715803626
  0
LINE
  5
31A
100
AcDbEntity
  8
0
100
AcDbLine
 62
7
  6
BYLAYER
 10
130.5750646509
 20
158.8715803626
 11
105.5750646509
 21
158.8715803626
  0
LINE
  5
31B
100
AcDbEntity
  8
0
100
AcDbLine
 62
7
  6
BYLAYER
 10
82.5750646509
 20
158.8715803626
 11
57.5750646509
 21
158.8715803626
  0
LINE
  5
31C
100
AcDbEntity
  8
0
100
AcDbLine
 62
7
  6
BYLAYER
 10
178.5750646509
 20
159.6715803626
 11
153.5750646509
 21
159.6715803626
  0
LINE
  5
31D
100
AcDbEntity
  8
0
100
AcDbLine
 62
7
  6
BYLAYER
 10
130.5750646509
 20
159.6715803626
 11
105.5750646509
 21
159.6715803626
  0
LINE
  5
31E
100
AcDbEntity
  8
0
100
AcDbLine
 62
7
  6
BYLAYER
 10
82.5750646509
 20
159.6715803626
 11
57.5750646509
 21
159.6715803626
  0
LINE
  5
31F
100
AcDbEntity
  8
0
100
AcDbLine
 62
7
  6
BYLAYER
 10
185.4252245736
 20
160.4715803626
 11
147.0750646509
 21
160.4715803626
  0
LINE
  5
320
100
AcDbEntity
  8
0
100
AcDbLine
 62
7
  6
BYLAYER
 10
146.5750836894
 20
160.4715803626
 11
137.5750456124
 21
160.4715803626
  0
LINE
  5
321
100
AcDbEntity
  8
0
100
AcDbLine
 62
7
  6
BYLAYER
 10
137.0750646509
 20
160.4715803626
 11
99.0750646509
 21
160.4715803626
  0
LINE
  5
322
100
AcDbEntity
  8
0
100
AcDbLine
 62
7
  6
BYLAYER
 10
98.5750836894
 20
160.4715803626
 11
89.5750456124
 21
160.4715803626
  0
LINE
  5
323
100
AcDbEntity
  8
0
100
AcDbLine
 62
7
  6
BYLAYER
 10
89.0750646509
 20
160.4715803626
 11
50.7249047282
 21
160.4715803626
  0
LINE
  5
324
100
AcDbEntity
  8
0
100
AcDbLine
 62
7
  6
BYLAYER
 10
190.422577534
 20
160.7215803626
 11
236.8250646509
 21
160.7215803626
  0
LINE
  5
325
100
AcDbEntity
  8
0
100
AcDbLine
 62
7
  6
BYLAYER
 10
178.5750646509
 20
161.2715803626
 11
153.5750646509
 21
161.2715803626
  0
LINE
  5
326
100
AcDbEntity
  8
0
100
AcDbLine
 62
7
  6
BYLAYER
 10
130.5750646509
 20
161.2715803626
 11
105.5750646509
 21
161.2715803626
  0
LINE
  5
327
100
AcDbEntity
  8
0
100
AcDbLine
 62
7
  6
BYLAYER
 10
82.5750646509
 20
161.2715803626
 11
57.5750646509
 21
161.2715803626
  0
LINE
  5
328
100
AcDbEntity
  8
0
100
AcDbLine
 62
7
  6
BYLAYER
 10
190.4185196064
 20
161.7215803626
 11
207.3250646509
 21
161.7215803626
  0
LINE
  5
329
100
AcDbEntity
  8
0
100
AcDbLine
 62
7
  6
BYLAYER
 10
222.3250646509
 20
161.7215803626
 11
236.8250646509
 21
161.7215803626
  0
LINE
  5
32A
100
AcDbEntity
  8
0
100
AcDbLine
 62
7
  6
BYLAYER
 10
236.8250646509
 20
162.0715803626
 11
190.4166869939
 21
162.0715803626
  0
LINE
  5
32B
100
AcDbEntity
  8
0
100
AcDbLine
 62
7
  6
BYLAYER
 10
178.5750646509
 20
162.0715803626
 11
153.5750646509
 21
162.0715803626
  0
LINE
  5
32C
100
AcDbEntity
  8
0
100
AcDbLine
 62
7
  6
BYLAYER
 10
130.5750646509
 20
162.0715803626
 11
105.5750646509
 21
162.0715803626
  0
LINE
  5
32D
100
AcDbEntity
  8
0
100
AcDbLine
 62
7
  6
BYLAYER
 10
82.5750646509
 20
162.0715803626
 11
57.5750646509
 21
162.0715803626
  0
LINE
  5
32E
100
AcDbEntity
  8
0
100
AcDbLine
 62
7
  6
BYLAYER
 10
190.415377985
 20
162.3215803626
 11
207.3250646509
 21
162.3215803626
  0
LINE
  5
32F
100
AcDbEntity
  8
0
100
AcDbLine
 62
7
  6
BYLAYER
 10
222.3250646509
 20
162.3215803626
 11
236.8250646509
 21
162.3215803626
  0
LINE
  5
330
100
AcDbEntity
  8
0
100
AcDbLine
 62
7
  6
BYLAYER
 10
148.5750646509
 20
162.6715803626
 11
135.5750646509
 21
162.6715803626
  0
LINE
  5
331
100
AcDbEntity
  8
0
100
AcDbLine
 62
7
  6
BYLAYER
 10
100.5750646509
 20
162.6715803626
 11
87.5750646509
 21
162.6715803626
  0
LINE
  5
332
100
AcDbEntity
  8
0
100
AcDbLine
 62
7
  6
BYLAYER
 10
222.3250646509
 20
163.7215803626
 11
207.3250646509
 21
163.7215803626
  0
LINE
  5
333
100
AcDbEntity
  8
0
100
AcDbLine
 62
7
  6
BYLAYER
 10
179.2750646509
 20
164.4715803626
 11
152.8750646509
 21
164.4715803626
  0
LINE
  5
334
100
AcDbEntity
  8
0
100
AcDbLine
 62
7
  6
BYLAYER
 10
131.2750646509
 20
164.4715803626
 11
104.8750646509
 21
164.4715803626
  0
LINE
  5
335
100
AcDbEntity
  8
0
100
AcDbLine
 62
7
  6
BYLAYER
 10
83.2750646509
 20
164.4715803626
 11
56.8750646509
 21
164.4715803626
  0
LINE
  5
336
100
AcDbEntity
  8
0
100
AcDbLine
 62
7
  6
BYLAYER
 10
190.4035969049
 20
164.5715803626
 11
236.8250646509
 21
164.5715803626
  0
LINE
  5
337
100
AcDbEntity
  8
0
100
AcDbLine
 62
7
  6
BYLAYER
 10
222.3250646509
 20
164.7215803626
 11
207.3250646509
 21
164.7215803626
  0
LINE
  5
338
100
AcDbEntity
  8
0
100
AcDbLine
 62
7
  6
BYLAYER
 10
171.9640373966
 20
164.9715803626
 11
160.1860919051
 21
164.9715803626
  0
LINE
  5
339
100
AcDbEntity
  8
0
100
AcDbLine
 62
7
  6
BYLAYER
 10
123.9640373966
 20
164.9715803626
 11
112.1860919052
 21
164.9715803626
  0
LINE
  5
33A
100
AcDbEntity
  8
0
100
AcDbLine
 62
7
  6
BYLAYER
 10
75.9640373966
 20
164.9715803626
 11
64.1860919051
 21
164.9715803626
  0
LINE
  5
33B
100
AcDbEntity
  8
0
100
AcDbLine
 62
7
  6
BYLAYER
 10
145.9527742667
 20
165.6454007561
 11
138.1973550351
 21
165.6454007561
  0
LINE
  5
33C
100
AcDbEntity
  8
0
100
AcDbLine
 62
7
  6
BYLAYER
 10
97.9527742667
 20
165.6454007561
 11
90.1973550351
 21
165.6454007561
  0
LINE
  5
33D
100
AcDbEntity
  8
0
100
AcDbLine
 62
7
  6
BYLAYER
 10
86.5837915187
 20
166.6715803626
 11
90.737795973
 21
166.6715803626
  0
LINE
  5
33E
100
AcDbEntity
  8
0
100
AcDbLine
 62
7
  6
BYLAYER
 10
97.4123333288
 20
166.6715803626
 11
101.5663377831
 21
166.6715803626
  0
LINE
  5
33F
100
AcDbEntity
  8
0
100
AcDbLine
 62
7
  6
BYLAYER
 10
134.5837915187
 20
166.6715803626
 11
138.737795973
 21
166.6715803626
  0
LINE
  5
340
100
AcDbEntity
  8
0
100
AcDbLine
 62
7
  6
BYLAYER
 10
145.4123333288
 20
166.6715803626
 11
149.5663377831
 21
166.6715803626
  0
LINE
  5
341
100
AcDbEntity
  8
0
100
AcDbLine
 62
7
  6
BYLAYER
 10
149.535458452
 20
166.9644735814
 11
145.3391769573
 21
166.9644735814
  0
LINE
  5
342
100
AcDbEntity
  8
0
100
AcDbLine
 62
7
  6
BYLAYER
 10
138.8109523445
 20
166.9644735814
 11
134.6146708497
 21
166.9644735814
  0
LINE
  5
343
100
AcDbEntity
  8
0
100
AcDbLine
 62
7
  6
BYLAYER
 10
101.535458452
 20
166.9644735814
 11
97.3391769573
 21
166.9644735814
  0
LINE
  5
344
100
AcDbEntity
  8
0
100
AcDbLine
 62
7
  6
BYLAYER
 10
90.8109523445
 20
166.9644735814
 11
86.6146708497
 21
166.9644735814
  0
LINE
  5
345
100
AcDbEntity
  8
0
100
AcDbLine
 62
7
  6
BYLAYER
 10
143.1250646509
 20
167.1715803626
 11
141.0250646509
 21
167.1715803626
  0
LINE
  5
346
100
AcDbEntity
  8
0
100
AcDbLine
 62
7
  6
BYLAYER
 10
95.1250646509
 20
167.1715803626
 11
93.0250646509
 21
167.1715803626
  0
LINE
  5
347
100
AcDbEntity
  8
0
100
AcDbLine
 62
7
  6
BYLAYER
 10
47.4750646509
 20
167.2715803626
 11
50.4750646509
 21
167.2715803626
  0
LINE
  5
348
100
AcDbEntity
  8
0
100
AcDbLine
 62
7
  6
BYLAYER
 10
89.6750646509
 20
167.2715803626
 11
92.6750646509
 21
167.2715803626
  0
LINE
  5
349
100
AcDbEntity
  8
0
100
AcDbLine
 62
7
  6
BYLAYER
 10
95.4750646509
 20
167.2715803626
 11
98.4750646509
 21
167.2715803626
  0
LINE
  5
34A
100
AcDbEntity
  8
0
100
AcDbLine
 62
7
  6
BYLAYER
 10
137.6750646509
 20
167.2715803626
 11
140.6750646509
 21
167.2715803626
  0
LINE
  5
34B
100
AcDbEntity
  8
0
100
AcDbLine
 62
7
  6
BYLAYER
 10
143.4750646509
 20
167.2715803626
 11
146.4750646509
 21
167.2715803626
  0
LINE
  5
34C
100
AcDbEntity
  8
0
100
AcDbLine
 62
7
  6
BYLAYER
 10
185.6750646509
 20
167.2715803626
 11
187.8250646509
 21
167.2715803626
  0
LINE
  5
34D
100
AcDbEntity
  8
0
100
AcDbLine
 62
7
  6
BYLAYER
 10
149.4405245822
 20
167.6715803626
 11
143.5750646509
 21
167.6715803626
  0
LINE
  5
34E
100
AcDbEntity
  8
0
100
AcDbLine
 62
7
  6
BYLAYER
 10
140.5750646509
 20
167.6715803626
 11
134.7096047196
 21
167.6715803626
  0
LINE
  5
34F
100
AcDbEntity
  8
0
100
AcDbLine
 62
7
  6
BYLAYER
 10
101.4405245822
 20
167.6715803626
 11
95.5750646509
 21
167.6715803626
  0
LINE
  5
350
100
AcDbEntity
  8
0
100
AcDbLine
 62
7
  6
BYLAYER
 10
92.5750646509
 20
167.6715803626
 11
86.7096047196
 21
167.6715803626
  0
LINE
  5
351
100
AcDbEntity
  8
0
100
AcDbLine
 62
7
  6
BYLAYER
 10
124.5413876658
 20
164.4715803626
 11
123.9640373966
 21
164.9715803626
  0
LINE
  5
352
100
AcDbEntity
  8
0
100
AcDbLine
 62
7
  6
BYLAYER
 10
121.3082261583
 20
164.4715803626
 11
121.0195510238
 21
164.9715803626
  0
LINE
  5
353
100
AcDbEntity
  8
0
100
AcDbLine
 62
7
  6
BYLAYER
 10
114.8250646509
 20
173.4715803626
 11
114.8250646509
 21
171.4715803626
  0
LINE
  5
354
100
AcDbEntity
  8
0
100
AcDbLine
 62
7
  6
BYLAYER
 10
114.9750646509
 20
160.4715803626
 11
114.9750646509
 21
164.4715803626
  0
LINE
  5
355
100
AcDbEntity
  8
0
100
AcDbLine
 62
7
  6
BYLAYER
 10
115.130578278
 20
164.9715803626
 11
115.130578278
 21
171.4715803626
  0
LINE
  5
356
100
AcDbEntity
  8
0
100
AcDbLine
 62
7
  6
BYLAYER
 10
115.3750646509
 20
168.4715803626
 11
115.3750646509
 21
164.4715803626
  0
LINE
  5
357
100
AcDbEntity
  8
0
100
AcDbLine
 62
7
  6
BYLAYER
 10
115.5750646509
 20
160.4715803626
 11
115.5750646509
 21
164.4715803626
  0
LINE
  5
358
100
AcDbEntity
  8
0
100
AcDbLine
 62
7
  6
BYLAYER
 10
120.5750646509
 20
160.4715803626
 11
120.5750646509
 21
164.4715803626
  0
LINE
  5
359
100
AcDbEntity
  8
0
100
AcDbLine
 62
7
  6
BYLAYER
 10
120.7750646509
 20
168.4715803626
 11
120.7750646509
 21
164.4715803626
  0
LINE
  5
35A
100
AcDbEntity
  8
0
100
AcDbLine
 62
7
  6
BYLAYER
 10
121.0195510238
 20
164.9715803626
 11
121.0195510238
 21
171.4715803626
  0
LINE
  5
35B
100
AcDbEntity
  8
0
100
AcDbLine
 62
7
  6
BYLAYER
 10
121.1750646509
 20
160.4715803626
 11
121.1750646509
 21
164.4715803626
  0
LINE
  5
35C
100
AcDbEntity
  8
0
100
AcDbLine
 62
7
  6
BYLAYER
 10
121.3250646509
 20
173.4715803626
 11
121.3250646509
 21
171.4715803626
  0
LINE
  5
35D
100
AcDbEntity
  8
0
100
AcDbLine
 62
7
  6
BYLAYER
 10
88.1750646509
 20
169.2715803626
 11
82.522471186
 21
163.6189848989
  0
LINE
  5
35E
100
AcDbEntity
  8
0
100
AcDbLine
 62
7
  6
BYLAYER
 10
186.0750646509
 20
168.4715803626
 11
153.0750646509
 21
168.4715803626
  0
LINE
  5
35F
100
AcDbEntity
  8
0
100
AcDbLine
 62
7
  6
BYLAYER
 10
131.0750646509
 20
168.4715803626
 11
105.0750646509
 21
168.4715803626
  0
LINE
  5
360
100
AcDbEntity
  8
0
100
AcDbLine
 62
7
  6
BYLAYER
 10
83.0750646509
 20
168.4715803626
 11
50.0750646509
 21
168.4715803626
  0
LINE
  5
361
100
AcDbEntity
  8
0
100
AcDbLine
 62
7
  6
BYLAYER
 10
50.4750646509
 20
169.2715803626
 11
51.9750646509
 21
169.2715803626
  0
LINE
  5
362
100
AcDbEntity
  8
0
100
AcDbLine
 62
7
  6
BYLAYER
 10
88.1750646509
 20
169.2715803626
 11
89.6750646509
 21
169.2715803626
  0
LINE
  5
363
100
AcDbEntity
  8
0
100
AcDbLine
 62
7
  6
BYLAYER
 10
98.4750646509
 20
169.2715803626
 11
99.9750646509
 21
169.2715803626
  0
LINE
  5
364
100
AcDbEntity
  8
0
100
AcDbLine
 62
7
  6
BYLAYER
 10
136.1750646509
 20
169.2715803626
 11
137.6750646509
 21
169.2715803626
  0
LINE
  5
365
100
AcDbEntity
  8
0
100
AcDbLine
 62
7
  6
BYLAYER
 10
146.4750646509
 20
169.2715803626
 11
147.9750646509
 21
169.2715803626
  0
LINE
  5
366
100
AcDbEntity
  8
0
100
AcDbLine
 62
7
  6
BYLAYER
 10
184.1750646509
 20
169.2715803626
 11
185.6750646509
 21
169.2715803626
  0
LINE
  5
367
100
AcDbEntity
  8
0
100
AcDbLine
 62
7
  6
BYLAYER
 10
187.0750646509
 20
169.4715803626
 11
152.0750646509
 21
169.4715803626
  0
LINE
  5
368
100
AcDbEntity
  8
0
100
AcDbLine
 62
7
  6
BYLAYER
 10
132.0750646509
 20
169.4715803626
 11
104.0750646509
 21
169.4715803626
  0
LINE
  5
369
100
AcDbEntity
  8
0
100
AcDbLine
 62
7
  6
BYLAYER
 10
84.0750646509
 20
169.4715803626
 11
49.0750646509
 21
169.4715803626
  0
LINE
  5
36A
100
AcDbEntity
  8
0
100
AcDbLine
 62
7
  6
BYLAYER
 10
150.0793900071
 20
171.1759436303
 11
134.0707392947
 21
171.1759436303
  0
LINE
  5
36B
100
AcDbEntity
  8
0
100
AcDbLine
 62
7
  6
BYLAYER
 10
102.0793900071
 20
171.1759436303
 11
86.0707392947
 21
171.1759436303
  0
LINE
  5
36C
100
AcDbEntity
  8
0
100
AcDbLine
 62
7
  6
BYLAYER
 10
171.9640373966
 20
171.4715803626
 11
160.1860919052
 21
171.4715803626
  0
LINE
  5
36D
100
AcDbEntity
  8
0
100
AcDbLine
 62
7
  6
BYLAYER
 10
123.9640373966
 20
171.4715803626
 11
112.1860919052
 21
171.4715803626
  0
LINE
  5
36E
100
AcDbEntity
  8
0
100
AcDbLine
 62
7
  6
BYLAYER
 10
75.9640373966
 20
171.4715803626
 11
64.1860919052
 21
171.4715803626
  0
LINE
  5
36F
100
AcDbEntity
  8
0
100
AcDbLine
 62
7
  6
BYLAYER
 10
149.5794090456
 20
171.6715803626
 11
134.5707202562
 21
171.6715803626
  0
LINE
  5
370
100
AcDbEntity
  8
0
100
AcDbLine
 62
7
  6
BYLAYER
 10
101.5794090456
 20
171.6715803626
 11
86.5707202562
 21
171.6715803626
  0
LINE
  5
371
100
AcDbEntity
  8
0
100
AcDbLine
 62
7
  6
BYLAYER
 10
157.9703209646
 20
172.4715803626
 11
155.1798083372
 21
172.4715803626
  0
LINE
  5
372
100
AcDbEntity
  8
0
100
AcDbLine
 62
7
  6
BYLAYER
 10
128.9703209646
 20
172.4715803626
 11
126.1798083372
 21
172.4715803626
  0
LINE
  5
373
100
AcDbEntity
  8
0
100
AcDbLine
 62
7
  6
BYLAYER
 10
109.9703209646
 20
172.4715803626
 11
107.1798083372
 21
172.4715803626
  0
LINE
  5
374
100
AcDbEntity
  8
0
100
AcDbLine
 62
7
  6
BYLAYER
 10
80.9703209646
 20
172.4715803626
 11
78.1798083372
 21
172.4715803626
  0
LINE
  5
375
100
AcDbEntity
  8
0
100
AcDbLine
 62
7
  6
BYLAYER
 10
187.5750646509
 20
172.6715803626
 11
143.4750646509
 21
172.6715803626
  0
LINE
  5
376
100
AcDbEntity
  8
0
100
AcDbLine
 62
7
  6
BYLAYER
 10
140.6750646509
 20
172.6715803626
 11
95.4750646509
 21
172.6715803626
  0
LINE
  5
377
100
AcDbEntity
  8
0
100
AcDbLine
 62
7
  6
BYLAYER
 10
92.6750646509
 20
172.6715803625
 11
48.5750646509
 21
172.6715803626
  0
LINE
  5
378
100
AcDbEntity
  8
0
100
AcDbLine
 62
7
  6
BYLAYER
 10
126.3750646509
 20
173.4715803626
 11
109.7750646509
 21
173.4715803626
  0
LINE
  5
379
100
AcDbEntity
  8
0
100
AcDbLine
 62
7
  6
BYLAYER
 10
78.3750646509
 20
173.4715803626
 11
61.7750646509
 21
173.4715803626
  0
LINE
  5
37A
100
AcDbEntity
  8
0
100
AcDbLine
 62
7
  6
BYLAYER
 10
157.7750646509
 20
173.4715803626
 11
174.3750646509
 21
173.4715803626
  0
LINE
  5
37B
100
AcDbEntity
  8
0
100
AcDbLine
 62
7
  6
BYLAYER
 10
43.5250646509
 20
174.1215803626
 11
28.0250646509
 21
174.1215803626
  0
LINE
  5
37C
100
AcDbEntity
  8
0
100
AcDbLine
 62
7
  6
BYLAYER
 10
185.3506444056
 20
174.71521304
 11
185.1993669501
 21
174.71521304
  0
LINE
  5
37D
100
AcDbEntity
  8
0
100
AcDbLine
 62
7
  6
BYLAYER
 10
146.4508147581
 20
174.71521304
 11
137.6993478556
 21
174.71521304
  0
LINE
  5
37E
100
AcDbEntity
  8
0
100
AcDbLine
 62
7
  6
BYLAYER
 10
98.4508147581
 20
174.71521304
 11
89.699347856
 21
174.71521304
  0
LINE
  5
37F
100
AcDbEntity
  8
0
100
AcDbLine
 62
7
  6
BYLAYER
 10
50.9507623516
 20
174.71521304
 11
50.7994848962
 21
174.71521304
  0
LINE
  5
380
100
AcDbEntity
  8
0
100
AcDbLine
 62
7
  6
BYLAYER
 10
188.6750646509
 20
175.0715803626
 11
187.8250646509
 21
175.0715803626
  0
LINE
  5
381
100
AcDbEntity
  8
0
100
AcDbLine
 62
7
  6
BYLAYER
 10
190.348618531
 20
175.0715803626
 11
223.8250646509
 21
175.0715803626
  0
LINE
  5
382
100
AcDbEntity
  8
0
100
AcDbLine
 62
7
  6
BYLAYER
 10
187.0750646509
 20
175.4715803626
 11
180.2750646509
 21
175.4715803626
  0
LINE
  5
383
100
AcDbEntity
  8
0
100
AcDbLine
 62
7
  6
BYLAYER
 10
175.8750646509
 20
175.4715803626
 11
174.3750646509
 21
175.4715803626
  0
LINE
  5
384
100
AcDbEntity
  8
0
100
AcDbLine
 62
7
  6
BYLAYER
 10
157.7750646509
 20
175.4715803626
 11
156.2750646509
 21
175.4715803626
  0
LINE
  5
385
100
AcDbEntity
  8
0
100
AcDbLine
 62
7
  6
BYLAYER
 10
127.8750646509
 20
175.4715803626
 11
126.3750646509
 21
175.4715803626
  0
LINE
  5
386
100
AcDbEntity
  8
0
100
AcDbLine
 62
7
  6
BYLAYER
 10
109.7750646509
 20
175.4715803626
 11
108.2750646509
 21
175.4715803626
  0
LINE
  5
387
100
AcDbEntity
  8
0
100
AcDbLine
 62
7
  6
BYLAYER
 10
79.8750646509
 20
175.4715803626
 11
78.3750646509
 21
175.4715803626
  0
LINE
  5
388
100
AcDbEntity
  8
0
100
AcDbLine
 62
7
  6
BYLAYER
 10
61.7750646509
 20
175.4715803626
 11
60.2750646509
 21
175.4715803626
  0
LINE
  5
389
100
AcDbEntity
  8
0
100
AcDbLine
 62
7
  6
BYLAYER
 10
55.8750646509
 20
175.4715803626
 11
49.0750646509
 21
175.4715803626
  0
LINE
  5
38A
100
AcDbEntity
  8
0
100
AcDbLine
 62
7
  6
BYLAYER
 10
29.0981329929
 20
179.77428349
 11
28.9109693429
 21
179.7781404117
  0
LINE
  5
38B
100
AcDbEntity
  8
0
100
AcDbLine
 62
7
  6
BYLAYER
 10
145.5838492103
 20
156.6627958031
 11
143.5750646509
 21
158.6715803626
  0
LINE
  5
38C
100
AcDbEntity
  8
0
100
AcDbLine
 62
7
  6
BYLAYER
 10
128.9703209646
 20
172.4715803626
 11
129.0750646509
 21
168.4715803626
  0
LINE
  5
38D
100
AcDbEntity
  8
0
100
AcDbLine
 62
7
  6
BYLAYER
 10
130.7750646509
 20
160.4715803626
 11
130.8736782569
 21
149.1715803626
  0
LINE
  5
38E
100
AcDbEntity
  8
0
100
AcDbLine
 62
7
  6
BYLAYER
 10
130.7750646509
 20
164.4715803626
 11
130.9085857281
 21
149.1715803626
  0
LINE
  5
38F
100
AcDbEntity
  8
0
100
AcDbLine
 62
7
  6
BYLAYER
 10
130.965489759
 20
156.4715803626
 11
131.0291958939
 21
149.1715803626
  0
LINE
  5
390
100
AcDbEntity
  8
0
100
AcDbLine
 62
7
  6
BYLAYER
 10
131.2750456124
 20
160.4715803625
 11
131.3736592185
 21
149.1715803626
  0
LINE
  5
391
100
AcDbEntity
  8
0
100
AcDbLine
 62
7
  6
BYLAYER
 10
131.2750646509
 20
164.4715803626
 11
131.4085857281
 21
149.1715803626
  0
LINE
  5
392
100
AcDbEntity
  8
0
100
AcDbLine
 62
7
  6
BYLAYER
 10
123.5750646509
 20
156.4715803626
 11
123.5750646509
 21
160.4715803626
  0
LINE
  5
393
100
AcDbEntity
  8
0
100
AcDbLine
 62
7
  6
BYLAYER
 10
123.7173694963
 20
301.9715803626
 11
123.7173694963
 21
291.9715803626
  0
LINE
  5
394
100
AcDbEntity
  8
0
100
AcDbLine
 62
7
  6
BYLAYER
 10
123.9640373966
 20
164.9715803626
 11
123.9640373966
 21
171.4715803626
  0
LINE
  5
395
100
AcDbEntity
  8
0
100
AcDbLine
 62
7
  6
BYLAYER
 10
124.0750646509
 20
168.4715803626
 11
124.0750646509
 21
173.4715803626
  0
LINE
  5
396
100
AcDbEntity
  8
0
100
AcDbLine
 62
7
  6
BYLAYER
 10
125.3250646509
 20
301.9715803626
 11
125.3250646509
 21
291.9715803626
  0
LINE
  5
397
100
AcDbEntity
  8
0
100
AcDbLine
 62
7
  6
BYLAYER
 10
126.3750646509
 20
175.4715803626
 11
126.3750646509
 21
173.4715803626
  0
LINE
  5
398
100
AcDbEntity
  8
0
100
AcDbLine
 62
7
  6
BYLAYER
 10
126.7750646509
 20
172.6715803626
 11
126.7750646509
 21
160.4715803626
  0
LINE
  5
399
100
AcDbEntity
  8
0
100
AcDbLine
 62
7
  6
BYLAYER
 10
127.0750646509
 20
179.6715803626
 11
127.0750646496
 21
168.4715803626
  0
LINE
  5
39A
100
AcDbEntity
  8
0
100
AcDbLine
 62
7
  6
BYLAYER
 10
129.3750646509
 20
168.4715803626
 11
129.3750646509
 21
173.9715803626
  0
LINE
  5
39B
100
AcDbEntity
  8
0
100
AcDbLine
 62
7
  6
BYLAYER
 10
130.0750646509
 20
149.1715803626
 11
130.0750646509
 21
81.6715803626
  0
LINE
  5
39C
100
AcDbEntity
  8
0
100
AcDbLine
 62
7
  6
BYLAYER
 10
130.5750646509
 20
164.4715803626
 11
130.5750646509
 21
156.4715803626
  0
LINE
  5
39D
100
AcDbEntity
  8
0
100
AcDbLine
 62
7
  6
BYLAYER
 10
130.7750646509
 20
168.4715803626
 11
130.7750646509
 21
173.9849734878
  0
LINE
  5
39E
100
AcDbEntity
  8
0
100
AcDbLine
 62
7
  6
BYLAYER
 10
131.2750646509
 20
156.4715803626
 11
131.2750646509
 21
164.4715803626
  0
LINE
  5
39F
100
AcDbEntity
  8
0
100
AcDbLine
 62
7
  6
BYLAYER
 10
132.0750646509
 20
181.9715803626
 11
132.0750646509
 21
169.4715803626
  0
LINE
  5
3A0
100
AcDbEntity
  8
0
100
AcDbLine
 62
7
  6
BYLAYER
 10
132.0750646509
 20
156.6715803626
 11
132.0750646509
 21
154.1715803549
  0
LINE
  5
3A1
100
AcDbEntity
  8
0
100
AcDbLine
 62
7
  6
BYLAYER
 10
133.0750646517
 20
179.9715803626
 11
133.0750646509
 21
182.4715803626
  0
LINE
  5
3A2
100
AcDbEntity
  8
0
100
AcDbLine
 62
7
  6
BYLAYER
 10
130.9426205125
 20
179.6715803626
 11
130.7750646509
 21
160.4715803626
  0
LINE
  5
3A3
100
AcDbEntity
  8
0
100
AcDbLine
 62
7
  6
BYLAYER
 10
126.1798083372
 20
172.4715803626
 11
126.0750646509
 21
168.4715803626
  0
LINE
  5
3A4
100
AcDbEntity
  8
0
100
AcDbLine
 62
7
  6
BYLAYER
 10
131.1743898177
 20
164.2709055358
 11
130.7750646509
 21
160.4715803626
  0
LWPOLYLINE
  5
3A5
100
AcDbEntity
  8
0
100
AcDbPolyline
 62
7
  6
BYLAYER
 90
3
 70
0
 10
92.57514771
 20
74.237582429
 10
92.4376837822
 20
73.7315946078
 10
92.0644828039
 20
73.3655027371
  0
LINE
  5
3A6
100
AcDbEntity
  8
0
100
AcDbLine
 62
7
  6
BYLAYER
 10
114.8419031434
 20
164.4715803626
 11
115.130578278
 21
164.9715803626
  0
LINE
  5
3A7
100
AcDbEntity
  8
0
100
AcDbLine
 62
7
  6
BYLAYER
 10
92.5750646509
 20
158.6715803626
 11
90.5750646509
 21
156.6715803626
  0
LINE
  5
3A8
100
AcDbEntity
  8
0
100
AcDbLine
 62
7
  6
BYLAYER
 10
29.0872406141
 20
179.7735307939
 11
29.1183331469
 21
179.7759416939
  0
LINE
  5
3A9
100
AcDbEntity
  8
0
100
AcDbLine
 62
7
  6
BYLAYER
 10
98.411853184
 20
178.6715803626
 11
113.7382761178
 21
178.6715803626
  0
LINE
  5
3AA
100
AcDbEntity
  8
0
100
AcDbLine
 62
7
  6
BYLAYER
 10
146.411853184
 20
178.6715803626
 11
161.7382761178
 21
178.6715803626
  0
LINE
  5
3AB
100
AcDbEntity
  8
0
100
AcDbLine
 62
7
  6
BYLAYER
 10
153.2118341455
 20
179.1759436303
 11
148.0168191138
 21
179.1759436303
  0
LINE
  5
3AC
100
AcDbEntity
  8
0
100
AcDbLine
 62
7
  6
BYLAYER
 10
136.1333123122
 20
179.1759436303
 11
130.9382951562
 21
179.1759436303
  0
LINE
  5
3AD
100
AcDbEntity
  8
0
100
AcDbLine
 62
7
  6
BYLAYER
 10
105.2118341455
 20
179.1759436303
 11
100.0168191138
 21
179.1759436303
  0
LINE
  5
3AE
100
AcDbEntity
  8
0
100
AcDbLine
 62
7
  6
BYLAYER
 10
88.1333123122
 20
179.1759436303
 11
82.9382951562
 21
179.1759436303
  0
LINE
  5
3AF
100
AcDbEntity
  8
0
100
AcDbLine
 62
7
  6
BYLAYER
 10
190.3245327673
 20
179.6715803626
 11
45.8255965345
 21
179.6715803626
  0
LINE
  5
3B0
100
AcDbEntity
  8
0
100
AcDbLine
 62
7
  6
BYLAYER
 10
43.5250646509
 20
179.7715803626
 11
28.9560994961
 21
179.7739734073
  0
LINE
  5
3B1
100
AcDbEntity
  8
0
100
AcDbLine
 62
7
  6
BYLAYER
 10
45.825239873
 20
179.9715803626
 11
198.8250646509
 21
179.9715803626
  0
LINE
  5
3B2
100
AcDbEntity
  8
0
100
AcDbLine
 62
7
  6
BYLAYER
 10
41.2750646509
 20
180.1215803626
 11
33.2750646509
 21
180.1215803626
  0
LINE
  5
3B3
100
AcDbEntity
  8
0
100
AcDbLine
 62
7
  6
BYLAYER
 10
28.0250646509
 20
180.7715803907
 11
43.5250646509
 21
180.7715803626
  0
LINE
  5
3B4
100
AcDbEntity
  8
0
100
AcDbLine
 62
7
  6
BYLAYER
 10
152.0750646509
 20
181.9715803626
 11
145.9750646509
 21
181.9715803626
  0
LINE
  5
3B5
100
AcDbEntity
  8
0
100
AcDbLine
 62
7
  6
BYLAYER
 10
138.1750646509
 20
181.9715803626
 11
132.0750646509
 21
181.9715803625
  0
LINE
  5
3B6
100
AcDbEntity
  8
0
100
AcDbLine
 62
7
  6
BYLAYER
 10
104.0750646509
 20
181.9715803626
 11
97.8250646509
 21
181.9715803626
  0
LINE
  5
3B7
100
AcDbEntity
  8
0
100
AcDbLine
 62
7
  6
BYLAYER
 10
90.3250646509
 20
181.9715803626
 11
84.0750646509
 21
181.9715803626
  0
LINE
  5
3B8
100
AcDbEntity
  8
0
100
AcDbLine
 62
7
  6
BYLAYER
 10
38.0250646509
 20
182.2715803626
 11
28.0250646509
 21
182.2715803626
  0
LINE
  5
3B9
100
AcDbEntity
  8
0
100
AcDbLine
 62
7
  6
BYLAYER
 10
223.8250646509
 20
182.4715803626
 11
45.8250646509
 21
182.4715803626
  0
LINE
  5
3BA
100
AcDbEntity
  8
0
100
AcDbLine
 62
7
  6
BYLAYER
 10
151.8100326896
 20
182.7151582339
 11
145.9400966121
 21
182.7151582339
  0
LINE
  5
3BB
100
AcDbEntity
  8
0
100
AcDbLine
 62
7
  6
BYLAYER
 10
90.2100326896
 20
182.7151582339
 11
84.3400966121
 21
182.7151582339
  0
LINE
  5
3BC
100
AcDbEntity
  8
0
100
AcDbLine
 62
7
  6
BYLAYER
 10
151.3119353406
 20
183.1715803626
 11
146.4381939612
 21
183.1715803626
  0
LINE
  5
3BD
100
AcDbEntity
  8
0
100
AcDbLine
 62
7
  6
BYLAYER
 10
89.7119353406
 20
183.1715803626
 11
84.8381939612
 21
183.1715803626
  0
LINE
  5
3BE
100
AcDbEntity
  8
0
100
AcDbLine
 62
7
  6
BYLAYER
 10
198.8250646509
 20
183.4715803626
 11
45.8252398724
 21
183.4715803626
  0
LINE
  5
3BF
100
AcDbEntity
  8
0
100
AcDbLine
 62
7
  6
BYLAYER
 10
198.8250646509
 20
184.7215803625
 11
45.8250646509
 21
184.7215803625
  0
LINE
  5
3C0
100
AcDbEntity
  8
0
100
AcDbLine
 62
7
  6
BYLAYER
 10
198.8250646509
 20
185.2715803626
 11
45.8250646509
 21
185.2715803626
  0
LINE
  5
3C1
100
AcDbEntity
  8
0
100
AcDbLine
 62
7
  6
BYLAYER
 10
198.8250646509
 20
186.1215803625
 11
45.8250646509
 21
186.1215803625
  0
LINE
  5
3C2
100
AcDbEntity
  8
0
100
AcDbLine
 62
7
  6
BYLAYER
 10
198.8250646509
 20
187.8215803626
 11
45.8250646509
 21
187.8215803626
  0
LINE
  5
3C3
100
AcDbEntity
  8
0
100
AcDbLine
 62
7
  6
BYLAYER
 10
198.8250646509
 20
188.6715803626
 11
45.8250646509
 21
188.6715803626
  0
LINE
  5
3C4
100
AcDbEntity
  8
0
100
AcDbLine
 62
7
  6
BYLAYER
 10
147.9750646509
 20
169.2715803626
 11
153.6276143611
 21
163.6190311838
  0
LINE
  5
3C5
100
AcDbEntity
  8
0
100
AcDbLine
 62
7
  6
BYLAYER
 10
134.5837915187
 20
166.6715803626
 11
134.4703422374
 21
179.6715803626
  0
LINE
  5
3C6
100
AcDbEntity
  8
0
100
AcDbLine
 62
7
  6
BYLAYER
 10
134.9047113387
 20
149.1715803626
 11
134.8410052038
 21
156.4715803626
  0
LINE
  5
3C7
100
AcDbEntity
  8
0
100
AcDbLine
 62
7
  6
BYLAYER
 10
134.9616153696
 20
156.4715803626
 11
135.0253215045
 21
149.1715803626
  0
LINE
  5
3C8
100
AcDbEntity
  8
0
100
AcDbLine
 62
7
  6
BYLAYER
 10
135.0750646509
 20
160.4715803626
 11
135.1736782569
 21
149.1715803626
  0
LINE
  5
3C9
100
AcDbEntity
  8
0
100
AcDbLine
 62
7
  6
BYLAYER
 10
135.0750646509
 20
179.6715803626
 11
135.1974692659
 21
165.6454007561
  0
LINE
  5
3CA
100
AcDbEntity
  8
0
100
AcDbLine
 62
7
  6
BYLAYER
 10
135.5750646509
 20
162.6715803626
 11
135.4267078984
 21
179.6715803626
  0
LINE
  5
3CB
100
AcDbEntity
  8
0
100
AcDbLine
 62
7
  6
BYLAYER
 10
137.0750646222
 20
160.471583649
 11
137.1736782569
 21
149.1715803626
  0
LINE
  5
3CC
100
AcDbEntity
  8
0
100
AcDbLine
 62
7
  6
BYLAYER
 10
137.5750456124
 20
160.4715803626
 11
137.6736592185
 21
149.1715803626
  0
LINE
  5
3CD
100
AcDbEntity
  8
0
100
AcDbLine
 62
7
  6
BYLAYER
 10
138.0750646509
 20
156.6715803626
 11
138.0227034441
 21
162.6715803626
  0
LINE
  5
3CE
100
AcDbEntity
  8
0
100
AcDbLine
 62
7
  6
BYLAYER
 10
138.0749504201
 20
179.6715803626
 11
138.1973550351
 21
165.6454007561
  0
LINE
  5
3CF
100
AcDbEntity
  8
0
100
AcDbLine
 62
7
  6
BYLAYER
 10
138.8229018088
 20
156.9194175204
 11
138.737795973
 21
166.6715803626
  0
LINE
  5
3D0
100
AcDbEntity
  8
0
100
AcDbLine
 62
7
  6
BYLAYER
 10
134.0750646509
 20
179.6715803626
 11
134.0750646509
 21
172.6715803626
  0
LINE
  5
3D1
100
AcDbEntity
  8
0
100
AcDbLine
 62
7
  6
BYLAYER
 10
134.5750646509
 20
81.6715803626
 11
134.5750646509
 21
75.1644861886
  0
LINE
  5
3D2
100
AcDbEntity
  8
0
100
AcDbLine
 62
7
  6
BYLAYER
 10
136.0750646509
 20
149.1715803626
 11
136.0750646509
 21
82.6715803626
  0
LINE
  5
3D3
100
AcDbEntity
  8
0
100
AcDbLine
 62
7
  6
BYLAYER
 10
137.1750646471
 20
182.4715803626
 11
137.1750646492
 21
179.9715803626
  0
LINE
  5
3D4
100
AcDbEntity
  8
0
100
AcDbLine
 62
7
  6
BYLAYER
 10
137.6750646509
 20
169.2715803626
 11
137.6750646509
 21
167.2715803626
  0
LINE
  5
3D5
100
AcDbEntity
  8
0
100
AcDbLine
 62
7
  6
BYLAYER
 10
138.0750646509
 20
179.6715803626
 11
138.0750646509
 21
172.6715803626
  0
LINE
  5
3D6
100
AcDbEntity
  8
0
100
AcDbLine
 62
7
  6
BYLAYER
 10
138.1750646509
 20
181.9715803626
 11
138.1750646509
 21
179.9715803626
  0
LINE
  5
3D7
100
AcDbEntity
  8
0
100
AcDbLine
 62
7
  6
BYLAYER
 10
138.1973550351
 20
165.6454007561
 11
138.1973550351
 21
162.6715803626
  0
LINE
  5
3D8
100
AcDbEntity
  8
0
100
AcDbLine
 62
7
  6
BYLAYER
 10
138.8750646509
 20
179.9715803626
 11
138.8750646509
 21
171.6715803626
  0
LINE
  5
3D9
100
AcDbEntity
  8
0
100
AcDbLine
 62
7
  6
BYLAYER
 10
139.3250646509
 20
301.9715803626
 11
139.3250646509
 21
291.9715803626
  0
LINE
  5
3DA
100
AcDbEntity
  8
0
100
AcDbLine
 62
7
  6
BYLAYER
 10
140.0750646509
 20
179.6715803626
 11
140.0750646509
 21
172.6715803626
  0
LINE
  5
3DB
100
AcDbEntity
  8
0
100
AcDbLine
 62
7
  6
BYLAYER
 10
140.5750646509
 20
167.6715803626
 11
140.5750646509
 21
158.6715803626
  0
LINE
  5
3DC
100
AcDbEntity
  8
0
100
AcDbLine
 62
7
  6
BYLAYER
 10
140.6750646509
 20
167.2715803626
 11
140.6750646509
 21
179.6715803626
  0
LINE
  5
3DD
100
AcDbEntity
  8
0
100
AcDbLine
 62
7
  6
BYLAYER
 10
140.9327598055
 20
301.9715803626
 11
140.9327598055
 21
291.9715803626
  0
LINE
  5
3DE
100
AcDbEntity
  8
0
100
AcDbLine
 62
7
  6
BYLAYER
 10
141.0250646509
 20
167.1715803626
 11
141.0250646509
 21
158.6715803626
  0
LINE
  5
3DF
100
AcDbEntity
  8
0
100
AcDbLine
 62
7
  6
BYLAYER
 10
143.1250646509
 20
167.1715803626
 11
143.1250646509
 21
158.6715803626
  0
LINE
  5
3E0
100
AcDbEntity
  8
0
100
AcDbLine
 62
7
  6
BYLAYER
 10
143.4750646509
 20
179.6715803626
 11
143.4750646509
 21
167.2715803626
  0
LINE
  5
3E1
100
AcDbEntity
  8
0
100
AcDbLine
 62
7
  6
BYLAYER
 10
143.5750646509
 20
167.6715803626
 11
143.5750646509
 21
158.6715803626
  0
LINE
  5
3E2
100
AcDbEntity
  8
0
100
AcDbLine
 62
7
  6
BYLAYER
 10
143.5750646509
 20
81.6715803626
 11
143.5750646509
 21
75.9935255671
  0
LINE
  5
3E3
100
AcDbEntity
  8
0
100
AcDbLine
 62
7
  6
BYLAYER
 10
144.0750646509
 20
179.6715803626
 11
144.0750646509
 21
172.6715803626
  0
LINE
  5
3E4
100
AcDbEntity
  8
0
100
AcDbLine
 62
7
  6
BYLAYER
 10
137.4115380058
 20
156.6715803626
 11
137.3608130868
 21
149.1715803626
  0
LINE
  5
3E5
100
AcDbEntity
  8
0
100
AcDbLine
 62
7
  6
BYLAYER
 10
134.0707392947
 20
171.1759436303
 11
133.8787101256
 21
149.1715803626
  0
LINE
  5
3E6
100
AcDbEntity
  8
0
100
AcDbLine
 62
7
  6
BYLAYER
 10
135.4454942228
 20
168.5420099344
 11
135.3750646509
 21
160.4715803626
  0
LINE
  5
3E7
100
AcDbEntity
  8
0
100
AcDbLine
 62
7
  6
BYLAYER
 10
136.0576109153
 20
156.6715803626
 11
135.9931930833
 21
149.2900279546
  0
LINE
  5
3E8
100
AcDbEntity
  8
0
100
AcDbLine
 62
7
  6
BYLAYER
 10
137.2157526009
 20
176.5956206182
 11
137.0750646479
 21
160.4715803626
  0
LINE
  5
3E9
100
AcDbEntity
  8
0
100
AcDbLine
 62
7
  6
BYLAYER
 10
137.6993480116
 20
174.7152244942
 11
137.5750456124
 21
160.4715803626
  0
LINE
  5
3EA
100
AcDbEntity
  8
0
100
AcDbLine
 62
7
  6
BYLAYER
 10
137.7921594069
 20
149.1715803626
 11
137.8750646509
 21
158.6715803626
  0
LINE
  5
3EB
100
AcDbEntity
  8
0
100
AcDbLine
 62
7
  6
BYLAYER
 10
138.4921594069
 20
149.1715803626
 11
138.5575537922
 21
156.6650347043
  0
LINE
  5
3EC
100
AcDbEntity
  8
0
100
AcDbLine
 62
7
  6
BYLAYER
 10
111.608741636
 20
164.4715803626
 11
112.1860919052
 21
164.9715803626
  0
LWPOLYLINE
  5
3ED
100
AcDbEntity
  8
0
100
AcDbPolyline
 62
7
  6
BYLAYER
 90
3
 70
0
 10
29.1543742731
 20
179.7799368802
 10
29.1933052217
 20
179.7856939863
 10
29.2341917217
 20
179.7933410734
  0
LWPOLYLINE
  5
3EE
100
AcDbEntity
  8
0
100
AcDbPolyline
 62
7
  6
BYLAYER
 90
8
 70
0
 10
29.1472445502
 20
179.7790684766
 10
29.1764137524
 20
179.7830365693
 10
29.2082133437
 20
179.7883158394
 10
29.2416110755
 20
179.7949243902
 10
29.2754319496
 20
179.8027184535
 10
29.3084311106
 20
179.8113811401
 10
29.3394430444
 20
179.8204636984
 10
29.3672368096
 20
179.8293693289
  0
LINE
  5
3EF
100
AcDbEntity
  8
0
100
AcDbLine
 62
7
  6
BYLAYER
 10
29.1826496983
 20
179.7840404745
 11
29.0981329929
 21
179.77428349
  0
LINE
  5
3F0
100
AcDbEntity
  8
0
100
AcDbLine
 62
7
  6
BYLAYER
 10
29.1704874844
 20
179.78218294
 11
29.0958011815
 21
179.7740975383
  0
LINE
  5
3F1
100
AcDbEntity
  8
0
100
AcDbLine
 62
7
  6
BYLAYER
 10
198.8250646509
 20
189.2215803626
 11
45.8250646509
 21
189.2215803626
  0
LINE
  5
3F2
100
AcDbEntity
  8
0
100
AcDbLine
 62
7
  6
BYLAYER
 10
223.8250646509
 20
190.2715803626
 11
204.3250646509
 21
190.2715803626
  0
LINE
  5
3F3
100
AcDbEntity
  8
0
100
AcDbLine
 62
7
  6
BYLAYER
 10
223.8250646509
 20
190.7365250878
 11
204.3250646509
 21
190.7365250878
  0
LINE
  5
3F4
100
AcDbEntity
  8
0
100
AcDbLine
 62
7
  6
BYLAYER
 10
198.8250646509
 20
190.9715803626
 11
45.8250646509
 21
190.9715803626
  0
LINE
  5
3F5
100
AcDbEntity
  8
0
100
AcDbLine
 62
7
  6
BYLAYER
 10
38.0250646509
 20
191.2715803626
 11
28.0250646509
 21
191.2715803626
  0
LINE
  5
3F6
100
AcDbEntity
  8
0
100
AcDbLine
 62
7
  6
BYLAYER
 10
223.8250646509
 20
191.4715803626
 11
45.8250646509
 21
191.4715803628
  0
LINE
  5
3F7
100
AcDbEntity
  8
0
100
AcDbLine
 62
7
  6
BYLAYER
 10
198.8250646509
 20
191.9715803626
 11
45.8250646509
 21
191.9715803626
  0
LINE
  5
3F8
100
AcDbEntity
  8
0
100
AcDbLine
 62
7
  6
BYLAYER
 10
28.0250646509
 20
192.5215803626
 11
43.5250646509
 21
192.5215803626
  0
LINE
  5
3F9
100
AcDbEntity
  8
0
100
AcDbLine
 62
7
  6
BYLAYER
 10
45.825130359
 20
192.7715803626
 11
43.5250646509
 21
192.7715803625
  0
LINE
  5
3FA
100
AcDbEntity
  8
0
100
AcDbLine
 62
7
  6
BYLAYER
 10
223.8250646509
 20
193.7715803626
 11
198.8250646509
 21
193.7715803626
  0
LINE
  5
3FB
100
AcDbEntity
  8
0
100
AcDbLine
 62
7
  6
BYLAYER
 10
28.0250646509
 20
193.7715803626
 11
45.8250646509
 21
193.7715803626
  0
LINE
  5
3FC
100
AcDbEntity
  8
0
100
AcDbLine
 62
7
  6
BYLAYER
 10
198.8250646509
 20
194.1465803626
 11
45.8250646509
 21
194.1465803626
  0
LINE
  5
3FD
100
AcDbEntity
  8
0
100
AcDbLine
 62
7
  6
BYLAYER
 10
198.8250646509
 20
194.9338112284
 11
187.8250646509
 21
194.9338112284
  0
LINE
  5
3FE
100
AcDbEntity
  8
0
100
AcDbLine
 62
7
  6
BYLAYER
 10
223.8250646509
 20
197.5575675876
 11
204.3250646509
 21
197.5575675876
  0
LINE
  5
3FF
100
AcDbEntity
  8
0
100
AcDbLine
 62
7
  6
BYLAYER
 10
172.5413876658
 20
164.4715803626
 11
171.9640373966
 21
164.9715803626
  0
LINE
  5
400
100
AcDbEntity
  8
0
100
AcDbLine
 62
7
  6
BYLAYER
 10
152.9757394838
 20
164.2709055378
 11
153.3750646509
 21
160.4715803626
  0
LINE
  5
401
100
AcDbEntity
  8
0
100
AcDbLine
 62
7
  6
BYLAYER
 10
151.8100326896
 20
182.7151582339
 11
152.050147961
 21
179.9706281241
  0
LINE
  5
402
100
AcDbEntity
  8
0
100
AcDbLine
 62
7
  6
BYLAYER
 10
145.6579698949
 20
149.1715803626
 11
145.5926720439
 21
156.6539729696
  0
LINE
  5
403
100
AcDbEntity
  8
0
100
AcDbLine
 62
7
  6
BYLAYER
 10
146.3579698949
 20
149.1715803626
 11
146.2750646509
 21
158.6715803626
  0
LINE
  5
404
100
AcDbEntity
  8
0
100
AcDbLine
 62
7
  6
BYLAYER
 10
146.4507812902
 20
174.7152244946
 11
146.5750836894
 21
160.4715803626
  0
LINE
  5
405
100
AcDbEntity
  8
0
100
AcDbLine
 62
7
  6
BYLAYER
 10
148.0925183865
 20
156.6715803626
 11
148.1569362184
 21
149.2900279546
  0
LINE
  5
406
100
AcDbEntity
  8
0
100
AcDbLine
 62
7
  6
BYLAYER
 10
148.704635079
 20
168.5420099344
 11
148.7750646509
 21
160.4715803626
  0
LINE
  5
407
100
AcDbEntity
  8
0
100
AcDbLine
 62
7
  6
BYLAYER
 10
150.0793900071
 20
171.1759436303
 11
150.2714191762
 21
149.1715803626
  0
LINE
  5
408
100
AcDbEntity
  8
0
100
AcDbLine
 62
7
  6
BYLAYER
 10
153.2075087891
 20
179.6715803893
 11
153.3750646509
 21
160.4715803626
  0
LINE
  5
409
100
AcDbEntity
  8
0
100
AcDbLine
 62
7
  6
BYLAYER
 10
147.0750646509
 20
160.4715803626
 11
146.9343766966
 21
176.5956211774
  0
LINE
  5
40A
100
AcDbEntity
  8
0
100
AcDbLine
 62
7
  6
BYLAYER
 10
146.738591296
 20
156.6715803626
 11
146.789316215
 21
149.1715803626
  0
LINE
  5
40B
100
AcDbEntity
  8
0
100
AcDbLine
 62
7
  6
BYLAYER
 10
145.2750646509
 20
179.9715803626
 11
145.2750646509
 21
171.6715803626
  0
LINE
  5
40C
100
AcDbEntity
  8
0
100
AcDbLine
 62
7
  6
BYLAYER
 10
145.9527742667
 20
165.6454007561
 11
145.9527742667
 21
162.6715803626
  0
LINE
  5
40D
100
AcDbEntity
  8
0
100
AcDbLine
 62
7
  6
BYLAYER
 10
145.9750646509
 20
181.9715803626
 11
145.9750646509
 21
179.9715803626
  0
LINE
  5
40E
100
AcDbEntity
  8
0
100
AcDbLine
 62
7
  6
BYLAYER
 10
146.0750646509
 20
179.6715803626
 11
146.0750646509
 21
172.6715803626
  0
LINE
  5
40F
100
AcDbEntity
  8
0
100
AcDbLine
 62
7
  6
BYLAYER
 10
146.4750646509
 20
167.2715803626
 11
146.4750646509
 21
169.2715803626
  0
LINE
  5
410
100
AcDbEntity
  8
0
100
AcDbLine
 62
7
  6
BYLAYER
 10
146.9750646584
 20
182.4715803626
 11
146.9750646526
 21
179.9715803626
  0
LINE
  5
411
100
AcDbEntity
  8
0
100
AcDbLine
 62
7
  6
BYLAYER
 10
148.0750646509
 20
149.1715803626
 11
148.0750646509
 21
82.6715803626
  0
LINE
  5
412
100
AcDbEntity
  8
0
100
AcDbLine
 62
7
  6
BYLAYER
 10
150.0750646509
 20
179.6715803626
 11
150.0750646509
 21
172.6715803626
  0
LINE
  5
413
100
AcDbEntity
  8
0
100
AcDbLine
 62
7
  6
BYLAYER
 10
151.0750646471
 20
182.4715803626
 11
151.0750646492
 21
179.9715803626
  0
LINE
  5
414
100
AcDbEntity
  8
0
100
AcDbLine
 62
7
  6
BYLAYER
 10
152.0750646509
 20
181.9715803626
 11
152.0750646509
 21
169.4715803626
  0
LINE
  5
415
100
AcDbEntity
  8
0
100
AcDbLine
 62
7
  6
BYLAYER
 10
152.0750646509
 20
156.6715803626
 11
152.0750646509
 21
154.1715803549
  0
LINE
  5
416
100
AcDbEntity
  8
0
100
AcDbLine
 62
7
  6
BYLAYER
 10
152.8750646509
 20
156.4715803626
 11
152.8750646509
 21
164.4715803626
  0
LINE
  5
417
100
AcDbEntity
  8
0
100
AcDbLine
 62
7
  6
BYLAYER
 10
153.3750646509
 20
168.4715803626
 11
153.3750646509
 21
173.9849734878
  0
LINE
  5
418
100
AcDbEntity
  8
0
100
AcDbLine
 62
7
  6
BYLAYER
 10
153.5750646509
 20
164.4715803626
 11
153.5750646509
 21
156.4715803626
  0
LINE
  5
419
100
AcDbEntity
  8
0
100
AcDbLine
 62
7
  6
BYLAYER
 10
154.0750646509
 20
149.1715803626
 11
154.0750646509
 21
81.6715803626
  0
LINE
  5
41A
100
AcDbEntity
  8
0
100
AcDbLine
 62
7
  6
BYLAYER
 10
145.327227493
 20
156.9194175204
 11
145.4123333288
 21
166.6715803626
  0
LINE
  5
41B
100
AcDbEntity
  8
0
100
AcDbLine
 62
7
  6
BYLAYER
 10
146.0751788817
 20
179.6715803626
 11
145.9527742667
 21
165.6454007561
  0
LINE
  5
41C
100
AcDbEntity
  8
0
100
AcDbLine
 62
7
  6
BYLAYER
 10
146.0750646509
 20
156.6715803626
 11
146.1274258576
 21
162.6715803626
  0
LINE
  5
41D
100
AcDbEntity
  8
0
100
AcDbLine
 62
7
  6
BYLAYER
 10
146.5750836893
 20
160.4715803626
 11
146.4764700833
 21
149.1715803626
  0
LINE
  5
41E
100
AcDbEntity
  8
0
100
AcDbLine
 62
7
  6
BYLAYER
 10
147.0750646509
 20
160.4715803626
 11
146.9764510448
 21
149.1715803626
  0
LINE
  5
41F
100
AcDbEntity
  8
0
100
AcDbLine
 62
7
  6
BYLAYER
 10
148.5750646509
 20
162.6715803626
 11
148.7234214033
 21
179.6715803626
  0
LINE
  5
420
100
AcDbEntity
  8
0
100
AcDbLine
 62
7
  6
BYLAYER
 10
149.0750646509
 20
179.6715803626
 11
148.9526600358
 21
165.6454007561
  0
LINE
  5
421
100
AcDbEntity
  8
0
100
AcDbLine
 62
7
  6
BYLAYER
 10
149.0750646509
 20
160.4715803626
 11
148.9764510448
 21
149.1715803626
  0
LINE
  5
422
100
AcDbEntity
  8
0
100
AcDbLine
 62
7
  6
BYLAYER
 10
149.1885139322
 20
156.4715803626
 11
149.1248077973
 21
149.1715803626
  0
LINE
  5
423
100
AcDbEntity
  8
0
100
AcDbLine
 62
7
  6
BYLAYER
 10
149.2454179631
 20
149.1715803626
 11
149.309124098
 21
156.4715803626
  0
LINE
  5
424
100
AcDbEntity
  8
0
100
AcDbLine
 62
7
  6
BYLAYER
 10
149.5663377831
 20
166.6715803626
 11
149.6797870644
 21
179.6715803626
  0
LINE
  5
425
100
AcDbEntity
  8
0
100
AcDbLine
 62
7
  6
BYLAYER
 10
152.8750646509
 20
164.4715803626
 11
152.7415435737
 21
149.1715803626
  0
LINE
  5
426
100
AcDbEntity
  8
0
100
AcDbLine
 62
7
  6
BYLAYER
 10
152.8750836894
 20
160.4715803625
 11
152.7764700833
 21
149.1715803626
  0
LINE
  5
427
100
AcDbEntity
  8
0
100
AcDbLine
 62
7
  6
BYLAYER
 10
153.1846395428
 20
156.4715803626
 11
153.1209334079
 21
149.1715803626
  0
LINE
  5
428
100
AcDbEntity
  8
0
100
AcDbLine
 62
7
  6
BYLAYER
 10
153.3750646509
 20
164.4715803626
 11
153.2415435737
 21
149.1715803626
  0
LINE
  5
429
100
AcDbEntity
  8
0
100
AcDbLine
 62
7
  6
BYLAYER
 10
153.3750646509
 20
160.4715803626
 11
153.2764510448
 21
149.1715803626
  0
LINE
  5
42A
100
AcDbEntity
  8
0
100
AcDbLine
 62
7
  6
BYLAYER
 10
145.9400966121
 20
182.7151582339
 11
145.7000646509
 21
179.9715803626
  0
LINE
  5
42B
100
AcDbEntity
  8
0
100
AcDbLine
 62
7
  6
BYLAYER
 10
130.5224421892
 20
163.6189559208
 11
136.1750646509
 21
169.2715803626
  0
LWPOLYLINE
  5
42C
100
AcDbEntity
  8
0
100
AcDbPolyline
 62
7
  6
BYLAYER
 90
3
 70
0
 10
29.2760280318
 20
179.8028473001
 10
29.3178340824
 20
179.8140246108
 10
29.358631677
 20
179.8265248826
  0
LINE
  5
42D
100
AcDbEntity
  8
0
100
AcDbLine
 62
7
  6
BYLAYER
 10
28.0250646509
 20
199.2715803626
 11
198.8250646509
 21
199.2715803626
  0
LINE
  5
42E
100
AcDbEntity
  8
0
100
AcDbLine
 62
7
  6
BYLAYER
 10
198.8250646509
 20
199.3217059915
 11
45.8250646509
 21
199.3217059915
  0
LINE
  5
42F
100
AcDbEntity
  8
0
100
AcDbLine
 62
7
  6
BYLAYER
 10
28.0250646509
 20
202.7715803626
 11
198.8250646509
 21
202.7715803626
  0
LINE
  5
430
100
AcDbEntity
  8
0
100
AcDbLine
 62
7
  6
BYLAYER
 10
28.0250646509
 20
206.2715803626
 11
45.8250646509
 21
206.2715803626
  0
LINE
  5
431
100
AcDbEntity
  8
0
100
AcDbLine
 62
7
  6
BYLAYER
 10
187.8250646509
 20
207.3279295487
 11
45.8250646509
 21
207.3279295487
  0
LINE
  5
432
100
AcDbEntity
  8
0
100
AcDbLine
 62
7
  6
BYLAYER
 10
28.0250646509
 20
208.7652858572
 11
45.8250646509
 21
208.7652858572
  0
LINE
  5
433
100
AcDbEntity
  8
0
100
AcDbLine
 62
7
  6
BYLAYER
 10
169.3082261583
 20
164.4715803626
 11
169.0195510238
 21
164.9715803626
  0
LINE
  5
434
100
AcDbEntity
  8
0
100
AcDbLine
 62
7
  6
BYLAYER
 10
157.9703209646
 20
172.4715803626
 11
158.0750646509
 21
168.4715803626
  0
LINE
  5
435
100
AcDbEntity
  8
0
100
AcDbLine
 62
7
  6
BYLAYER
 10
154.7750646509
 20
168.4715803626
 11
154.7750646509
 21
173.9715803626
  0
LINE
  5
436
100
AcDbEntity
  8
0
100
AcDbLine
 62
7
  6
BYLAYER
 10
157.0750646509
 20
179.6715803626
 11
157.0750646519
 21
168.4715803626
  0
LINE
  5
437
100
AcDbEntity
  8
0
100
AcDbLine
 62
7
  6
BYLAYER
 10
157.3750646509
 20
172.6715803626
 11
157.3750646509
 21
160.4715803626
  0
LINE
  5
438
100
AcDbEntity
  8
0
100
AcDbLine
 62
7
  6
BYLAYER
 10
157.7750646509
 20
175.4715803626
 11
157.7750646509
 21
173.4715803626
  0
LINE
  5
439
100
AcDbEntity
  8
0
100
AcDbLine
 62
7
  6
BYLAYER
 10
158.6750646509
 20
76.1715803626
 11
158.6750646509
 21
75.0715803626
  0
LINE
  5
43A
100
AcDbEntity
  8
0
100
AcDbLine
 62
7
  6
BYLAYER
 10
159.2436489379
 20
301.9715803626
 11
159.2436489379
 21
291.9715803626
  0
LINE
  5
43B
100
AcDbEntity
  8
0
100
AcDbLine
 62
7
  6
BYLAYER
 10
160.0750646509
 20
168.4715803626
 11
160.0750646509
 21
173.4715803626
  0
LINE
  5
43C
100
AcDbEntity
  8
0
100
AcDbLine
 62
7
  6
BYLAYER
 10
160.1860919051
 20
164.9715803626
 11
160.1860919052
 21
171.4715803626
  0
LINE
  5
43D
100
AcDbEntity
  8
0
100
AcDbLine
 62
7
  6
BYLAYER
 10
160.5750646509
 20
156.4715803626
 11
160.5750646509
 21
160.4715803626
  0
LINE
  5
43E
100
AcDbEntity
  8
0
100
AcDbLine
 62
7
  6
BYLAYER
 10
162.8250646509
 20
173.4715803626
 11
162.8250646509
 21
171.4715803626
  0
LINE
  5
43F
100
AcDbEntity
  8
0
100
AcDbLine
 62
7
  6
BYLAYER
 10
162.9750646509
 20
160.4715803626
 11
162.9750646509
 21
164.4715803626
  0
LINE
  5
440
100
AcDbEntity
  8
0
100
AcDbLine
 62
7
  6
BYLAYER
 10
163.130578278
 20
164.9715803626
 11
163.130578278
 21
171.4715803626
  0
LINE
  5
441
100
AcDbEntity
  8
0
100
AcDbLine
 62
7
  6
BYLAYER
 10
163.3750646509
 20
168.4715803626
 11
163.3750646509
 21
164.4715803626
  0
LINE
  5
442
100
AcDbEntity
  8
0
100
AcDbLine
 62
7
  6
BYLAYER
 10
163.5750646509
 20
160.4715803626
 11
163.5750646509
 21
164.4715803626
  0
LINE
  5
443
100
AcDbEntity
  8
0
100
AcDbLine
 62
7
  6
BYLAYER
 10
155.1798083372
 20
172.4715803626
 11
155.0750646509
 21
168.4715803626
  0
LWPOLYLINE
  5
444
100
AcDbEntity
  8
0
100
AcDbPolyline
 62
7
  6
BYLAYER
 90
4
 70
0
 10
134.5751482119
 20
75.164486238
 10
134.4516532959
 20
74.6831036506
 10
134.1124193007
 20
74.3210951002
 10
133.6391950711
 20
74.1665665464
  0
LINE
  5
445
100
AcDbEntity
  8
0
100
AcDbLine
 62
7
  6
BYLAYER
 10
140.5750646509
 20
158.6715803626
 11
138.5574572579
 21
156.6539729696
  0
LINE
  5
446
100
AcDbEntity
  8
0
100
AcDbLine
 62
7
  6
BYLAYER
 10
187.8250646509
 20
210.6093494967
 11
198.8250646509
 21
210.6093494967
  0
LINE
  5
447
100
AcDbEntity
  8
0
100
AcDbLine
 62
7
  6
BYLAYER
 10
198.8250646509
 20
211.3965803626
 11
45.8250646509
 21
211.3965803626
  0
LINE
  5
448
100
AcDbEntity
  8
0
100
AcDbLine
 62
7
  6
BYLAYER
 10
220.6464091156
 20
211.7715803626
 11
198.8250646509
 21
211.7715803626
  0
LINE
  5
449
100
AcDbEntity
  8
0
100
AcDbLine
 62
7
  6
BYLAYER
 10
28.0250646509
 20
213.0215803626
 11
45.8250646509
 21
213.0215803626
  0
LINE
  5
44A
100
AcDbEntity
  8
0
100
AcDbLine
 62
7
  6
BYLAYER
 10
198.8250646509
 20
213.631483677
 11
45.8250646509
 21
213.631483677
  0
LINE
  5
44B
100
AcDbEntity
  8
0
100
AcDbLine
 62
7
  6
BYLAYER
 10
198.8250646509
 20
214.7279295487
 11
187.8250646509
 21
214.7279295487
  0
LINE
  5
44C
100
AcDbEntity
  8
0
100
AcDbLine
 62
7
  6
BYLAYER
 10
198.8250646509
 20
214.8279295487
 11
187.8250646509
 21
214.8279295487
  0
LINE
  5
44D
100
AcDbEntity
  8
0
100
AcDbLine
 62
7
  6
BYLAYER
 10
219.4753254974
 20
215.2715803626
 11
204.3250646509
 21
215.2715803626
  0
LINE
  5
44E
100
AcDbEntity
  8
0
100
AcDbLine
 62
7
  6
BYLAYER
 10
28.0250646509
 20
215.5082045387
 11
45.8250646509
 21
215.5082045387
  0
LINE
  5
44F
100
AcDbEntity
  8
0
100
AcDbLine
 62
7
  6
BYLAYER
 10
198.8250646509
 20
216.5779295487
 11
45.8250646509
 21
216.5779295487
  0
LINE
  5
450
100
AcDbEntity
  8
0
100
AcDbLine
 62
7
  6
BYLAYER
 10
45.8250646509
 20
217.4715803687
 11
28.0250646509
 21
217.4715803825
  0
LINE
  5
451
100
AcDbEntity
  8
0
100
AcDbLine
 62
7
  6
BYLAYER
 10
168.0750646509
 20
301.9715803626
 11
168.0750646509
 21
291.9715803626
  0
LINE
  5
452
100
AcDbEntity
  8
0
100
AcDbLine
 62
7
  6
BYLAYER
 10
168.5750646509
 20
160.4715803626
 11
168.5750646509
 21
164.4715803626
  0
LINE
  5
453
100
AcDbEntity
  8
0
100
AcDbLine
 62
7
  6
BYLAYER
 10
168.7750646509
 20
168.4715803626
 11
168.7750646509
 21
164.4715803626
  0
LINE
  5
454
100
AcDbEntity
  8
0
100
AcDbLine
 62
7
  6
BYLAYER
 10
169.0195510237
 20
164.9715803626
 11
169.0195510237
 21
171.4715803626
  0
LINE
  5
455
100
AcDbEntity
  8
0
100
AcDbLine
 62
7
  6
BYLAYER
 10
169.1750646509
 20
160.4715803626
 11
169.1750646509
 21
164.4715803626
  0
LINE
  5
456
100
AcDbEntity
  8
0
100
AcDbLine
 62
7
  6
BYLAYER
 10
169.3250646509
 20
173.4715803626
 11
169.3250646509
 21
171.4715803626
  0
LINE
  5
457
100
AcDbEntity
  8
0
100
AcDbLine
 62
7
  6
BYLAYER
 10
169.6359537833
 20
301.9715803626
 11
169.6359537833
 21
291.9715803626
  0
LINE
  5
458
100
AcDbEntity
  8
0
100
AcDbLine
 62
7
  6
BYLAYER
 10
170.1750646509
 20
259.5715803626
 11
170.1750646509
 21
270.0715803626
  0
LINE
  5
459
100
AcDbEntity
  8
0
100
AcDbLine
 62
7
  6
BYLAYER
 10
171.5750646509
 20
156.4715803626
 11
171.5750646509
 21
160.4715803626
  0
LINE
  5
45A
100
AcDbEntity
  8
0
100
AcDbLine
 62
7
  6
BYLAYER
 10
171.9640373966
 20
164.9715803626
 11
171.9640373966
 21
171.4715803626
  0
LINE
  5
45B
100
AcDbEntity
  8
0
100
AcDbLine
 62
7
  6
BYLAYER
 10
172.0750646509
 20
168.4715803626
 11
172.0750646509
 21
173.4715803626
  0
LINE
  5
45C
100
AcDbEntity
  8
0
100
AcDbLine
 62
7
  6
BYLAYER
 10
174.3750646509
 20
175.4715803626
 11
174.3750646509
 21
173.4715803626
  0
LINE
  5
45D
100
AcDbEntity
  8
0
100
AcDbLine
 62
7
  6
BYLAYER
 10
174.7750646509
 20
172.6715803626
 11
174.7750646509
 21
160.4715803626
  0
LINE
  5
45E
100
AcDbEntity
  8
0
100
AcDbLine
 62
7
  6
BYLAYER
 10
162.8419031434
 20
164.4715803626
 11
163.130578278
 21
164.9715803626
  0
LINE
  5
45F
100
AcDbEntity
  8
0
100
AcDbLine
 62
7
  6
BYLAYER
 10
159.608741636
 20
164.4715803626
 11
160.1860919052
 21
164.9715803626
  0
LINE
  5
460
100
AcDbEntity
  8
0
100
AcDbLine
 62
7
  6
BYLAYER
 10
28.0250646509
 20
221.136745198
 11
45.8250646509
 21
221.136745198
  0
LINE
  5
461
100
AcDbEntity
  8
0
100
AcDbLine
 62
7
  6
BYLAYER
 10
45.8250646509
 20
225.4715803626
 11
30.0250646509
 21
225.4715803626
  0
LINE
  5
462
100
AcDbEntity
  8
0
100
AcDbLine
 62
7
  6
BYLAYER
 10
45.8250646509
 20
226.4715803626
 11
33.5250646509
 21
226.4715803626
  0
LINE
  5
463
100
AcDbEntity
  8
0
100
AcDbLine
 62
7
  6
BYLAYER
 10
215.4601816633
 20
227.2715803626
 11
187.8250646509
 21
227.2715803626
  0
LINE
  5
464
100
AcDbEntity
  8
0
100
AcDbLine
 62
7
  6
BYLAYER
 10
66.3750646509
 20
271.0911064371
 11
67.1750646509
 21
270.5715803626
  0
LINE
  5
465
100
AcDbEntity
  8
0
100
AcDbLine
 62
7
  6
BYLAYER
 10
178.7750646509
 20
160.4715803626
 11
178.8736782569
 21
149.1715803626
  0
LINE
  5
466
100
AcDbEntity
  8
0
100
AcDbLine
 62
7
  6
BYLAYER
 10
178.7750646509
 20
164.4715803626
 11
178.9085857281
 21
149.1715803626
  0
LINE
  5
467
100
AcDbEntity
  8
0
100
AcDbLine
 62
7
  6
BYLAYER
 10
178.965489758
 20
156.4715803626
 11
179.0291958929
 21
149.1715803625
  0
LINE
  5
468
100
AcDbEntity
  8
0
100
AcDbLine
 62
7
  6
BYLAYER
 10
179.2750456124
 20
160.4715803625
 11
179.3736592185
 21
149.1715803626
  0
LINE
  5
469
100
AcDbEntity
  8
0
100
AcDbLine
 62
7
  6
BYLAYER
 10
179.2750646509
 20
164.4715803626
 11
179.4085857281
 21
149.1715803626
  0
LINE
  5
46A
100
AcDbEntity
  8
0
100
AcDbLine
 62
7
  6
BYLAYER
 10
182.9047113387
 20
149.1715803626
 11
182.8410052038
 21
156.4715803626
  0
LINE
  5
46B
100
AcDbEntity
  8
0
100
AcDbLine
 62
7
  6
BYLAYER
 10
182.9616153696
 20
156.4715803626
 11
183.0253215045
 21
149.1715803626
  0
LINE
  5
46C
100
AcDbEntity
  8
0
100
AcDbLine
 62
7
  6
BYLAYER
 10
183.0750646509
 20
160.4715803626
 11
183.1736782569
 21
149.1715803626
  0
LINE
  5
46D
100
AcDbEntity
  8
0
100
AcDbLine
 62
7
  6
BYLAYER
 10
185.0750646509
 20
160.4715803626
 11
185.1736782569
 21
149.1715803626
  0
LINE
  5
46E
100
AcDbEntity
  8
0
100
AcDbLine
 62
7
  6
BYLAYER
 10
185.4252245734
 20
160.4715803639
 11
185.3506444056
 21
174.71521304
  0
LINE
  5
46F
100
AcDbEntity
  8
0
100
AcDbLine
 62
7
  6
BYLAYER
 10
176.5750646509
 20
301.9715803626
 11
176.5750646509
 21
291.9715803626
  0
LINE
  5
470
100
AcDbEntity
  8
0
100
AcDbLine
 62
7
  6
BYLAYER
 10
177.3750646509
 20
168.4715803626
 11
177.3750646509
 21
173.9715803626
  0
LINE
  5
471
100
AcDbEntity
  8
0
100
AcDbLine
 62
7
  6
BYLAYER
 10
178.0750646509
 20
149.1715803626
 11
178.0750646509
 21
81.6715803626
  0
LINE
  5
472
100
AcDbEntity
  8
0
100
AcDbLine
 62
7
  6
BYLAYER
 10
178.2750646509
 20
256.5715803626
 11
178.2750646509
 21
258.5715803626
  0
LINE
  5
473
100
AcDbEntity
  8
0
100
AcDbLine
 62
7
  6
BYLAYER
 10
178.2750646509
 20
271.0911064371
 11
178.2750646509
 21
273.0715803626
  0
LINE
  5
474
100
AcDbEntity
  8
0
100
AcDbLine
 62
7
  6
BYLAYER
 10
178.5750646509
 20
164.4715803626
 11
178.5750646509
 21
156.4715803626
  0
LINE
  5
475
100
AcDbEntity
  8
0
100
AcDbLine
 62
7
  6
BYLAYER
 10
178.7750646509
 20
168.4715803626
 11
178.7750646509
 21
173.9715803626
  0
LINE
  5
476
100
AcDbEntity
  8
0
100
AcDbLine
 62
7
  6
BYLAYER
 10
179.2750646509
 20
156.4715803626
 11
179.2750646509
 21
164.4715803626
  0
LINE
  5
477
100
AcDbEntity
  8
0
100
AcDbLine
 62
7
  6
BYLAYER
 10
180.0750646509
 20
156.6715803626
 11
180.0750646509
 21
154.1716569994
  0
LINE
  5
478
100
AcDbEntity
  8
0
100
AcDbLine
 62
7
  6
BYLAYER
 10
180.4750646509
 20
76.1715803626
 11
180.4750646509
 21
75.0715803626
  0
LINE
  5
479
100
AcDbEntity
  8
0
100
AcDbLine
 62
7
  6
BYLAYER
 10
182.0750646509
 20
179.6715803626
 11
182.0750646496
 21
168.4715803626
  0
LINE
  5
47A
100
AcDbEntity
  8
0
100
AcDbLine
 62
7
  6
BYLAYER
 10
182.8250646509
 20
273.0715803626
 11
182.8250646509
 21
256.5715803626
  0
LINE
  5
47B
100
AcDbEntity
  8
0
100
AcDbLine
 62
7
  6
BYLAYER
 10
184.0750646509
 20
149.1715803626
 11
184.0750646509
 21
82.6715803626
  0
LINE
  5
47C
100
AcDbEntity
  8
0
100
AcDbLine
 62
7
  6
BYLAYER
 10
185.4250646509
 20
149.1715803626
 11
185.4250646509
 21
81.6715803626
  0
LINE
  5
47D
100
AcDbEntity
  8
0
100
AcDbLine
 62
7
  6
BYLAYER
 10
178.9426205125
 20
179.6715803626
 11
178.7750646509
 21
160.4715803626
  0
LINE
  5
47E
100
AcDbEntity
  8
0
100
AcDbLine
 62
7
  6
BYLAYER
 10
183.4454942228
 20
168.5420099344
 11
183.3750646509
 21
160.4715803626
  0
LINE
  5
47F
100
AcDbEntity
  8
0
100
AcDbLine
 62
7
  6
BYLAYER
 10
185.2240975486
 20
177.5490589355
 11
185.0750646509
 21
160.4715803626
  0
LINE
  5
480
100
AcDbEntity
  8
0
100
AcDbLine
 62
7
  6
BYLAYER
 10
179.1743898178
 20
164.270905536
 11
178.7750646509
 21
160.4715803626
  0
LINE
  5
481
100
AcDbEntity
  8
0
100
AcDbLine
 62
7
  6
BYLAYER
 10
184.1750646509
 20
169.2715803626
 11
178.5225149401
 21
163.6190311832
  0
LINE
  5
482
100
AcDbEntity
  8
0
100
AcDbLine
 62
7
  6
BYLAYER
 10
190.3229619566
 20
179.9715803626
 11
190.4250646509
 21
160.4715803626
  0
LINE
  5
483
100
AcDbEntity
  8
0
100
AcDbLine
 62
7
  6
BYLAYER
 10
185.6750646509
 20
169.2715803626
 11
185.6750646509
 21
167.2715803626
  0
LINE
  5
484
100
AcDbEntity
  8
0
100
AcDbLine
 62
7
  6
BYLAYER
 10
187.0750646509
 20
179.9715803626
 11
187.0750646509
 21
169.4715803626
  0
LINE
  5
485
100
AcDbEntity
  8
0
100
AcDbLine
 62
7
  6
BYLAYER
 10
187.5750646509
 20
179.6715803626
 11
187.5750646509
 21
172.6715803626
  0
LINE
  5
486
100
AcDbEntity
  8
0
100
AcDbLine
 62
7
  6
BYLAYER
 10
187.5750646509
 20
81.6715803626
 11
187.5750646509
 21
76.1715803626
  0
LINE
  5
487
100
AcDbEntity
  8
0
100
AcDbLine
 62
7
  6
BYLAYER
 10
187.8250646509
 20
227.2715803626
 11
187.8250646509
 21
179.6715803626
  0
LINE
  5
488
100
AcDbEntity
  8
0
100
AcDbLine
 62
7
  6
BYLAYER
 10
187.8250646509
 20
167.2715803626
 11
187.8250646509
 21
175.0715803626
  0
LINE
  5
489
100
AcDbEntity
  8
0
100
AcDbLine
 62
7
  6
BYLAYER
 10
188.6750646509
 20
175.0715803626
 11
188.6750646509
 21
179.6715803626
  0
LINE
  5
48A
100
AcDbEntity
  8
0
100
AcDbLine
 62
7
  6
BYLAYER
 10
189.5750646509
 20
81.6715803626
 11
189.5750646509
 21
78.1715803626
  0
LINE
  5
48B
100
AcDbEntity
  8
0
100
AcDbLine
 62
7
  6
BYLAYER
 10
190.4250646509
 20
273.0715803626
 11
190.4250646509
 21
256.5715803626
  0
LINE
  5
48C
100
AcDbEntity
  8
0
100
AcDbLine
 62
7
  6
BYLAYER
 10
190.4250646509
 20
149.1715803626
 11
190.4250646509
 21
86.6715803626
  0
LINE
  5
48D
100
AcDbEntity
  8
0
100
AcDbLine
 62
7
  6
BYLAYER
 10
193.8250646509
 20
256.5715803626
 11
193.8250646509
 21
273.0715803626
  0
LINE
  5
48E
100
AcDbEntity
  8
0
100
AcDbLine
 62
7
  6
BYLAYER
 10
185.3660573712
 20
149.1715803626
 11
185.4252245735
 21
160.4715803626
  0
LINE
  5
48F
100
AcDbEntity
  8
0
100
AcDbLine
 62
7
  6
BYLAYER
 10
190.4250646509
 20
160.4715803626
 11
190.3658974485
 21
149.1715803626
  0
LINE
  5
490
100
AcDbEntity
  8
0
100
AcDbLine
 62
7
  6
BYLAYER
 10
185.8750646509
 20
156.6715803629
 11
185.8096131425
 21
149.1715803626
  0
LINE
  5
491
100
AcDbEntity
  8
0
100
AcDbLine
 62
7
  6
BYLAYER
 10
234.3250646509
 20
164.5715803626
 11
223.8250646509
 21
175.0715803626
  0
LINE
  5
492
100
AcDbEntity
  8
0
100
AcDbLine
 62
7
  6
BYLAYER
 10
198.8250646509
 20
175.0715803626
 11
198.8250646509
 21
291.9715803626
  0
LINE
  5
493
100
AcDbEntity
  8
0
100
AcDbLine
 62
7
  6
BYLAYER
 10
200.8802009222
 20
301.9715803626
 11
200.8802009222
 21
291.9715803626
  0
LINE
  5
494
100
AcDbEntity
  8
0
100
AcDbLine
 62
7
  6
BYLAYER
 10
203.8250646509
 20
158.6215803626
 11
203.8250646509
 21
155.7215803626
  0
LINE
  5
495
100
AcDbEntity
  8
0
100
AcDbLine
 62
7
  6
BYLAYER
 10
204.3250646509
 20
190.2715803626
 11
204.3250646509
 21
215.2715803626
  0
LINE
  5
496
100
AcDbEntity
  8
0
100
AcDbLine
 62
7
  6
BYLAYER
 10
205.7250646509
 20
160.7215803626
 11
205.7250646509
 21
155.7215803626
  0
LINE
  5
497
100
AcDbEntity
  8
0
100
AcDbLine
 62
7
  6
BYLAYER
 10
205.8250646509
 20
160.7215803626
 11
205.8250646509
 21
156.1215803626
  0
LINE
  5
498
100
AcDbEntity
  8
0
100
AcDbLine
 62
7
  6
BYLAYER
 10
51.3250646509
 20
256.0715803626
 11
65.8750646509
 21
256.0715803626
  0
LINE
  5
499
100
AcDbEntity
  8
0
100
AcDbLine
 62
7
  6
BYLAYER
 10
178.7750646509
 20
256.0715803626
 11
193.3250646509
 21
256.0715803626
  0
LINE
  5
49A
100
AcDbEntity
  8
0
100
AcDbLine
 62
7
  6
BYLAYER
 10
177.7750646509
 20
259.0715803626
 11
170.6750646509
 21
259.0715803626
  0
LINE
  5
49B
100
AcDbEntity
  8
0
100
AcDbLine
 62
7
  6
BYLAYER
 10
66.8750646509
 20
259.0715803626
 11
73.9750646509
 21
259.0715803626
  0
LINE
  5
49C
100
AcDbEntity
  8
0
100
AcDbLine
 62
7
  6
BYLAYER
 10
207.3250646509
 20
164.7215803626
 11
207.3250646509
 21
160.7215803626
  0
LINE
  5
49D
100
AcDbEntity
  8
0
100
AcDbLine
 62
7
  6
BYLAYER
 10
207.7250646509
 20
160.7215803626
 11
207.7250646509
 21
155.7215803626
  0
LINE
  5
49E
100
AcDbEntity
  8
0
100
AcDbLine
 62
7
  6
BYLAYER
 10
207.8250646509
 20
160.7215803626
 11
207.8250646509
 21
158.6215803626
  0
LINE
  5
49F
100
AcDbEntity
  8
0
100
AcDbLine
 62
7
  6
BYLAYER
 10
209.8250646509
 20
155.7215803626
 11
209.8250646509
 21
154.2215803626
  0
LINE
  5
4A0
100
AcDbEntity
  8
0
100
AcDbLine
 62
7
  6
BYLAYER
 10
210.1250646509
 20
160.7215803626
 11
210.1250646509
 21
156.1215803626
  0
LINE
  5
4A1
100
AcDbEntity
  8
0
100
AcDbLine
 62
7
  6
BYLAYER
 10
211.2725057676
 20
301.9715803626
 11
211.2725057676
 21
291.9715803626
  0
LINE
  5
4A2
100
AcDbEntity
  8
0
100
AcDbLine
 62
7
  6
BYLAYER
 10
213.0750646509
 20
301.9715803626
 11
213.0750646509
 21
291.9715803626
  0
LINE
  5
4A3
100
AcDbEntity
  8
0
100
AcDbLine
 62
7
  6
BYLAYER
 10
73.9750646509
 20
270.5715803626
 11
67.1750646509
 21
270.5715803626
  0
LINE
  5
4A4
100
AcDbEntity
  8
0
100
AcDbLine
 62
7
  6
BYLAYER
 10
170.6750646509
 20
270.5715803626
 11
177.4750646509
 21
270.5715803626
  0
LINE
  5
4A5
100
AcDbEntity
  8
0
100
AcDbLine
 62
7
  6
BYLAYER
 10
217.3250646509
 20
301.9715803626
 11
217.3250646509
 21
291.9715803626
  0
LINE
  5
4A6
100
AcDbEntity
  8
0
100
AcDbLine
 62
7
  6
BYLAYER
 10
219.5250646509
 20
160.7215803626
 11
219.5250646509
 21
156.1215803626
  0
LINE
  5
4A7
100
AcDbEntity
  8
0
100
AcDbLine
 62
7
  6
BYLAYER
 10
219.8250646509
 20
155.7215803626
 11
219.8250646509
 21
154.2215803626
  0
LINE
  5
4A8
100
AcDbEntity
  8
0
100
AcDbLine
 62
7
  6
BYLAYER
 10
220.8397832766
 20
301.9715803626
 11
220.8397832766
 21
291.9715803626
  0
LINE
  5
4A9
100
AcDbEntity
  8
0
100
AcDbLine
 62
7
  6
BYLAYER
 10
221.5750646509
 20
301.9715803626
 11
221.5750646509
 21
291.9715803626
  0
LINE
  5
4AA
100
AcDbEntity
  8
0
100
AcDbLine
 62
7
  6
BYLAYER
 10
221.8250646509
 20
160.7215803626
 11
221.8250646509
 21
158.6215803626
  0
LINE
  5
4AB
100
AcDbEntity
  8
0
100
AcDbLine
 62
7
  6
BYLAYER
 10
221.9250646509
 20
160.7215803626
 11
221.9250646509
 21
155.7215803626
  0
LINE
  5
4AC
100
AcDbEntity
  8
0
100
AcDbLine
 62
7
  6
BYLAYER
 10
222.3250646509
 20
164.7215803626
 11
222.3250646509
 21
160.7215803626
  0
LINE
  5
4AD
100
AcDbEntity
  8
0
100
AcDbLine
 62
7
  6
BYLAYER
 10
223.8250646509
 20
202.2715803626
 11
223.8250646509
 21
164.5715803626
  0
LINE
  5
4AE
100
AcDbEntity
  8
0
100
AcDbLine
 62
7
  6
BYLAYER
 10
223.8250646509
 20
160.7215803626
 11
223.8250646509
 21
156.1215803626
  0
LINE
  5
4AF
100
AcDbEntity
  8
0
100
AcDbLine
 62
7
  6
BYLAYER
 10
223.9250646509
 20
160.7215803626
 11
223.9250646509
 21
155.7215803626
  0
LINE
  5
4B0
100
AcDbEntity
  8
0
100
AcDbLine
 62
7
  6
BYLAYER
 10
225.8250646509
 20
158.6215803626
 11
225.8250646509
 21
155.7215803626
  0
LINE
  5
4B1
100
AcDbEntity
  8
0
100
AcDbLine
 62
7
  6
BYLAYER
 10
34.5250646509
 20
272.4207274015
 11
45.8250646509
 21
272.4207274015
  0
LINE
  5
4B2
100
AcDbEntity
  8
0
100
AcDbLine
 62
7
  6
BYLAYER
 10
51.3250646509
 20
273.5715803626
 11
65.8750646509
 21
273.5715803626
  0
LINE
  5
4B3
100
AcDbEntity
  8
0
100
AcDbLine
 62
7
  6
BYLAYER
 10
178.7750646509
 20
273.5715803626
 11
193.3250646509
 21
273.5715803626
  0
LINE
  5
4B4
100
AcDbEntity
  8
0
100
AcDbLine
 62
7
  6
BYLAYER
 10
198.8250646509
 20
275.1310903726
 11
45.8250646509
 21
275.1310903726
  0
LINE
  5
4B5
100
AcDbEntity
  8
0
100
AcDbLine
 62
7
  6
BYLAYER
 10
198.8250646509
 20
277.7715803626
 11
45.8250646509
 21
277.7715803626
  0
LINE
  5
4B6
100
AcDbEntity
  8
0
100
AcDbLine
 62
7
  6
BYLAYER
 10
34.5250646509
 20
277.9055549588
 11
45.8250646509
 21
277.9055549588
  0
LINE
  5
4B7
100
AcDbEntity
  8
0
100
AcDbLine
 62
7
  6
BYLAYER
 10
198.8250646509
 20
280.4715803626
 11
45.8250646509
 21
280.4715803626
  0
LINE
  5
4B8
100
AcDbEntity
  8
0
100
AcDbLine
 62
7
  6
BYLAYER
 10
198.8250646509
 20
280.7668182818
 11
45.8250646509
 21
280.7668182818
  0
LINE
  5
4B9
100
AcDbEntity
  8
0
100
AcDbLine
 62
7
  6
BYLAYER
 10
198.8250646509
 20
281.4715803626
 11
45.8250646509
 21
281.4715803626
  0
LINE
  5
4BA
100
AcDbEntity
  8
0
100
AcDbLine
 62
7
  6
BYLAYER
 10
215.4601816633
 20
227.2715803626
 11
223.8250646509
 21
202.2715803626
  0
LINE
  5
4BB
100
AcDbEntity
  8
0
100
AcDbLine
 62
7
  6
BYLAYER
 10
226.8103460251
 20
301.9715803626
 11
226.8103460251
 21
291.9715803626
  0
LINE
  5
4BC
100
AcDbEntity
  8
0
100
AcDbLine
 62
7
  6
BYLAYER
 10
228.7173694963
 20
301.9715803626
 11
228.7173694963
 21
291.9715803626
  0
LINE
  5
4BD
100
AcDbEntity
  8
0
100
AcDbLine
 62
7
  6
BYLAYER
 10
230.3250646509
 20
301.9715803626
 11
230.3250646509
 21
291.9715803626
  0
LINE
  5
4BE
100
AcDbEntity
  8
0
100
AcDbLine
 62
7
  6
BYLAYER
 10
236.8250646509
 20
164.5715803626
 11
236.8250646509
 21
160.7215803626
  0
LINE
  5
4BF
100
AcDbEntity
  8
0
100
AcDbLine
 62
7
  6
BYLAYER
 10
224.2585928304
 20
162.0715803625
 11
222.8250646509
 21
156.7215803626
  0
LINE
  5
4C0
100
AcDbEntity
  8
0
100
AcDbLine
 62
7
  6
BYLAYER
 10
198.8250646509
 20
282.2715803626
 11
45.8250646509
 21
282.2715803626
  0
LINE
  5
4C1
100
AcDbEntity
  8
0
100
AcDbLine
 62
7
  6
BYLAYER
 10
198.8250646509
 20
282.9715803626
 11
45.8250646509
 21
282.9715803626
  0
LINE
  5
4C2
100
AcDbEntity
  8
0
100
AcDbLine
 62
7
  6
BYLAYER
 10
198.8250646509
 20
285.7715803626
 11
45.8250646509
 21
285.7715803626
  0
LINE
  5
4C3
100
AcDbEntity
  8
0
100
AcDbLine
 62
7
  6
BYLAYER
 10
198.8250646509
 20
288.9715803626
 11
45.8250646509
 21
288.9715803626
  0
LINE
  5
4C4
100
AcDbEntity
  8
0
100
AcDbLine
 62
7
  6
BYLAYER
 10
33.5250646509
 20
291.2715803626
 11
45.8250646509
 21
291.2715803626
  0
LINE
  5
4C5
100
AcDbEntity
  8
0
100
AcDbLine
 62
7
  6
BYLAYER
 10
230.3250646509
 20
291.9715803626
 11
34.3250646509
 21
291.9715803626
  0
LINE
  5
4C6
100
AcDbEntity
  8
0
100
AcDbLine
 62
7
  6
BYLAYER
 10
230.3250646509
 20
301.9715803626
 11
139.3250646509
 21
301.9715803626
  0
LINE
  5
4C7
100
AcDbEntity
  8
0
100
AcDbLine
 62
7
  6
BYLAYER
 10
125.3250646509
 20
301.9715803626
 11
34.3250646509
 21
301.9715803626
  0
ARC
  5
4C8
100
AcDbEntity
  8
0
100
AcDbCircle
 62
7
  6
BYLAYER
 10
51.0750646509
 20
154.1715803626
 40
5.0
100
AcDbArc
 50
270.0
 51
0.0001463572
  0
ARC
  5
4C9
100
AcDbEntity
  8
0
100
AcDbCircle
 62
7
  6
BYLAYER
 10
50.7250646509
 20
86.6715803626
 40
5.0
100
AcDbArc
 50
180.0
 51
270.0
  0
ARC
  5
4CA
100
AcDbEntity
  8
0
100
AcDbCircle
 62
7
  6
BYLAYER
 10
48.5750646509
 20
77.9656865567
 40
2.0
100
AcDbArc
 50
180.0
 51
263.8906863842
  0
ARC
  5
4CB
100
AcDbEntity
  8
0
100
AcDbCircle
 62
7
  6
BYLAYER
 10
50.0750646509
 20
169.4715803626
 40
1.0
100
AcDbArc
 50
180.0
 51
270.0
  0
ARC
  5
4CC
100
AcDbEntity
  8
0
100
AcDbCircle
 62
7
  6
BYLAYER
 10
30.0250646509
 20
223.4715803626
 40
2.0
100
AcDbArc
 50
90.0
 51
180.0
  0
ARC
  5
4CD
100
AcDbEntity
  8
0
100
AcDbCircle
 62
7
  6
BYLAYER
 10
55.8750646509
 20
173.9715803626
 40
1.5
100
AcDbArc
 50
0.0
 51
90.0
  0
ARC
  5
4CE
100
AcDbEntity
  8
0
100
AcDbCircle
 62
7
  6
BYLAYER
 10
60.2750646509
 20
173.9715803626
 40
1.5
100
AcDbArc
 50
90.0
 51
180.0
  0
ARC
  5
4CF
100
AcDbEntity
  8
0
100
AcDbCircle
 62
7
  6
BYLAYER
 10
29.0250646509
 20
180.7715803626
 40
1.0
100
AcDbArc
 50
180.0
 51
269.999999866
  0
ARC
  5
4D0
100
AcDbEntity
  8
0
100
AcDbCircle
 62
7
  6
BYLAYER
 10
32.5250646509
 20
226.4715803626
 40
1.0
100
AcDbArc
 50
270.0
 51
360.0
  0
ARC
  5
4D1
100
AcDbEntity
  8
0
100
AcDbCircle
 62
7
  6
BYLAYER
 10
61.3250646509
 20
273.0715803626
 40
0.5
100
AcDbArc
 50
0.0
 51
90.0
  0
ARC
  5
4D2
100
AcDbEntity
  8
0
100
AcDbCircle
 62
7
  6
BYLAYER
 10
51.3250646509
 20
273.0715803626
 40
0.5
100
AcDbArc
 50
90.0
 51
180.0
  0
ARC
  5
4D3
100
AcDbEntity
  8
0
100
AcDbCircle
 62
7
  6
BYLAYER
 10
51.3250646509
 20
256.5715803626
 40
0.5
100
AcDbArc
 50
180.0
 51
270.0
  0
ARC
  5
4D4
100
AcDbEntity
  8
0
100
AcDbCircle
 62
7
  6
BYLAYER
 10
61.3250646509
 20
256.5715803626
 40
0.5
100
AcDbArc
 50
270.0
 51
360.0
  0
ARC
  5
4D5
100
AcDbEntity
  8
0
100
AcDbCircle
 62
7
  6
BYLAYER
 10
66.8750646509
 20
258.5715803626
 40
0.5
100
AcDbArc
 50
90.0
 51
180.0
  0
ARC
  5
4D6
100
AcDbEntity
  8
0
100
AcDbCircle
 62
7
  6
BYLAYER
 10
65.8750646509
 20
273.0715803626
 40
0.5
100
AcDbArc
 50
0.0
 51
90.0
  0
ARC
  5
4D7
100
AcDbEntity
  8
0
100
AcDbCircle
 62
7
  6
BYLAYER
 10
54.7250646509
 20
273.0715803626
 40
0.5
100
AcDbArc
 50
90.0
 51
180.0
  0
ARC
  5
4D8
100
AcDbEntity
  8
0
100
AcDbCircle
 62
7
  6
BYLAYER
 10
54.7250646509
 20
256.5715803626
 40
0.5
100
AcDbArc
 50
180.0
 51
270.0
  0
ARC
  5
4D9
100
AcDbEntity
  8
0
100
AcDbCircle
 62
7
  6
BYLAYER
 10
65.8750646509
 20
256.5715803626
 40
0.5
100
AcDbArc
 50
270.0
 51
360.0
  0
ARC
  5
4DA
100
AcDbEntity
  8
0
100
AcDbCircle
 62
7
  6
BYLAYER
 10
91.5751694445
 20
74.2375853897
 40
0.9999784256
100
AcDbArc
 50
268.8457093045
 51
359.9998297134
  0
ARC
  5
4DB
100
AcDbEntity
  8
0
100
AcDbCircle
 62
7
  6
BYLAYER
 10
78.9865810814
 20
167.6205955537
 40
7.6562554583
100
AcDbArc
 50
352.8797061929
 51
355.0838648956
  0
ARC
  5
4DC
100
AcDbEntity
  8
0
100
AcDbCircle
 62
7
  6
BYLAYER
 10
79.0435805956
 20
167.6146094901
 40
7.5989495137
100
AcDbArc
 50
352.8712210393
 51
355.0920029683
  0
ARC
  5
4DD
100
AcDbEntity
  8
0
100
AcDbCircle
 62
7
  6
BYLAYER
 10
89.0750646509
 20
154.1715803626
 40
5.0
100
AcDbArc
 50
180.0
 51
270.0
  0
ARC
  5
4DE
100
AcDbEntity
  8
0
100
AcDbCircle
 62
7
  6
BYLAYER
 10
87.0278997762
 20
167.7538685238
 40
3.8645356016
100
AcDbArc
 50
343.7364609843
 51
348.2134375602
  0
ARC
  5
4DF
100
AcDbEntity
  8
0
100
AcDbCircle
 62
7
  6
BYLAYER
 10
90.1973550351
 20
165.6715803626
 40
3.0
100
AcDbArc
 50
180.5
 51
270.0
  0
ARC
  5
4E0
100
AcDbEntity
  8
0
100
AcDbCircle
 62
7
  6
BYLAYER
 10
83.0750646509
 20
169.4715803626
 40
1.0
100
AcDbArc
 50
270.0
 51
360.0
  0
ARC
  5
4E1
100
AcDbEntity
  8
0
100
AcDbCircle
 62
7
  6
BYLAYER
 10
86.5707202562
 20
171.1715803626
 40
0.5
100
AcDbArc
 50
90.0
 51
179.5
  0
ARC
  5
4E2
100
AcDbEntity
  8
0
100
AcDbCircle
 62
7
  6
BYLAYER
 10
102.5749594876
 20
74.138378362
 40
0.999978019
100
AcDbArc
 50
180.0001904272
 51
270.1208463092
  0
ARC
  5
4E3
100
AcDbEntity
  8
0
100
AcDbCircle
 62
7
  6
BYLAYER
 10
109.1939301564
 20
167.623862291
 40
7.6868057559
100
AcDbArc
 50
184.9209879909
 51
187.116385148
  0
ARC
  5
4E4
100
AcDbEntity
  8
0
100
AcDbCircle
 62
7
  6
BYLAYER
 10
99.0750646509
 20
154.1715803626
 40
5.0
100
AcDbArc
 50
270.0
 51
360.0
  0
ARC
  5
4E5
100
AcDbEntity
  8
0
100
AcDbCircle
 62
7
  6
BYLAYER
 10
101.1222295717
 20
167.7538685346
 40
3.8645356489
100
AcDbArc
 50
191.7865624573
 51
196.2635389781
  0
ARC
  5
4E6
100
AcDbEntity
  8
0
100
AcDbCircle
 62
7
  6
BYLAYER
 10
97.9527742667
 20
165.6715803626
 40
3.0
100
AcDbArc
 50
270.0
 51
359.5
  0
ARC
  5
4E7
100
AcDbEntity
  8
0
100
AcDbCircle
 62
7
  6
BYLAYER
 10
105.0750646509
 20
169.4715803626
 40
1.0
100
AcDbArc
 50
180.0
 51
270.0
  0
ARC
  5
4E8
100
AcDbEntity
  8
0
100
AcDbCircle
 62
7
  6
BYLAYER
 10
101.5794090456
 20
171.1715803626
 40
0.5
100
AcDbArc
 50
0.5
 51
90.0
  0
ARC
  5
4E9
100
AcDbEntity
  8
0
100
AcDbCircle
 62
7
  6
BYLAYER
 10
84.2750646509
 20
173.9849734878
 40
1.5
100
AcDbArc
 50
97.6622556608
 51
180.0
  0
ARC
  5
4EA
100
AcDbEntity
  8
0
100
AcDbCircle
 62
7
  6
BYLAYER
 10
79.8750646509
 20
173.9715803626
 40
1.5
100
AcDbArc
 50
0.0
 51
90.0
  0
ARC
  5
4EB
100
AcDbEntity
  8
0
100
AcDbCircle
 62
7
  6
BYLAYER
 10
89.8250646509
 20
181.9715803626
 40
0.5
100
AcDbArc
 50
0.0
 51
90.0
  0
ARC
  5
4EC
100
AcDbEntity
  8
0
100
AcDbCircle
 62
7
  6
BYLAYER
 10
84.5750646509
 20
181.9715803626
 40
0.5
100
AcDbArc
 50
90.0
 51
180.0
  0
ARC
  5
4ED
100
AcDbEntity
  8
0
100
AcDbCircle
 62
7
  6
BYLAYER
 10
89.7119353406
 20
182.6715803626
 40
0.5
100
AcDbArc
 50
5.0
 51
90.0
  0
ARC
  5
4EE
100
AcDbEntity
  8
0
100
AcDbCircle
 62
7
  6
BYLAYER
 10
84.8381939612
 20
182.6715803626
 40
0.5
100
AcDbArc
 50
90.0
 51
175.0
  0
ARC
  5
4EF
100
AcDbEntity
  8
0
100
AcDbCircle
 62
7
  6
BYLAYER
 10
73.9750646509
 20
259.5715803626
 40
0.5
100
AcDbArc
 50
270.0
 51
360.0
  0
ARC
  5
4F0
100
AcDbEntity
  8
0
100
AcDbCircle
 62
7
  6
BYLAYER
 10
73.9750646509
 20
270.0715803626
 40
0.5
100
AcDbArc
 50
0.0
 51
90.0
  0
ARC
  5
4F1
100
AcDbEntity
  8
0
100
AcDbCircle
 62
7
  6
BYLAYER
 10
103.8750646509
 20
173.9849734878
 40
1.5
100
AcDbArc
 50
0.0
 51
82.3377443392
  0
ARC
  5
4F2
100
AcDbEntity
  8
0
100
AcDbCircle
 62
7
  6
BYLAYER
 10
108.2750646509
 20
173.9715803626
 40
1.5
100
AcDbArc
 50
90.0
 51
180.0
  0
ARC
  5
4F3
100
AcDbEntity
  8
0
100
AcDbCircle
 62
7
  6
BYLAYER
 10
103.5750646509
 20
181.9715803626
 40
0.5
100
AcDbArc
 50
0.0
 51
90.0
  0
ARC
  5
4F4
100
AcDbEntity
  8
0
100
AcDbCircle
 62
7
  6
BYLAYER
 10
98.3250646509
 20
181.9715803626
 40
0.5
100
AcDbArc
 50
90.0
 51
180.0
  0
CIRCLE
  5
4F5
100
AcDbEntity
  8
0
100
AcDbCircle
 62
7
  6
BYLAYER
 10
98.411853184
 20
179.1715803626
 40
0.5
  0
ARC
  5
4F6
100
AcDbEntity
  8
0
100
AcDbCircle
 62
7
  6
BYLAYER
 10
-2106.2589240278
 20
417.6556177034
 40
2203.474212883
100
AcDbArc
 50
353.3796978957
 51
353.6166117148
  0
ARC
  5
4F7
100
AcDbEntity
  8
0
100
AcDbCircle
 62
7
  6
BYLAYER
 10
-2045.2576691469
 20
416.1380340406
 40
2190.3847629121
100
AcDbArc
 50
353.3799209919
 51
353.6182511294
  0
ARC
  5
4F8
100
AcDbEntity
  8
0
100
AcDbCircle
 62
7
  6
BYLAYER
 10
-1997.2576552764
 20
416.1380324602
 40
2190.3847489518
100
AcDbArc
 50
353.3799209912
 51
353.6182511301
  0
ARC
  5
4F9
100
AcDbEntity
  8
0
100
AcDbCircle
 62
7
  6
BYLAYER
 10
-1965.1500863586
 20
407.0105920516
 40
2109.7589903569
100
AcDbArc
 50
353.3753434125
 51
353.6227794413
  0
ARC
  5
4FA
100
AcDbEntity
  8
0
100
AcDbCircle
 62
7
  6
BYLAYER
 10
-1917.1498470897
 20
407.0105643103
 40
2109.7587494854
100
AcDbArc
 50
353.3753434112
 51
353.6227794683
  0
ARC
  5
4FB
100
AcDbEntity
  8
0
100
AcDbCircle
 62
7
  6
BYLAYER
 10
-1995.7109334841
 20
405.0577650264
 40
2092.2109139952
100
AcDbArc
 50
353.3733662061
 51
353.6228809615
  0
ARC
  5
4FC
100
AcDbEntity
  8
0
100
AcDbCircle
 62
7
  6
BYLAYER
 10
101.5750646509
 20
573.1373739541
 40
500.0
100
AcDbArc
 50
263.890686384
 51
276.3153140657
  0
ARC
  5
4FD
100
AcDbEntity
  8
0
100
AcDbCircle
 62
7
  6
BYLAYER
 10
101.5750646509
 20
573.1373739541
 40
498.0
100
AcDbArc
 50
263.890686384
 51
276.3279890495
  0
ARC
  5
4FE
100
AcDbEntity
  8
0
100
AcDbCircle
 62
7
  6
BYLAYER
 10
100.7575349053
 20
408.2525830612
 40
334.1152209821
100
AcDbArc
 50
268.5967023084
 51
270.1401750216
  0
ARC
  5
4FF
100
AcDbEntity
  8
0
100
AcDbCircle
 62
7
  6
BYLAYER
 10
133.5751723436
 20
75.1644910255
 40
0.9999760293
100
AcDbArc
 50
273.6706148402
 51
359.9997228499
  0
ARC
  5
500
100
AcDbEntity
  8
0
100
AcDbCircle
 62
7
  6
BYLAYER
 10
126.9561991425
 20
167.6238622913
 40
7.6868057588
100
AcDbArc
 50
352.8836148525
 51
355.0790120087
  0
ARC
  5
501
100
AcDbEntity
  8
0
100
AcDbCircle
 62
7
  6
BYLAYER
 10
132.2750646509
 20
173.9849734878
 40
1.5
100
AcDbArc
 50
97.6622556608
 51
180.0
  0
ARC
  5
502
100
AcDbEntity
  8
0
100
AcDbCircle
 62
7
  6
BYLAYER
 10
127.8750646509
 20
173.9715803626
 40
1.5
100
AcDbArc
 50
0.0
 51
90.0
  0
ARC
  5
503
100
AcDbEntity
  8
0
100
AcDbCircle
 62
7
  6
BYLAYER
 10
131.0750646509
 20
169.4715803626
 40
1.0
100
AcDbArc
 50
270.0
 51
360.0
  0
ARC
  5
504
100
AcDbEntity
  8
0
100
AcDbCircle
 62
7
  6
BYLAYER
 10
137.0750646509
 20
154.1715803626
 40
5.0
100
AcDbArc
 50
180.0
 51
270.0
  0
ARC
  5
505
100
AcDbEntity
  8
0
100
AcDbCircle
 62
7
  6
BYLAYER
 10
135.0278997762
 20
167.7538685237
 40
3.8645356015
100
AcDbArc
 50
343.7364609853
 51
348.2134375613
  0
ARC
  5
506
100
AcDbEntity
  8
0
100
AcDbCircle
 62
7
  6
BYLAYER
 10
138.1973550351
 20
165.6715803626
 40
3.0
100
AcDbArc
 50
180.5
 51
270.0
  0
ARC
  5
507
100
AcDbEntity
  8
0
100
AcDbCircle
 62
7
  6
BYLAYER
 10
134.5707202562
 20
171.1715803626
 40
0.5
100
AcDbArc
 50
90.0
 51
179.5
  0
ARC
  5
508
100
AcDbEntity
  8
0
100
AcDbCircle
 62
7
  6
BYLAYER
 10
144.5749601506
 20
75.9935274814
 40
0.9999795285
100
AcDbArc
 50
180.0001096806
 51
274.9494279858
  0
ARC
  5
509
100
AcDbEntity
  8
0
100
AcDbCircle
 62
7
  6
BYLAYER
 10
147.0750646509
 20
154.1715803626
 40
5.0
100
AcDbArc
 50
270.0
 51
360.0
  0
ARC
  5
50A
100
AcDbEntity
  8
0
100
AcDbCircle
 62
7
  6
BYLAYER
 10
149.1222295718
 20
167.7538685343
 40
3.8645356489
100
AcDbArc
 50
191.786562452
 51
196.2635389727
  0
ARC
  5
50B
100
AcDbEntity
  8
0
100
AcDbCircle
 62
7
  6
BYLAYER
 10
145.9527742667
 20
165.6715803626
 40
3.0
100
AcDbArc
 50
270.0
 51
359.5
  0
ARC
  5
50C
100
AcDbEntity
  8
0
100
AcDbCircle
 62
7
  6
BYLAYER
 10
151.8750646509
 20
173.9849734878
 40
1.5
100
AcDbArc
 50
0.0
 51
82.3377443392
  0
ARC
  5
50D
100
AcDbEntity
  8
0
100
AcDbCircle
 62
7
  6
BYLAYER
 10
153.0750646509
 20
169.4715803626
 40
1.0
100
AcDbArc
 50
180.0
 51
270.0
  0
ARC
  5
50E
100
AcDbEntity
  8
0
100
AcDbCircle
 62
7
  6
BYLAYER
 10
149.5794090456
 20
171.1715803626
 40
0.5
100
AcDbArc
 50
0.5
 51
90.0
  0
CIRCLE
  5
50F
100
AcDbEntity
  8
0
100
AcDbCircle
 62
7
  6
BYLAYER
 10
146.411853184
 20
179.1715803626
 40
0.5
  0
ARC
  5
510
100
AcDbEntity
  8
0
100
AcDbCircle
 62
7
  6
BYLAYER
 10
137.6750646509
 20
181.9715803626
 40
0.5
100
AcDbArc
 50
0.0
 51
90.0
  0
ARC
  5
511
100
AcDbEntity
  8
0
100
AcDbCircle
 62
7
  6
BYLAYER
 10
132.5750646509
 20
181.9715803626
 40
0.5
100
AcDbArc
 50
89.9999999995
 51
180.0000000001
  0
ARC
  5
512
100
AcDbEntity
  8
0
100
AcDbCircle
 62
7
  6
BYLAYER
 10
151.5750646509
 20
181.9715803626
 40
0.5
100
AcDbArc
 50
0.0
 51
90.0
  0
ARC
  5
513
100
AcDbEntity
  8
0
100
AcDbCircle
 62
7
  6
BYLAYER
 10
146.4750646509
 20
181.9715803626
 40
0.5
100
AcDbArc
 50
90.0
 51
180.0
  0
ARC
  5
514
100
AcDbEntity
  8
0
100
AcDbCircle
 62
7
  6
BYLAYER
 10
146.4381939612
 20
182.6715803626
 40
0.5
100
AcDbArc
 50
90.0
 51
175.0
  0
ARC
  5
515
100
AcDbEntity
  8
0
100
AcDbCircle
 62
7
  6
BYLAYER
 10
151.3119353406
 20
182.6715803626
 40
0.5
100
AcDbArc
 50
5.0
 51
90.0
  0
CIRCLE
  5
516
100
AcDbEntity
  8
0
100
AcDbCircle
 62
7
  6
BYLAYER
 10
113.7382761178
 20
179.1715803626
 40
0.5
  0
ARC
  5
517
100
AcDbEntity
  8
0
100
AcDbCircle
 62
7
  6
BYLAYER
 10
157.1635484351
 20
167.6205955748
 40
7.656255674
100
AcDbArc
 50
184.9161351237
 51
187.1202937643
  0
ARC
  5
518
100
AcDbEntity
  8
0
100
AcDbCircle
 62
7
  6
BYLAYER
 10
157.1065500851
 20
167.6146096363
 40
7.5989509002
100
AcDbArc
 50
184.90799724
 51
187.1287787637
  0
ARC
  5
519
100
AcDbEntity
  8
0
100
AcDbCircle
 62
7
  6
BYLAYER
 10
185.0750646509
 20
154.1715803626
 40
5.0
100
AcDbArc
 50
179.9998536317
 51
270.0
  0
ARC
  5
51A
100
AcDbEntity
  8
0
100
AcDbCircle
 62
7
  6
BYLAYER
 10
185.4250646509
 20
86.6715803626
 40
5.0
100
AcDbArc
 50
270.0
 51
360.0
  0
ARC
  5
51B
100
AcDbEntity
  8
0
100
AcDbCircle
 62
7
  6
BYLAYER
 10
187.5750646509
 20
78.1715803626
 40
2.0
100
AcDbArc
 50
270.0
 51
360.0
  0
ARC
  5
51C
100
AcDbEntity
  8
0
100
AcDbCircle
 62
7
  6
BYLAYER
 10
180.2750646509
 20
173.9715803626
 40
1.5
100
AcDbArc
 50
90.0
 51
180.0
  0
ARC
  5
51D
100
AcDbEntity
  8
0
100
AcDbCircle
 62
7
  6
BYLAYER
 10
175.8750646509
 20
173.9715803626
 40
1.5
100
AcDbArc
 50
0.0
 51
90.0
  0
ARC
  5
51E
100
AcDbEntity
  8
0
100
AcDbCircle
 62
7
  6
BYLAYER
 10
156.2750646509
 20
173.9715803626
 40
1.5
100
AcDbArc
 50
90.0
 51
180.0
  0
ARC
  5
51F
100
AcDbEntity
  8
0
100
AcDbCircle
 62
7
  6
BYLAYER
 10
186.0750646509
 20
169.4715803626
 40
1.0
100
AcDbArc
 50
270.0
 51
360.0
  0
ARC
  5
520
100
AcDbEntity
  8
0
100
AcDbCircle
 62
7
  6
BYLAYER
 10
177.7750646509
 20
258.5715803626
 40
0.5
100
AcDbArc
 50
0.0
 51
90.0
  0
ARC
  5
521
100
AcDbEntity
  8
0
100
AcDbCircle
 62
7
  6
BYLAYER
 10
178.7750646509
 20
256.5715803626
 40
0.5
100
AcDbArc
 50
180.0
 51
270.0
  0
ARC
  5
522
100
AcDbEntity
  8
0
100
AcDbCircle
 62
7
  6
BYLAYER
 10
189.9250646509
 20
256.5715803626
 40
0.5
100
AcDbArc
 50
270.0
 51
360.0
  0
ARC
  5
523
100
AcDbEntity
  8
0
100
AcDbCircle
 62
7
  6
BYLAYER
 10
189.9250646509
 20
273.0715803626
 40
0.5
100
AcDbArc
 50
0.0
 51
90.0
  0
ARC
  5
524
100
AcDbEntity
  8
0
100
AcDbCircle
 62
7
  6
BYLAYER
 10
178.7750646509
 20
273.0715803626
 40
0.5
100
AcDbArc
 50
90.0
 51
180.0
  0
ARC
  5
525
100
AcDbEntity
  8
0
100
AcDbCircle
 62
7
  6
BYLAYER
 10
170.6750646509
 20
270.0715803626
 40
0.5
100
AcDbArc
 50
90.0
 51
180.0
  0
ARC
  5
526
100
AcDbEntity
  8
0
100
AcDbCircle
 62
7
  6
BYLAYER
 10
170.6750646509
 20
259.5715803626
 40
0.5
100
AcDbArc
 50
180.0
 51
270.0
  0
ARC
  5
527
100
AcDbEntity
  8
0
100
AcDbCircle
 62
7
  6
BYLAYER
 10
193.3250646509
 20
256.5715803626
 40
0.5
100
AcDbArc
 50
270.0
 51
360.0
  0
ARC
  5
528
100
AcDbEntity
  8
0
100
AcDbCircle
 62
7
  6
BYLAYER
 10
193.3250646509
 20
273.0715803626
 40
0.5
100
AcDbArc
 50
0.0
 51
90.0
  0
ARC
  5
529
100
AcDbEntity
  8
0
100
AcDbCircle
 62
7
  6
BYLAYER
 10
183.3250646509
 20
273.0715803626
 40
0.5
100
AcDbArc
 50
90.0
 51
180.0
  0
ARC
  5
52A
100
AcDbEntity
  8
0
100
AcDbCircle
 62
7
  6
BYLAYER
 10
183.3250646509
 20
256.5715803626
 40
0.5
100
AcDbArc
 50
180.0
 51
270.0
  0
CIRCLE
  5
52B
100
AcDbEntity
  8
0
100
AcDbCircle
 62
7
  6
BYLAYER
 10
161.7382761178
 20
179.1715803626
 40
0.5
  0
ARC
  5
52C
100
AcDbEntity
  8
0
100
AcDbCircle
 62
7
  6
BYLAYER
 10
2246.409053424
 20
417.655617714
 40
2203.474212978
100
AcDbArc
 50
186.3833882852
 51
186.6203021043
  0
ARC
  5
52D
100
AcDbEntity
  8
0
100
AcDbCircle
 62
7
  6
BYLAYER
 10
2329.4078370814
 20
416.1380384426
 40
2190.3848017949
100
AcDbArc
 50
186.3817488727
 51
186.6200790059
  0
ARC
  5
52E
100
AcDbEntity
  8
0
100
AcDbCircle
 62
7
  6
BYLAYER
 10
2281.4078256906
 20
416.1380371446
 40
2190.3847903303
100
AcDbArc
 50
186.3817488721
 51
186.6200790066
  0
ARC
  5
52F
100
AcDbEntity
  8
0
100
AcDbCircle
 62
7
  6
BYLAYER
 10
2201.3004888388
 20
407.0106231631
 40
2109.7592653011
100
AcDbArc
 50
186.3772205743
 51
186.6246565709
  0
ARC
  5
530
100
AcDbEntity
  8
0
100
AcDbCircle
 62
7
  6
BYLAYER
 10
2249.3004684393
 20
407.0106208395
 40
2109.7592447698
100
AcDbArc
 50
186.3772205731
 51
186.6246565721
  0
ARC
  5
531
100
AcDbEntity
  8
0
100
AcDbCircle
 62
7
  6
BYLAYER
 10
2135.8615045222
 20
405.0578147791
 40
2092.2113585232
100
AcDbArc
 50
186.3771190489
 51
186.6266337512
  0
SPLINE
  5
532
100
AcDbEntity
  8
0
100
AcDbSpline
 62
7
  6
BYLAYER
 70
0
 71
3
 72
11
 73
7
 74
0
 42
0.0000001
 43
0.0000001
 44
0.0000000001
 40
0.0
 40
0.0
 40
0.0
 40
0.0
 40
0.1848303824
 40
0.3725092155
 40
0.6388546377
 40
1.0
 40
1.0
 40
1.0
 40
1.0
 10
148.0168169891
 20
179.1759436303
 30
0.0
 10
147.8215536074
 20
179.1761121095
 30
0.0
 10
147.4003133658
 20
179.0785985725
 30
0.0
 10
147.0275020892
 20
178.4594128624
 30
0.0
 10
146.9386321916
 20
177.5978736816
 30
0.0
 10
146.9313871053
 20
176.9353963695
 30
0.0
 10
146.9347165477
 20
176.5538800573
 30
0.0
  0
SPLINE
  5
533
100
AcDbEntity
  8
0
100
AcDbSpline
 62
7
  6
BYLAYER
 70
0
 71
3
 72
10
 73
6
 74
0
 42
0.0000001
 43
0.0000001
 44
0.0000000001
 40
0.0
 40
0.0
 40
0.0
 40
0.0
 40
0.4397586185
 40
0.7843717989
 40
1.0
 40
1.0
 40
1.0
 40
1.0
 10
146.4347282995
 20
176.759082334
 30
0.0
 10
146.5186168768
 20
176.7597003434
 30
0.0
 10
146.6693291013
 20
176.7430539931
 30
0.0
 10
146.8510141496
 20
176.6887149381
 30
0.0
 10
146.9344177156
 20
176.5956412018
 30
0.0
 10
146.934693756
 20
176.5545076667
 30
0.0
  0
SPLINE
  5
534
100
AcDbEntity
  8
0
100
AcDbSpline
 62
7
  6
BYLAYER
 70
0
 71
3
 72
10
 73
6
 74
0
 42
0.0000001
 43
0.0000001
 44
0.0000000001
 40
0.0
 40
0.0
 40
0.0
 40
0.0
 40
0.5004401234
 40
0.8661162864
 40
1.0
 40
1.0
 40
1.0
 40
1.0
 10
146.4507810665
 20
174.7152501269
 30
0.0
 10
146.5341835289
 20
174.7161470096
 30
0.0
 10
146.6942807106
 20
174.7318214949
 30
0.0
 10
146.8162071121
 20
174.6895713892
 30
0.0
 10
146.9505905385
 20
174.7375763503
 30
0.0
 10
146.9507619165
 20
174.7152628963
 30
0.0
  0
LINE
  5
535
100
AcDbEntity
  8
0
100
AcDbLine
 62
7
  6
BYLAYER
 10
137.7153990234
 20
176.7592525892
 11
137.6993145445
 21
174.71521304
  0
SPLINE
  5
536
100
AcDbEntity
  8
0
100
AcDbSpline
 62
7
  6
BYLAYER
 70
0
 71
3
 72
11
 73
7
 74
0
 42
0.0000001
 43
0.0000001
 44
0.0000000001
 40
0.0
 40
0.0
 40
0.0
 40
0.0
 40
0.1863790662
 40
0.3775892415
 40
0.6443943495
 40
1.0
 40
1.0
 40
1.0
 40
1.0
 10
136.5561681809
 20
179.6715803626
 30
0.0
 10
136.7731551102
 20
179.6715857199
 30
0.0
 10
137.2491820913
 20
179.5573674677
 30
0.0
 10
137.6165333564
 20
178.8392067638
 30
0.0
 10
137.7133094203
 20
177.9000387174
 30
0.0
 10
137.7186501812
 20
177.1732443558
 30
0.0
 10
137.7153990234
 20
176.7592525892
 30
0.0
  0
SPLINE
  5
537
100
AcDbEntity
  8
0
100
AcDbSpline
 62
7
  6
BYLAYER
 70
0
 71
3
 72
11
 73
7
 74
0
 42
0.0000001
 43
0.0000001
 44
0.0000000001
 40
0.0
 40
0.0
 40
0.0
 40
0.0
 40
0.3558200327
 40
0.6226006885
 40
0.8137306924
 40
1.0
 40
1.0
 40
1.0
 40
1.0
 10
146.4347280642
 20
176.7591342597
 30
0.0
 10
146.4314759576
 20
177.1733875162
 30
0.0
 10
146.4367953329
 20
177.9004271858
 30
0.0
 10
146.5338098449
 20
178.8397398704
 30
0.0
 10
146.9012983943
 20
179.5575622147
 30
0.0
 10
147.3770960583
 20
179.6715838596
 30
0.0
 10
147.5939614339
 20
179.6715803626
 30
0.0
  0
LINE
  5
538
100
AcDbEntity
  8
0
100
AcDbLine
 62
7
  6
BYLAYER
 10
146.4507814458
 20
174.71521304
 11
146.4347280642
 21
176.7591342597
  0
SPLINE
  5
539
100
AcDbEntity
  8
0
100
AcDbSpline
 62
7
  6
BYLAYER
 70
0
 71
3
 72
12
 73
8
 74
0
 42
0.0000001
 43
0.0000001
 44
0.0000000001
 40
0.0
 40
0.0
 40
0.0
 40
0.0
 40
0.3224076247
 40
0.6248627708
 40
0.7484234576
 40
0.8509732288
 40
1.0
 40
1.0
 40
1.0
 40
1.0
 10
137.7154015576
 20
176.7591322033
 30
0.0
 10
137.6536373632
 20
176.7595768931
 30
0.0
 10
137.53395936
 20
176.7496896785
 30
0.0
 10
137.3929197269
 20
176.7178131358
 30
0.0
 10
137.3014469755
 20
176.6721805749
 30
0.0
 10
137.2448588506
 20
176.6289754487
 30
0.0
 10
137.2156773146
 20
176.5832923097
 30
0.0
 10
137.2154268483
 20
176.5547433483
 30
0.0
  0
SPLINE
  5
53A
100
AcDbEntity
  8
0
100
AcDbSpline
 62
7
  6
BYLAYER
 70
0
 71
3
 72
10
 73
6
 74
0
 42
0.0000001
 43
0.0000001
 44
0.0000000001
 40
0.0
 40
0.0
 40
0.0
 40
0.0
 40
0.133921534
 40
0.4998228981
 40
1.0
 40
1.0
 40
1.0
 40
1.0
 10
137.1993671175
 20
174.7152322204
 30
0.0
 10
137.1995289499
 20
174.7375520904
 30
0.0
 10
137.3340019632
 20
174.6895880464
 30
0.0
 10
137.4558998862
 20
174.7318628586
 30
0.0
 10
137.6159875368
 20
174.7159464799
 30
0.0
 10
137.6993480116
 20
174.7152244942
 30
0.0
  0
SPLINE
  5
53B
100
AcDbEntity
  8
0
100
AcDbSpline
 62
7
  6
BYLAYER
 70
0
 71
3
 72
10
 73
6
 74
0
 42
0.0000001
 43
0.0000001
 44
0.0000000001
 40
0.0
 40
0.0
 40
0.0
 40
0.0
 40
0.4674951197
 40
0.7366246475
 40
1.0
 40
1.0
 40
1.0
 40
1.0
 10
136.556166654
 20
179.6715619896
 30
0.0
 10
136.4457391826
 20
179.6715698319
 30
0.0
 10
136.2667291703
 20
179.5770829195
 30
0.0
 10
136.1578528248
 20
179.3641627518
 30
0.0
 10
136.1337449603
 20
179.238154283
 30
0.0
 10
136.1332834307
 20
179.1759438498
 30
0.0
  0
SPLINE
  5
53C
100
AcDbEntity
  8
0
100
AcDbSpline
 62
7
  6
BYLAYER
 70
0
 71
3
 72
9
 73
5
 74
0
 42
0.0000001
 43
0.0000001
 44
0.0000000001
 40
0.0
 40
0.0
 40
0.0
 40
0.0
 40
0.5
 40
1.0
 40
1.0
 40
1.0
 40
1.0
 10
187.0750646509
 20
179.9715803626
 30
0.0
 10
187.0750646509
 20
179.921555727
 30
0.0
 10
187.0703553555
 20
179.8215803626
 30
0.0
 10
187.06564606
 20
179.7216049981
 30
0.0
 10
187.06564606
 20
179.6715803626
 30
0.0
  0
SPLINE
  5
53D
100
AcDbEntity
  8
0
100
AcDbSpline
 62
7
  6
BYLAYER
 70
0
 71
3
 72
32
 73
28
 74
0
 42
0.0000001
 43
0.0000001
 44
0.0000000001
 40
0.0
 40
0.0
 40
0.0
 40
0.0
 40
0.1079748066
 40
0.2140538032
 40
0.3069999772
 40
0.3859990051
 40
0.4535075791
 40
0.5123352375
 40
0.5640858076
 40
0.6099309208
 40
0.6508690251
 40
0.6875888119
 40
0.720586156
 40
0.7504324982
 40
0.7752776659
 40
0.8017002651
 40
0.8226670459
 40
0.8414713351
 40
0.859707967
 40
0.8779906856
 40
0.89672149
 40
0.9156119726
 40
0.9339375709
 40
0.9508994573
 40
0.9669066763
 40
0.9800015432
 40
1.0
 40
1.0
 40
1.0
 40
1.0
 10
30.0250646508
 20
180.7715803626
 30
0.0
 10
30.0254812938
 20
180.7150531075
 30
0.0
 10
30.0171929577
 20
180.6026142324
 30
0.0
 10
29.9763844083
 20
180.4463151287
 30
0.0
 10
29.9177629368
 20
180.3125294179
 30
0.0
 10
29.8524279667
 20
180.2051793773
 30
0.0
 10
29.786411426
 20
180.1200676085
 30
0.0
 10
29.7217414041
 20
180.052710328
 30
0.0
 10
29.6601806493
 20
179.9985822243
 30
0.0
 10
29.6023198167
 20
179.9547548191
 30
0.0
 10
29.5482642471
 20
179.9191987794
 30
0.0
 10
29.4980567418
 20
179.8902424051
 30
0.0
 10
29.4515950222
 20
179.8665544291
 30
0.0
 10
29.4095995903
 20
179.8479707119
 30
0.0
 10
29.3701529709
 20
179.8322071052
 30
0.0
 10
29.3343371744
 20
179.8200303871
 30
0.0
 10
29.3012633263
 20
179.8096659687
 30
0.0
 10
29.2719182197
 20
179.801813074
 30
0.0
 10
29.2437026778
 20
179.795255111
 30
0.0
 10
29.2153573644
 20
179.7894732382
 30
0.0
 10
29.1865259815
 20
179.7844152102
 30
0.0
 10
29.1575395647
 20
179.7801793097
 30
0.0
 10
29.1293653381
 20
179.7768705101
 30
0.0
 10
29.1026162087
 20
179.7744583165
 30
0.0
 10
29.0785470813
 20
179.7729098042
 30
0.0
 10
29.0528616683
 20
179.7718477557
 30
0.0
 10
29.0355345777
 20
179.7715803625
 30
0.0
 10
29.0250646486
 20
179.7715803626
 30
0.0
  0
SPLINE
  5
53E
100
AcDbEntity
  8
0
100
AcDbSpline
 62
7
  6
BYLAYER
 70
0
 71
3
 72
16
 73
12
 74
0
 42
0.0000001
 43
0.0000001
 44
0.0000000001
 40
0.0
 40
0.0
 40
0.0
 40
0.0
 40
0.0661191757
 40
0.1373486555
 40
0.2143193673
 40
0.3000796362
 40
0.3977264737
 40
0.5110781022
 40
0.6452366201
 40
0.8075932268
 40
1.0
 40
1.0
 40
1.0
 40
1.0
 10
29.0250654495
 20
179.7715803626
 30
0.0
 10
29.0596285257
 20
179.7715803626
 30
0.0
 10
29.1314613496
 20
179.7753959761
 30
0.0
 10
29.2423891018
 20
179.7926673923
 30
0.0
 10
29.3602701541
 20
179.8264530847
 30
0.0
 10
29.4856791117
 20
179.8804002708
 30
0.0
 10
29.6183070679
 20
179.9619751837
 30
0.0
 10
29.7558288845
 20
180.0801892905
 30
0.0
 10
29.8896004835
 20
180.2493247198
 30
0.0
 10
29.9994626385
 20
180.4841109484
 30
0.0
 10
30.0208451993
 20
180.6710981027
 30
0.0
 10
30.0250634694
 20
180.7715881435
 30
0.0
  0
SPLINE
  5
53F
100
AcDbEntity
  8
0
100
AcDbSpline
 62
7
  6
BYLAYER
 70
0
 71
3
 72
9
 73
5
 74
0
 42
0.0000001
 43
0.0000001
 44
0.0000000001
 40
0.0
 40
0.0
 40
0.0
 40
0.0
 40
0.5
 40
1.0
 40
1.0
 40
1.0
 40
1.0
 10
49.0750646509
 20
179.9715803626
 30
0.0
 10
49.0750646509
 20
179.921555727
 30
0.0
 10
49.0797739463
 20
179.8215803626
 30
0.0
 10
49.0844832418
 20
179.7216049981
 30
0.0
 10
49.0844832418
 20
179.6715803626
 30
0.0
  0
SPLINE
  5
540
100
AcDbEntity
  8
0
100
AcDbSpline
 62
7
  6
BYLAYER
 70
0
 71
3
 72
9
 73
5
 74
0
 42
0.0000001
 43
0.0000001
 44
0.0000000001
 40
0.0
 40
0.0
 40
0.0
 40
0.0
 40
0.5
 40
1.0
 40
1.0
 40
1.0
 40
1.0
 10
104.0750646509
 20
179.9715803626
 30
0.0
 10
104.0750646509
 20
179.921555727
 30
0.0
 10
104.0797739463
 20
179.8215803626
 30
0.0
 10
104.0844832418
 20
179.7216049981
 30
0.0
 10
104.0844832418
 20
179.6715803626
 30
0.0
  0
SPLINE
  5
541
100
AcDbEntity
  8
0
100
AcDbSpline
 62
7
  6
BYLAYER
 70
0
 71
3
 72
10
 73
6
 74
0
 42
0.0000001
 43
0.0000001
 44
0.0000000001
 40
0.0
 40
0.0
 40
0.0
 40
0.0
 40
0.3328544135
 40
0.6661927503
 40
1.0
 40
1.0
 40
1.0
 40
1.0
 10
145.0480151125
 20
179.6715803626
 30
0.0
 10
145.0487580878
 20
179.7048612841
 30
0.0
 10
145.0497506208
 20
179.7714821892
 30
0.0
 10
145.0507423476
 20
179.8714879093
 30
0.0
 10
145.0517329917
 20
179.9382041493
 30
0.0
 10
145.0524771483
 20
179.9715803626
 30
0.0
  0
SPLINE
  5
542
100
AcDbEntity
  8
0
100
AcDbSpline
 62
7
  6
BYLAYER
 70
0
 71
3
 72
9
 73
5
 74
0
 42
0.0000001
 43
0.0000001
 44
0.0000000001
 40
0.0
 40
0.0
 40
0.0
 40
0.0
 40
0.5
 40
1.0
 40
1.0
 40
1.0
 40
1.0
 10
152.0750646509
 20
179.9715803626
 30
0.0
 10
152.0750646509
 20
179.921555727
 30
0.0
 10
152.0797739463
 20
179.8215803626
 30
0.0
 10
152.0844832418
 20
179.7216049981
 30
0.0
 10
152.0844832418
 20
179.6715803626
 30
0.0
  0
SPLINE
  5
543
100
AcDbEntity
  8
0
100
AcDbSpline
 62
7
  6
BYLAYER
 70
0
 71
3
 72
10
 73
6
 74
0
 42
0.0000001
 43
0.0000001
 44
0.0000000001
 40
0.0
 40
0.0
 40
0.0
 40
0.0
 40
0.3265239557
 40
0.61558798
 40
1.0
 40
1.0
 40
1.0
 40
1.0
 10
52.8789122281
 20
81.6715803626
 30
0.0
 10
52.7190579323
 20
81.6715803626
 30
0.0
 10
52.3921864041
 20
81.7098671509
 30
0.0
 10
52.0849280233
 20
82.1453375424
 30
0.0
 10
52.0750646509
 20
82.4833861683
 30
0.0
 10
52.0750646509
 20
82.6715803626
 30
0.0
  0
SPLINE
  5
544
100
AcDbEntity
  8
0
100
AcDbSpline
 62
7
  6
BYLAYER
 70
0
 71
3
 72
10
 73
6
 74
0
 42
0.0000001
 43
0.0000001
 44
0.0000000001
 40
0.0
 40
0.0
 40
0.0
 40
0.0
 40
0.3265239557
 40
0.61558798
 40
1.0
 40
1.0
 40
1.0
 40
1.0
 10
100.8789122281
 20
81.6715803626
 30
0.0
 10
100.7190579323
 20
81.6715803626
 30
0.0
 10
100.3921864041
 20
81.7098671509
 30
0.0
 10
100.0849280233
 20
82.1453375424
 30
0.0
 10
100.0750646509
 20
82.4833861683
 30
0.0
 10
100.0750646509
 20
82.6715803626
 30
0.0
  0
SPLINE
  5
545
100
AcDbEntity
  8
0
100
AcDbSpline
 62
7
  6
BYLAYER
 70
0
 71
3
 72
10
 73
6
 74
0
 42
0.0000001
 43
0.0000001
 44
0.0000000001
 40
0.0
 40
0.0
 40
0.0
 40
0.0
 40
0.3844121158
 40
0.6734761235
 40
1.0
 40
1.0
 40
1.0
 40
1.0
 10
88.0750646509
 20
82.6715803626
 30
0.0
 10
88.0750646509
 20
82.4833861208
 30
0.0
 10
88.0652013042
 20
82.1453374276
 30
0.0
 10
87.7579427837
 20
81.7098671341
 30
0.0
 10
87.4310713312
 20
81.6715803626
 30
0.0
 10
87.2712170737
 20
81.6715803626
 30
0.0
  0
SPLINE
  5
546
100
AcDbEntity
  8
0
100
AcDbSpline
 62
7
  6
BYLAYER
 70
0
 71
3
 72
10
 73
6
 74
0
 42
0.0000001
 43
0.0000001
 44
0.0000000001
 40
0.0
 40
0.0
 40
0.0
 40
0.0
 40
0.3265239557
 40
0.61558798
 40
1.0
 40
1.0
 40
1.0
 40
1.0
 10
135.2712170737
 20
81.6715803626
 30
0.0
 10
135.4310713694
 20
81.6715803626
 30
0.0
 10
135.7579428977
 20
81.7098671509
 30
0.0
 10
136.0652012784
 20
82.1453375424
 30
0.0
 10
136.0750646509
 20
82.4833861683
 30
0.0
 10
136.0750646509
 20
82.6715803626
 30
0.0
  0
SPLINE
  5
547
100
AcDbEntity
  8
0
100
AcDbSpline
 62
7
  6
BYLAYER
 70
0
 71
3
 72
10
 73
6
 74
0
 42
0.0000001
 43
0.0000001
 44
0.0000000001
 40
0.0
 40
0.0
 40
0.0
 40
0.0
 40
0.3844121158
 40
0.6734761235
 40
1.0
 40
1.0
 40
1.0
 40
1.0
 10
148.0750646509
 20
82.6715803626
 30
0.0
 10
148.0750646509
 20
82.4833861208
 30
0.0
 10
148.0849279976
 20
82.1453374276
 30
0.0
 10
148.3921865181
 20
81.7098671341
 30
0.0
 10
148.7190579706
 20
81.6715803626
 30
0.0
 10
148.8789122281
 20
81.6715803626
 30
0.0
  0
LINE
  5
548
100
AcDbEntity
  8
0
100
AcDbLine
 62
7
  6
BYLAYER
 10
156.4646122382
 20
78.1715803626
 11
156.5750653547
 21
76.1715803626
  0
LINE
  5
549
100
AcDbEntity
  8
0
100
AcDbLine
 62
7
  6
BYLAYER
 10
156.4646022901
 20
78.1715803626
 11
156.5750632281
 21
76.1715803626
  0
SPLINE
  5
54A
100
AcDbEntity
  8
0
100
AcDbSpline
 62
7
  6
BYLAYER
 70
0
 71
3
 72
17
 73
13
 74
0
 42
0.0000001
 43
0.0000001
 44
0.0000000001
 40
0.0
 40
0.0
 40
0.0
 40
0.0
 40
0.0243728067
 40
0.094708945
 40
0.2049281834
 40
0.344403744
 40
0.4990859879
 40
0.6539351796
 40
0.7934794886
 40
0.9039930338
 40
0.975235807
 40
1.0
 40
1.0
 40
1.0
 40
1.0
 10
134.5750646509
 20
75.1644861885
 30
0.0
 10
134.648248405
 20
75.1704981235
 30
0.0
 10
134.9326546969
 20
75.1935413954
 30
0.0
 10
135.5481724159
 20
75.2418036417
 30
0.0
 10
136.5090488154
 20
75.3216707287
 30
0.0
 10
137.7228582974
 20
75.4262303307
 30
0.0
 10
139.0702404418
 20
75.5468383847
 30
0.0
 10
140.4172099189
 20
75.6741826457
 30
0.0
 10
141.6312743962
 20
75.7934082061
 30
0.0
 10
142.5943558558
 20
75.8909424926
 30
0.0
 10
143.2134261907
 20
75.953389654
 30
0.0
 10
143.5009311465
 20
75.9851033164
 30
0.0
 10
143.5750646509
 20
75.9935255671
 30
0.0
  0
SPLINE
  5
54B
100
AcDbEntity
  8
0
100
AcDbSpline
 62
7
  6
BYLAYER
 70
0
 71
3
 72
10
 73
6
 74
0
 42
0.0000001
 43
0.0000001
 44
0.0000000001
 40
0.0
 40
0.0
 40
0.0
 40
0.0
 40
0.3265239557
 40
0.61558798
 40
1.0
 40
1.0
 40
1.0
 40
1.0
 10
183.2712170737
 20
81.6715803626
 30
0.0
 10
183.4310713694
 20
81.6715803626
 30
0.0
 10
183.7579428977
 20
81.7098671509
 30
0.0
 10
184.0652012784
 20
82.1453375424
 30
0.0
 10
184.0750646509
 20
82.4833861683
 30
0.0
 10
184.0750646509
 20
82.6715803626
 30
0.0
  0
SPLINE
  5
54C
100
AcDbEntity
  8
0
100
AcDbSpline
 62
7
  6
BYLAYER
 70
0
 71
3
 72
10
 73
6
 74
0
 42
0.0000001
 43
0.0000001
 44
0.0000000001
 40
0.0
 40
0.0
 40
0.0
 40
0.0
 40
0.1339793203
 40
0.4999736531
 40
1.0
 40
1.0
 40
1.0
 40
1.0
 10
99.0750646796
 20
160.471583649
 30
0.0
 10
99.0752596075
 20
160.4939129035
 30
0.0
 10
98.9399202698
 20
160.4459605145
 30
0.0
 10
98.8187452179
 20
160.48818598
 30
0.0
 10
98.6584184413
 20
160.4723750081
 30
0.0
 10
98.5750836894
 20
160.4715803626
 30
0.0
  0
LINE
  5
54D
100
AcDbEntity
  8
0
100
AcDbLine
 62
7
  6
BYLAYER
 10
100.0751054424
 20
149.1715814328
 11
100.0745673015
 21
149.2725173434
  0
LINE
  5
54E
100
AcDbEntity
  8
0
100
AcDbLine
 62
7
  6
BYLAYER
 10
88.0750238594
 20
149.1715814328
 11
88.0755620003
 21
149.2725173434
  0
SPLINE
  5
54F
100
AcDbEntity
  8
0
100
AcDbSpline
 62
7
  6
BYLAYER
 70
0
 71
3
 72
11
 73
7
 74
0
 42
0.0000001
 43
0.0000001
 44
0.0000000001
 40
0.0
 40
0.0
 40
0.0
 40
0.0
 40
0.3558199877
 40
0.6226006096
 40
0.8137305893
 40
1.0
 40
1.0
 40
1.0
 40
1.0
 10
98.4347280642
 20
176.7591342597
 30
0.0
 10
98.4314759576
 20
177.1733875162
 30
0.0
 10
98.4367953333
 20
177.9004271888
 30
0.0
 10
98.533809844
 20
178.8397398635
 30
0.0
 10
98.9012984688
 20
179.5575623735
 30
0.0
 10
99.3770963727
 20
179.6715838985
 30
0.0
 10
99.5939618957
 20
179.6715803626
 30
0.0
  0
LINE
  5
550
100
AcDbEntity
  8
0
100
AcDbLine
 62
7
  6
BYLAYER
 10
98.4507814458
 20
174.71521304
 11
98.4347280642
 21
176.7591342597
  0
LINE
  5
551
100
AcDbEntity
  8
0
100
AcDbLine
 62
7
  6
BYLAYER
 10
89.7153990234
 20
176.7592525892
 11
89.6993145445
 21
174.71521304
  0
SPLINE
  5
552
100
AcDbEntity
  8
0
100
AcDbSpline
 62
7
  6
BYLAYER
 70
0
 71
3
 72
11
 73
7
 74
0
 42
0.0000001
 43
0.0000001
 44
0.0000000001
 40
0.0
 40
0.0
 40
0.0
 40
0.0
 40
0.1863790662
 40
0.3775892415
 40
0.6443943495
 40
1.0
 40
1.0
 40
1.0
 40
1.0
 10
88.5561681809
 20
179.6715803626
 30
0.0
 10
88.7731551102
 20
179.6715857199
 30
0.0
 10
89.2491820913
 20
179.5573674677
 30
0.0
 10
89.6165333564
 20
178.8392067638
 30
0.0
 10
89.7133094203
 20
177.9000387174
 30
0.0
 10
89.7186501812
 20
177.1732443558
 30
0.0
 10
89.7153990234
 20
176.7592525892
 30
0.0
  0
SPLINE
  5
553
100
AcDbEntity
  8
0
100
AcDbSpline
 62
7
  6
BYLAYER
 70
0
 71
3
 72
11
 73
7
 74
0
 42
0.0000001
 43
0.0000001
 44
0.0000000001
 40
0.0
 40
0.0
 40
0.0
 40
0.0
 40
0.2437780995
 40
0.5000002284
 40
0.7562223573
 40
1.0
 40
1.0
 40
1.0
 40
1.0
 10
97.3237514658
 20
179.6715803626
 30
0.0
 10
96.7957067649
 20
179.6715803625
 30
0.0
 10
95.7130203726
 20
179.6375884308
 30
0.0
 10
94.0750646452
 20
179.6083409705
 30
0.0
 10
92.4371099064
 20
179.637588409
 30
0.0
 10
91.3544245045
 20
179.6715803118
 30
0.0
 10
90.8263807932
 20
179.6715803626
 30
0.0
  0
SPLINE
  5
554
100
AcDbEntity
  8
0
100
AcDbSpline
 62
7
  6
BYLAYER
 70
0
 71
3
 72
10
 73
6
 74
0
 42
0.0000001
 43
0.0000001
 44
0.0000000001
 40
0.0
 40
0.0
 40
0.0
 40
0.0
 40
0.4397586185
 40
0.7843717989
 40
1.0
 40
1.0
 40
1.0
 40
1.0
 10
98.4347282995
 20
176.759082334
 30
0.0
 10
98.5186168768
 20
176.7597003434
 30
0.0
 10
98.6693291013
 20
176.7430539931
 30
0.0
 10
98.8510141496
 20
176.6887149381
 30
0.0
 10
98.9344177156
 20
176.5956412018
 30
0.0
 10
98.934693756
 20
176.5545076667
 30
0.0
  0
SPLINE
  5
555
100
AcDbEntity
  8
0
100
AcDbSpline
 62
7
  6
BYLAYER
 70
0
 71
3
 72
10
 73
6
 74
0
 42
0.0000001
 43
0.0000001
 44
0.0000000001
 40
0.0
 40
0.0
 40
0.0
 40
0.0
 40
0.5004401234
 40
0.8661162864
 40
1.0
 40
1.0
 40
1.0
 40
1.0
 10
98.4507810665
 20
174.7152501269
 30
0.0
 10
98.5341835289
 20
174.7161470096
 30
0.0
 10
98.6942807106
 20
174.7318214949
 30
0.0
 10
98.8162071121
 20
174.6895713892
 30
0.0
 10
98.9505905385
 20
174.7375763503
 30
0.0
 10
98.9507619165
 20
174.7152628963
 30
0.0
  0
SPLINE
  5
556
100
AcDbEntity
  8
0
100
AcDbSpline
 62
7
  6
BYLAYER
 70
0
 71
3
 72
10
 73
6
 74
0
 42
0.0000001
 43
0.0000001
 44
0.0000000001
 40
0.0
 40
0.0
 40
0.0
 40
0.0
 40
0.1339793208
 40
0.4999736534
 40
1.0
 40
1.0
 40
1.0
 40
1.0
 10
89.0750646224
 20
160.471577098
 30
0.0
 10
89.074839955
 20
160.4492481227
 30
0.0
 10
89.2102480168
 20
160.4971998156
 30
0.0
 10
89.3313629548
 20
160.4549749592
 30
0.0
 10
89.4917108605
 20
160.4707857171
 30
0.0
 10
89.5750456124
 20
160.4715803626
 30
0.0
  0
SPLINE
  5
557
100
AcDbEntity
  8
0
100
AcDbSpline
 62
7
  6
BYLAYER
 70
0
 71
3
 72
12
 73
8
 74
0
 42
0.0000001
 43
0.0000001
 44
0.0000000001
 40
0.0
 40
0.0
 40
0.0
 40
0.0
 40
0.3224076247
 40
0.6248627708
 40
0.7484234576
 40
0.8509732288
 40
1.0
 40
1.0
 40
1.0
 40
1.0
 10
89.7154015576
 20
176.7591322033
 30
0.0
 10
89.6536373632
 20
176.7595768931
 30
0.0
 10
89.53395936
 20
176.7496896785
 30
0.0
 10
89.3929197269
 20
176.7178131358
 30
0.0
 10
89.3014469755
 20
176.6721805749
 30
0.0
 10
89.2448588506
 20
176.6289754487
 30
0.0
 10
89.2156773146
 20
176.5832923097
 30
0.0
 10
89.2154268483
 20
176.5547433483
 30
0.0
  0
SPLINE
  5
558
100
AcDbEntity
  8
0
100
AcDbSpline
 62
7
  6
BYLAYER
 70
0
 71
3
 72
10
 73
6
 74
0
 42
0.0000001
 43
0.0000001
 44
0.0000000001
 40
0.0
 40
0.0
 40
0.0
 40
0.0
 40
0.133921534
 40
0.4998228981
 40
1.0
 40
1.0
 40
1.0
 40
1.0
 10
89.1993671175
 20
174.7152322204
 30
0.0
 10
89.1995289499
 20
174.7375520904
 30
0.0
 10
89.3340019632
 20
174.6895880464
 30
0.0
 10
89.4558998862
 20
174.7318628586
 30
0.0
 10
89.6159875368
 20
174.7159464799
 30
0.0
 10
89.6993480116
 20
174.7152244942
 30
0.0
  0
SPLINE
  5
559
100
AcDbEntity
  8
0
100
AcDbSpline
 62
7
  6
BYLAYER
 70
0
 71
3
 72
10
 73
6
 74
0
 42
0.0000001
 43
0.0000001
 44
0.0000000001
 40
0.0
 40
0.0
 40
0.0
 40
0.0
 40
0.4674951197
 40
0.7366246475
 40
1.0
 40
1.0
 40
1.0
 40
1.0
 10
88.556166654
 20
179.6715619896
 30
0.0
 10
88.4457391826
 20
179.6715698319
 30
0.0
 10
88.2667291703
 20
179.5770829195
 30
0.0
 10
88.1578528248
 20
179.3641627518
 30
0.0
 10
88.1337449603
 20
179.238154283
 30
0.0
 10
88.1332834307
 20
179.1759438498
 30
0.0
  0
SPLINE
  5
55A
100
AcDbEntity
  8
0
100
AcDbSpline
 62
7
  6
BYLAYER
 70
0
 71
3
 72
11
 73
7
 74
0
 42
0.0000001
 43
0.0000001
 44
0.0000000001
 40
0.0
 40
0.0
 40
0.0
 40
0.0
 40
0.1848303824
 40
0.3725092154
 40
0.6388546377
 40
1.0
 40
1.0
 40
1.0
 40
1.0
 10
100.0168169891
 20
179.1759436303
 30
0.0
 10
99.8215536074
 20
179.1761121095
 30
0.0
 10
99.4003133658
 20
179.0785985725
 30
0.0
 10
99.0275020892
 20
178.4594128624
 30
0.0
 10
98.9386321916
 20
177.5978736816
 30
0.0
 10
98.9313871053
 20
176.9353963695
 30
0.0
 10
98.9347165477
 20
176.5538800573
 30
0.0
  0
LINE
  5
55B
100
AcDbEntity
  8
0
100
AcDbLine
 62
7
  6
BYLAYER
 10
148.0751054424
 20
149.1715814328
 11
148.0745673015
 21
149.2725173434
  0
SPLINE
  5
55C
100
AcDbEntity
  8
0
100
AcDbSpline
 62
7
  6
BYLAYER
 70
0
 71
3
 72
10
 73
6
 74
0
 42
0.0000001
 43
0.0000001
 44
0.0000000001
 40
0.0
 40
0.0
 40
0.0
 40
0.0
 40
0.1339793203
 40
0.4999736531
 40
1.0
 40
1.0
 40
1.0
 40
1.0
 10
137.0750646222
 20
160.471583649
 30
0.0
 10
137.0748696943
 20
160.4939129035
 30
0.0
 10
137.210209032
 20
160.4459605145
 30
0.0
 10
137.3313840839
 20
160.48818598
 30
0.0
 10
137.4917108605
 20
160.4723750081
 30
0.0
 10
137.5750456124
 20
160.4715803626
 30
0.0
  0
LINE
  5
55D
100
AcDbEntity
  8
0
100
AcDbLine
 62
7
  6
BYLAYER
 10
136.0750238594
 20
149.1715814328
 11
136.0755620003
 21
149.2725173434
  0
SPLINE
  5
55E
100
AcDbEntity
  8
0
100
AcDbSpline
 62
7
  6
BYLAYER
 70
0
 71
3
 72
23
 73
19
 74
0
 42
0.0000001
 43
0.0000001
 44
0.0000000001
 40
0.0
 40
0.0
 40
0.0
 40
0.0
 40
0.1041646757
 40
0.1999876663
 40
0.2881152202
 40
0.3691882281
 40
0.4438478286
 40
0.5127369413
 40
0.5764984869
 40
0.6357753845
 40
0.6912105487
 40
0.7434468961
 40
0.7931130489
 40
0.8403883815
 40
0.8849637844
 40
0.9265062412
 40
0.9648149836
 40
1.0
 40
1.0
 40
1.0
 40
1.0
 10
131.045490756
 20
163.0445128849
 30
0.0
 10
131.0497203426
 20
162.954674723
 30
0.0
 10
131.0580389065
 20
162.7822020239
 30
0.0
 10
131.0706650362
 20
162.5337584559
 30
0.0
 10
131.0829185901
 20
162.3052603057
 30
0.0
 10
131.0948345013
 20
162.0950441125
 30
0.0
 10
131.1064581624
 20
161.9014498747
 30
0.0
 10
131.1178488005
 20
161.7228167916
 30
0.0
 10
131.1290820083
 20
161.5574836341
 30
0.0
 10
131.1402581876
 20
161.4037916106
 30
0.0
 10
131.1515038105
 20
161.2600832267
 30
0.0
 10
131.1630104759
 20
161.1247239102
 30
0.0
 10
131.1749352709
 20
160.9964661804
 30
0.0
 10
131.1877089162
 20
160.8749644847
 30
0.0
 10
131.200944415
 20
160.7604836952
 30
0.0
 10
131.2174448063
 20
160.654483086
 30
0.0
 10
131.2308616164
 20
160.5555057758
 30
0.0
 10
131.2585723444
 20
160.4971056104
 30
0.0
 10
131.2750456124
 20
160.4715803625
 30
0.0
  0
SPLINE
  5
55F
100
AcDbEntity
  8
0
100
AcDbSpline
 62
7
  6
BYLAYER
 70
0
 71
3
 72
23
 73
19
 74
0
 42
0.0000001
 43
0.0000001
 44
0.0000000001
 40
0.0
 40
0.0
 40
0.0
 40
0.0
 40
0.1041646757
 40
0.1999876663
 40
0.2881152202
 40
0.3691882281
 40
0.4438478286
 40
0.5127369413
 40
0.5764984869
 40
0.6357753845
 40
0.6912105487
 40
0.7434468961
 40
0.7931130489
 40
0.8403883815
 40
0.8849637844
 40
0.9265062412
 40
0.9648149836
 40
1.0
 40
1.0
 40
1.0
 40
1.0
 10
105.1046385457
 20
163.0445128849
 30
0.0
 10
105.1004089592
 20
162.954674723
 30
0.0
 10
105.0920903952
 20
162.7822020239
 30
0.0
 10
105.0794642656
 20
162.5337584559
 30
0.0
 10
105.0672107116
 20
162.3052603057
 30
0.0
 10
105.0552948005
 20
162.0950441125
 30
0.0
 10
105.0436711394
 20
161.9014498747
 30
0.0
 10
105.0322805013
 20
161.7228167916
 30
0.0
 10
105.0210472935
 20
161.5574836341
 30
0.0
 10
105.0098711142
 20
161.4037916106
 30
0.0
 10
104.9986254912
 20
161.2600832267
 30
0.0
 10
104.9871188259
 20
161.1247239102
 30
0.0
 10
104.9751940308
 20
160.9964661804
 30
0.0
 10
104.9624203855
 20
160.8749644847
 30
0.0
 10
104.9491848868
 20
160.7604836952
 30
0.0
 10
104.9326844955
 20
160.654483086
 30
0.0
 10
104.9192676854
 20
160.5555057758
 30
0.0
 10
104.8915569574
 20
160.4971056104
 30
0.0
 10
104.8750836894
 20
160.4715803625
 30
0.0
  0
SPLINE
  5
560
100
AcDbEntity
  8
0
100
AcDbSpline
 62
7
  6
BYLAYER
 70
0
 71
3
 72
10
 73
6
 74
0
 42
0.0000001
 43
0.0000001
 44
0.0000000001
 40
0.0
 40
0.0
 40
0.0
 40
0.0
 40
0.5448037189
 40
0.8851147409
 40
1.0
 40
1.0
 40
1.0
 40
1.0
 10
145.3391769573
 20
166.9644735814
 30
0.0
 10
145.3503282175
 20
166.9107846691
 30
0.0
 10
145.3704237086
 20
166.823956067
 30
0.0
 10
145.3964924539
 20
166.7267306629
 30
0.0
 10
145.409101703
 20
166.6826837291
 30
0.0
 10
145.4123304574
 20
166.6715803626
 30
0.0
  0
SPLINE
  5
561
100
AcDbEntity
  8
0
100
AcDbSpline
 62
7
  6
BYLAYER
 70
0
 71
3
 72
10
 73
6
 74
0
 42
0.0000001
 43
0.0000001
 44
0.0000000001
 40
0.0
 40
0.0
 40
0.0
 40
0.0
 40
0.3329023517
 40
0.6661886466
 40
1.0
 40
1.0
 40
1.0
 40
1.0
 10
139.1021141892
 20
179.6715803626
 30
0.0
 10
139.1013710679
 20
179.7048678266
 30
0.0
 10
139.0989912727
 20
179.7714711696
 30
0.0
 10
139.1007757509
 20
179.8715076632
 30
0.0
 10
139.0983963584
 20
179.9382019848
 30
0.0
 10
139.0976521535
 20
179.9715803626
 30
0.0
  0
SPLINE
  5
562
100
AcDbEntity
  8
0
100
AcDbSpline
 62
7
  6
BYLAYER
 70
0
 71
3
 72
11
 73
7
 74
0
 42
0.0000001
 43
0.0000001
 44
0.0000000001
 40
0.0
 40
0.0
 40
0.0
 40
0.0
 40
0.1848500278
 40
0.3725488094
 40
0.6389225407
 40
1.0
 40
1.0
 40
1.0
 40
1.0
 10
136.1333123127
 20
179.1759436303
 30
0.0
 10
136.3285756943
 20
179.1761121096
 30
0.0
 10
136.7498159442
 20
179.0785985675
 30
0.0
 10
137.1226271783
 20
178.4594128807
 30
0.0
 10
137.2114857409
 20
177.5979858871
 30
0.0
 10
137.2187391103
 20
176.9356211186
 30
0.0
 10
137.2154156918
 20
176.5542170348
 30
0.0
  0
SPLINE
  5
563
100
AcDbEntity
  8
0
100
AcDbSpline
 62
7
  6
BYLAYER
 70
0
 71
3
 72
10
 73
6
 74
0
 42
0.0000001
 43
0.0000001
 44
0.0000000001
 40
0.0
 40
0.0
 40
0.0
 40
0.0
 40
0.4397586277
 40
0.7843718191
 40
1.0
 40
1.0
 40
1.0
 40
1.0
 10
137.7154010004
 20
176.7590823338
 30
0.0
 10
137.6315124239
 20
176.7597003431
 30
0.0
 10
137.4808002005
 20
176.7430539941
 30
0.0
 10
137.2991151571
 20
176.6887149363
 30
0.0
 10
137.2157115953
 20
176.595641215
 30
0.0
 10
137.2154355462
 20
176.5545076851
 30
0.0
  0
SPLINE
  5
564
100
AcDbEntity
  8
0
100
AcDbSpline
 62
7
  6
BYLAYER
 70
0
 71
3
 72
10
 73
6
 74
0
 42
0.0000001
 43
0.0000001
 44
0.0000000001
 40
0.0
 40
0.0
 40
0.0
 40
0.0
 40
0.5004401237
 40
0.8661162865
 40
1.0
 40
1.0
 40
1.0
 40
1.0
 10
137.6993482353
 20
174.7152501269
 30
0.0
 10
137.6159457728
 20
174.7161470094
 30
0.0
 10
137.4558486039
 20
174.7318214949
 30
0.0
 10
137.3339221661
 20
174.6895713894
 30
0.0
 10
137.1995387812
 20
174.7375763501
 30
0.0
 10
137.1993673852
 20
174.7152628963
 30
0.0
  0
SPLINE
  5
565
100
AcDbEntity
  8
0
100
AcDbSpline
 62
7
  6
BYLAYER
 70
0
 71
3
 72
10
 73
6
 74
0
 42
0.0000001
 43
0.0000001
 44
0.0000000001
 40
0.0
 40
0.0
 40
0.0
 40
0.0
 40
0.1339793208
 40
0.4999736534
 40
1.0
 40
1.0
 40
1.0
 40
1.0
 10
147.0750646793
 20
160.471577098
 30
0.0
 10
147.0752893468
 20
160.4492481227
 30
0.0
 10
146.9398812849
 20
160.4971998156
 30
0.0
 10
146.818766347
 20
160.4549749592
 30
0.0
 10
146.6584184413
 20
160.4707857171
 30
0.0
 10
146.5750836894
 20
160.4715803626
 30
0.0
  0
SPLINE
  5
566
100
AcDbEntity
  8
0
100
AcDbSpline
 62
7
  6
BYLAYER
 70
0
 71
3
 72
12
 73
8
 74
0
 42
0.0000001
 43
0.0000001
 44
0.0000000001
 40
0.0
 40
0.0
 40
0.0
 40
0.0
 40
0.3224076249
 40
0.624862771
 40
0.7484234578
 40
0.8509732289
 40
1.0
 40
1.0
 40
1.0
 40
1.0
 10
146.4347277442
 20
176.7591322033
 30
0.0
 10
146.4964919386
 20
176.7595768931
 30
0.0
 10
146.616169942
 20
176.7496896785
 30
0.0
 10
146.7572095751
 20
176.7178131357
 30
0.0
 10
146.8486823265
 20
176.6721805748
 30
0.0
 10
146.9052704514
 20
176.6289754485
 30
0.0
 10
146.9344519872
 20
176.5832923094
 30
0.0
 10
146.9347024535
 20
176.5547433481
 30
0.0
  0
SPLINE
  5
567
100
AcDbEntity
  8
0
100
AcDbSpline
 62
7
  6
BYLAYER
 70
0
 71
3
 72
10
 73
6
 74
0
 42
0.0000001
 43
0.0000001
 44
0.0000000001
 40
0.0
 40
0.0
 40
0.0
 40
0.0
 40
0.1339215315
 40
0.4998228931
 40
1.0
 40
1.0
 40
1.0
 40
1.0
 10
146.9507621842
 20
174.7152322208
 30
0.0
 10
146.9506003519
 20
174.7375520904
 30
0.0
 10
146.8161273399
 20
174.6895880462
 30
0.0
 10
146.6942294171
 20
174.731862859
 30
0.0
 10
146.5341417658
 20
174.7159464801
 30
0.0
 10
146.4507812902
 20
174.7152244946
 30
0.0
  0
SPLINE
  5
568
100
AcDbEntity
  8
0
100
AcDbSpline
 62
7
  6
BYLAYER
 70
0
 71
3
 72
10
 73
6
 74
0
 42
0.0000001
 43
0.0000001
 44
0.0000000001
 40
0.0
 40
0.0
 40
0.0
 40
0.0
 40
0.4674951197
 40
0.7366246475
 40
1.0
 40
1.0
 40
1.0
 40
1.0
 10
147.5939626478
 20
179.6715619896
 30
0.0
 10
147.7043901192
 20
179.6715698319
 30
0.0
 10
147.8834001315
 20
179.5770829195
 30
0.0
 10
147.992276477
 20
179.3641627518
 30
0.0
 10
148.0163843415
 20
179.238154283
 30
0.0
 10
148.0168458711
 20
179.1759438498
 30
0.0
  0
SPLINE
  5
569
100
AcDbEntity
  8
0
100
AcDbSpline
 62
7
  6
BYLAYER
 70
0
 71
3
 72
23
 73
19
 74
0
 42
0.0000001
 43
0.0000001
 44
0.0000000001
 40
0.0
 40
0.0
 40
0.0
 40
0.0
 40
0.1041646757
 40
0.1999876663
 40
0.2881152202
 40
0.3691882281
 40
0.4438478286
 40
0.5127369413
 40
0.5764984869
 40
0.6357753845
 40
0.6912105487
 40
0.7434468961
 40
0.7931130489
 40
0.8403883815
 40
0.8849637844
 40
0.9265062412
 40
0.9648149836
 40
1.0
 40
1.0
 40
1.0
 40
1.0
 10
153.1046385457
 20
163.0445128849
 30
0.0
 10
153.1004089592
 20
162.954674723
 30
0.0
 10
153.0920903952
 20
162.7822020239
 30
0.0
 10
153.0794642656
 20
162.5337584559
 30
0.0
 10
153.0672107116
 20
162.3052603057
 30
0.0
 10
153.0552948005
 20
162.0950441125
 30
0.0
 10
153.0436711394
 20
161.9014498747
 30
0.0
 10
153.0322805013
 20
161.7228167916
 30
0.0
 10
153.0210472935
 20
161.5574836341
 30
0.0
 10
153.0098711142
 20
161.4037916106
 30
0.0
 10
152.9986254912
 20
161.2600832267
 30
0.0
 10
152.9871188259
 20
161.1247239102
 30
0.0
 10
152.9751940308
 20
160.9964661804
 30
0.0
 10
152.9624203855
 20
160.8749644847
 30
0.0
 10
152.9491848868
 20
160.7604836952
 30
0.0
 10
152.9326844955
 20
160.654483086
 30
0.0
 10
152.9192676854
 20
160.5555057758
 30
0.0
 10
152.8915569574
 20
160.4971056104
 30
0.0
 10
152.8750836894
 20
160.4715803625
 30
0.0
  0
LINE
  5
56A
100
AcDbEntity
  8
0
100
AcDbLine
 62
7
  6
BYLAYER
 10
185.4252245734
 20
160.4715803639
 11
190.4250646509
 21
160.4715803626
  0
SPLINE
  5
56B
100
AcDbEntity
  8
0
100
AcDbSpline
 62
7
  6
BYLAYER
 70
0
 71
3
 72
13
 73
9
 74
0
 42
0.0000001
 43
0.0000001
 44
0.0000000001
 40
0.0
 40
0.0
 40
0.0
 40
0.0
 40
0.0278834889
 40
0.1150625147
 40
0.260825287
 40
0.4600943039
 40
0.7081852452
 40
1.0
 40
1.0
 40
1.0
 40
1.0
 10
190.3243443731
 20
179.6715801217
 30
0.0
 10
190.2590806124
 20
179.6715801217
 30
0.0
 10
190.1053827033
 20
179.3772741653
 30
0.0
 10
189.6312921318
 20
179.0543596092
 30
0.0
 10
188.9362324988
 20
178.2809592178
 30
0.0
 10
187.9439583104
 20
177.3262192892
 30
0.0
 10
186.7252737279
 20
176.0919728142
 30
0.0
 10
185.8323543635
 20
175.1994333168
 30
0.0
 10
185.3506444056
 20
174.71521304
 30
0.0
  0
SPLINE
  5
56C
100
AcDbEntity
  8
0
100
AcDbSpline
 62
7
  6
BYLAYER
 70
0
 71
3
 72
10
 73
6
 74
0
 42
0.0000001
 43
0.0000001
 44
0.0000000001
 40
0.0
 40
0.0
 40
0.0
 40
0.0
 40
0.1339793203
 40
0.4999736531
 40
1.0
 40
1.0
 40
1.0
 40
1.0
 10
147.0750646796
 20
160.471583649
 30
0.0
 10
147.0752596075
 20
160.4939129035
 30
0.0
 10
146.9399202698
 20
160.4459605145
 30
0.0
 10
146.8187452179
 20
160.48818598
 30
0.0
 10
146.6584184413
 20
160.4723750081
 30
0.0
 10
146.5750836894
 20
160.4715803626
 30
0.0
  0
SPLINE
  5
56D
100
AcDbEntity
  8
0
100
AcDbSpline
 62
7
  6
BYLAYER
 70
0
 71
3
 72
10
 73
6
 74
0
 42
0.0000001
 43
0.0000001
 44
0.0000000001
 40
0.0
 40
0.0
 40
0.0
 40
0.0
 40
0.1339793208
 40
0.4999736534
 40
1.0
 40
1.0
 40
1.0
 40
1.0
 10
137.0750646224
 20
160.471577098
 30
0.0
 10
137.074839955
 20
160.4492481227
 30
0.0
 10
137.2102480168
 20
160.4971998156
 30
0.0
 10
137.3313629548
 20
160.4549749592
 30
0.0
 10
137.4917108605
 20
160.4707857171
 30
0.0
 10
137.5750456124
 20
160.4715803626
 30
0.0
  0
SPLINE
  5
56E
100
AcDbEntity
  8
0
100
AcDbSpline
 62
7
  6
BYLAYER
 70
0
 71
3
 72
23
 73
19
 74
0
 42
0.0000001
 43
0.0000001
 44
0.0000000001
 40
0.0
 40
0.0
 40
0.0
 40
0.0
 40
0.1041646757
 40
0.1999876663
 40
0.2881152202
 40
0.3691882281
 40
0.4438478286
 40
0.5127369413
 40
0.5764984869
 40
0.6357753845
 40
0.6912105487
 40
0.7434468961
 40
0.7931130489
 40
0.8403883815
 40
0.8849637844
 40
0.9265062412
 40
0.9648149836
 40
1.0
 40
1.0
 40
1.0
 40
1.0
 10
179.045490756
 20
163.0445128849
 30
0.0
 10
179.0497203426
 20
162.954674723
 30
0.0
 10
179.0580389065
 20
162.7822020239
 30
0.0
 10
179.0706650362
 20
162.5337584559
 30
0.0
 10
179.0829185901
 20
162.3052603057
 30
0.0
 10
179.0948345013
 20
162.0950441125
 30
0.0
 10
179.1064581624
 20
161.9014498747
 30
0.0
 10
179.1178488005
 20
161.7228167916
 30
0.0
 10
179.1290820083
 20
161.5574836341
 30
0.0
 10
179.1402581876
 20
161.4037916106
 30
0.0
 10
179.1515038105
 20
161.2600832267
 30
0.0
 10
179.1630104759
 20
161.1247239102
 30
0.0
 10
179.1749352709
 20
160.9964661804
 30
0.0
 10
179.1877089162
 20
160.8749644847
 30
0.0
 10
179.200944415
 20
160.7604836952
 30
0.0
 10
179.2174448063
 20
160.654483086
 30
0.0
 10
179.2308616164
 20
160.5555057758
 30
0.0
 10
179.2585723444
 20
160.4971056104
 30
0.0
 10
179.2750456124
 20
160.4715803625
 30
0.0
  0
SPLINE
  5
56F
100
AcDbEntity
  8
0
100
AcDbSpline
 62
7
  6
BYLAYER
 70
0
 71
3
 72
12
 73
8
 74
0
 42
0.0000001
 43
0.0000001
 44
0.0000000001
 40
0.0
 40
0.0
 40
0.0
 40
0.0
 40
0.2169012537
 40
0.411116118
 40
0.5896856717
 40
0.7835474897
 40
1.0
 40
1.0
 40
1.0
 40
1.0
 10
148.4774153079
 20
179.9715803626
 30
0.0
 10
148.5192260224
 20
180.0314342478
 30
0.0
 10
148.606096053
 20
180.1391656441
 30
0.0
 10
148.7728729102
 20
180.2603392703
 30
0.0
 10
148.9779785435
 20
180.2600697765
 30
0.0
 10
149.1442730098
 20
180.1388093888
 30
0.0
 10
149.2309897809
 20
180.0313104171
 30
0.0
 10
149.2727139939
 20
179.9715803626
 30
0.0
  0
SPLINE
  5
570
100
AcDbEntity
  8
0
100
AcDbSpline
 62
7
  6
BYLAYER
 70
0
 71
3
 72
10
 73
6
 74
0
 42
0.0000001
 43
0.0000001
 44
0.0000000001
 40
0.0
 40
0.0
 40
0.0
 40
0.0
 40
0.5448037201
 40
0.8851147408
 40
1.0
 40
1.0
 40
1.0
 40
1.0
 10
138.8109523445
 20
166.9644735814
 30
0.0
 10
138.7998010842
 20
166.910784669
 30
0.0
 10
138.7797055931
 20
166.8239560669
 30
0.0
 10
138.7536368479
 20
166.7267306627
 30
0.0
 10
138.7410275987
 20
166.6826837291
 30
0.0
 10
138.7377988442
 20
166.6715803626
 30
0.0
  0
SPLINE
  5
571
100
AcDbEntity
  8
0
100
AcDbSpline
 62
7
  6
BYLAYER
 70
0
 71
3
 72
11
 73
7
 74
0
 42
0.0000001
 43
0.0000001
 44
0.0000000001
 40
0.0
 40
0.0
 40
0.0
 40
0.0
 40
0.3558199897
 40
0.6226006136
 40
0.8137305927
 40
1.0
 40
1.0
 40
1.0
 40
1.0
 10
137.7154012345
 20
176.7591341123
 30
0.0
 10
137.7186533412
 20
177.1733873886
 30
0.0
 10
137.7133339744
 20
177.9004270967
 30
0.0
 10
137.6163194714
 20
178.8397398134
 30
0.0
 10
137.2488308543
 20
179.5575623639
 30
0.0
 10
136.7730329342
 20
179.6715838985
 30
0.0
 10
136.556167406
 20
179.6715803626
 30
0.0
  0
LINE
  5
572
100
AcDbEntity
  8
0
100
AcDbLine
 62
7
  6
BYLAYER
 10
137.6993478556
 20
174.71521304
 11
137.7154012345
 21
176.7591341123
  0
LINE
  5
573
100
AcDbEntity
  8
0
100
AcDbLine
 62
7
  6
BYLAYER
 10
146.4347302784
 20
176.7592525923
 11
146.4508147581
 21
174.71521304
  0
SPLINE
  5
574
100
AcDbEntity
  8
0
100
AcDbSpline
 62
7
  6
BYLAYER
 70
0
 71
3
 72
11
 73
7
 74
0
 42
0.0000001
 43
0.0000001
 44
0.0000000001
 40
0.0
 40
0.0
 40
0.0
 40
0.0
 40
0.1863790664
 40
0.3775892418
 40
0.64439435
 40
1.0
 40
1.0
 40
1.0
 40
1.0
 10
147.5939611209
 20
179.6715803626
 30
0.0
 10
147.3769741916
 20
179.6715857199
 30
0.0
 10
146.9009472105
 20
179.5573674677
 30
0.0
 10
146.5335959454
 20
178.8392067638
 30
0.0
 10
146.4368198815
 20
177.9000387184
 30
0.0
 10
146.4314791207
 20
177.1732443578
 30
0.0
 10
146.4347302784
 20
176.7592525923
 30
0.0
  0
SPLINE
  5
575
100
AcDbEntity
  8
0
100
AcDbSpline
 62
7
  6
BYLAYER
 70
0
 71
3
 72
11
 73
7
 74
0
 42
0.0000001
 43
0.0000001
 44
0.0000000001
 40
0.0
 40
0.0
 40
0.0
 40
0.0
 40
0.2437780995
 40
0.5000002284
 40
0.7562223573
 40
1.0
 40
1.0
 40
1.0
 40
1.0
 10
138.826377836
 20
179.6715803626
 30
0.0
 10
139.3544225369
 20
179.6715803625
 30
0.0
 10
140.4371089292
 20
179.6375884308
 30
0.0
 10
142.0750646566
 20
179.6083409705
 30
0.0
 10
143.7130193954
 20
179.637588409
 30
0.0
 10
144.7957047973
 20
179.6715803118
 30
0.0
 10
145.3237485086
 20
179.6715803626
 30
0.0
  0
SPLINE
  5
576
100
AcDbEntity
  8
0
100
AcDbSpline
 62
7
  6
BYLAYER
 70
0
 71
3
 72
11
 73
7
 74
0
 42
0.0000001
 43
0.0000001
 44
0.0000000001
 40
0.0
 40
0.0
 40
0.0
 40
0.0
 40
0.2265973726
 40
0.4228813734
 40
0.6681904495
 40
1.0
 40
1.0
 40
1.0
 40
1.0
 10
183.9618073807
 20
179.6715803626
 30
0.0
 10
184.1758702211
 20
179.6715803626
 30
0.0
 10
184.5975448104
 20
179.6257309401
 30
0.0
 10
185.0662606563
 20
179.140182052
 30
0.0
 10
185.2151407042
 20
178.4051509564
 30
0.0
 10
185.2268329254
 20
177.8625020682
 30
0.0
 10
185.2240975486
 20
177.5490589355
 30
0.0
  0
SPLINE
  5
577
100
AcDbEntity
  8
0
100
AcDbSpline
 62
7
  6
BYLAYER
 70
0
 71
3
 72
13
 73
9
 74
0
 42
0.0000001
 43
0.0000001
 44
0.0000000001
 40
0.0
 40
0.0
 40
0.0
 40
0.0
 40
0.0278834459
 40
0.1150622919
 40
0.2608249089
 40
0.4600938996
 40
0.7081850264
 40
1.0
 40
1.0
 40
1.0
 40
1.0
 10
190.3243443684
 20
179.6715803626
 30
0.0
 10
190.2590807112
 20
179.6715803626
 30
0.0
 10
190.1054339953
 20
179.3772205936
 30
0.0
 10
189.6312830069
 20
179.0543714439
 30
0.0
 10
188.9361587389
 20
178.2810353503
 30
0.0
 10
187.9440716104
 20
177.3261090096
 30
0.0
 10
186.7250247755
 20
176.0922229289
 30
0.0
 10
185.8323547044
 20
175.1994336595
 30
0.0
 10
185.3506444056
 20
174.71521304
 30
0.0
  0
LINE
  5
578
100
AcDbEntity
  8
0
100
AcDbLine
 62
7
  6
BYLAYER
 10
190.4250646493
 20
160.4715806658
 11
185.4252245735
 21
160.4715803625
  0
SPLINE
  5
579
100
AcDbEntity
  8
0
100
AcDbSpline
 62
7
  6
BYLAYER
 70
0
 71
3
 72
23
 73
19
 74
0
 42
0.0000001
 43
0.0000001
 44
0.0000000001
 40
0.0
 40
0.0
 40
0.0
 40
0.0
 40
0.1041646757
 40
0.1999876663
 40
0.2881152202
 40
0.3691882281
 40
0.4438478286
 40
0.5127369414
 40
0.5764984869
 40
0.6357753845
 40
0.6912105487
 40
0.7434468961
 40
0.7931130489
 40
0.8403883815
 40
0.8849637844
 40
0.9265062412
 40
0.9648149836
 40
1.0
 40
1.0
 40
1.0
 40
1.0
 10
83.045490756
 20
163.0445128849
 30
0.0
 10
83.0497203426
 20
162.954674723
 30
0.0
 10
83.0580389065
 20
162.7822020239
 30
0.0
 10
83.0706650362
 20
162.5337584559
 30
0.0
 10
83.0829185901
 20
162.3052603057
 30
0.0
 10
83.0948345013
 20
162.0950441125
 30
0.0
 10
83.1064581624
 20
161.9014498747
 30
0.0
 10
83.1178488005
 20
161.7228167916
 30
0.0
 10
83.1290820083
 20
161.5574836341
 30
0.0
 10
83.1402581876
 20
161.4037916106
 30
0.0
 10
83.1515038105
 20
161.2600832267
 30
0.0
 10
83.1630104759
 20
161.1247239102
 30
0.0
 10
83.1749352709
 20
160.9964661804
 30
0.0
 10
83.1877089162
 20
160.8749644847
 30
0.0
 10
83.200944415
 20
160.7604836952
 30
0.0
 10
83.2174448063
 20
160.654483086
 30
0.0
 10
83.2308616164
 20
160.5555057758
 30
0.0
 10
83.2585723444
 20
160.4971056104
 30
0.0
 10
83.2750456124
 20
160.4715803625
 30
0.0
  0
SPLINE
  5
57A
100
AcDbEntity
  8
0
100
AcDbSpline
 62
7
  6
BYLAYER
 70
0
 71
3
 72
23
 73
19
 74
0
 42
0.0000001
 43
0.0000001
 44
0.0000000001
 40
0.0
 40
0.0
 40
0.0
 40
0.0
 40
0.1041646757
 40
0.1999876663
 40
0.2881152202
 40
0.3691882281
 40
0.4438478286
 40
0.5127369413
 40
0.5764984869
 40
0.6357753845
 40
0.6912105487
 40
0.7434468961
 40
0.7931130489
 40
0.8403883815
 40
0.8849637844
 40
0.9265062412
 40
0.9648149836
 40
1.0
 40
1.0
 40
1.0
 40
1.0
 10
57.1046385457
 20
163.0445128849
 30
0.0
 10
57.1004089592
 20
162.954674723
 30
0.0
 10
57.0920903952
 20
162.7822020239
 30
0.0
 10
57.0794642656
 20
162.5337584559
 30
0.0
 10
57.0672107116
 20
162.3052603057
 30
0.0
 10
57.0552948005
 20
162.0950441125
 30
0.0
 10
57.0436711394
 20
161.9014498747
 30
0.0
 10
57.0322805013
 20
161.7228167916
 30
0.0
 10
57.0210472935
 20
161.5574836341
 30
0.0
 10
57.0098711142
 20
161.4037916106
 30
0.0
 10
56.9986254912
 20
161.2600832267
 30
0.0
 10
56.9871188259
 20
161.1247239102
 30
0.0
 10
56.9751940308
 20
160.9964661804
 30
0.0
 10
56.9624203855
 20
160.8749644847
 30
0.0
 10
56.9491848868
 20
160.7604836952
 30
0.0
 10
56.9326844955
 20
160.654483086
 30
0.0
 10
56.9192676854
 20
160.5555057758
 30
0.0
 10
56.8915569574
 20
160.4971056104
 30
0.0
 10
56.8750836894
 20
160.4715803625
 30
0.0
  0
LINE
  5
57B
100
AcDbEntity
  8
0
100
AcDbLine
 62
7
  6
BYLAYER
 10
97.0468996036
 20
179.6715803626
 11
97.0535926573
 21
179.9715803626
  0
LINE
  5
57C
100
AcDbEntity
  8
0
100
AcDbLine
 62
7
  6
BYLAYER
 10
91.1032296982
 20
179.6715803626
 11
91.0965366445
 21
179.9715803626
  0
SPLINE
  5
57D
100
AcDbEntity
  8
0
100
AcDbSpline
 62
7
  6
BYLAYER
 70
0
 71
3
 72
9
 73
5
 74
0
 42
0.0000001
 43
0.0000001
 44
0.0000000001
 40
0.0
 40
0.0
 40
0.0
 40
0.0
 40
0.5
 40
1.0
 40
1.0
 40
1.0
 40
1.0
 10
84.0750646509
 20
179.9715803626
 30
0.0
 10
84.0750646509
 20
179.921555727
 30
0.0
 10
84.0703553555
 20
179.8215803626
 30
0.0
 10
84.06564606
 20
179.7216049981
 30
0.0
 10
84.06564606
 20
179.6715803626
 30
0.0
  0
SPLINE
  5
57E
100
AcDbEntity
  8
0
100
AcDbSpline
 62
7
  6
BYLAYER
 70
0
 71
3
 72
10
 73
6
 74
0
 42
0.0000001
 43
0.0000001
 44
0.0000000001
 40
0.0
 40
0.0
 40
0.0
 40
0.0
 40
0.5448037201
 40
0.8851147408
 40
1.0
 40
1.0
 40
1.0
 40
1.0
 10
90.8109523445
 20
166.9644735814
 30
0.0
 10
90.7998010842
 20
166.910784669
 30
0.0
 10
90.7797055931
 20
166.8239560669
 30
0.0
 10
90.7536368479
 20
166.7267306627
 30
0.0
 10
90.7410275987
 20
166.6826837291
 30
0.0
 10
90.7377988442
 20
166.6715803626
 30
0.0
  0
SPLINE
  5
57F
100
AcDbEntity
  8
0
100
AcDbSpline
 62
7
  6
BYLAYER
 70
0
 71
3
 72
10
 73
6
 74
0
 42
0.0000001
 43
0.0000001
 44
0.0000000001
 40
0.0
 40
0.0
 40
0.0
 40
0.0
 40
0.5448037189
 40
0.8851147409
 40
1.0
 40
1.0
 40
1.0
 40
1.0
 10
97.3391769573
 20
166.9644735814
 30
0.0
 10
97.3503282175
 20
166.9107846691
 30
0.0
 10
97.3704237086
 20
166.823956067
 30
0.0
 10
97.3964924539
 20
166.7267306629
 30
0.0
 10
97.409101703
 20
166.6826837291
 30
0.0
 10
97.4123304574
 20
166.6715803626
 30
0.0
  0
SPLINE
  5
580
100
AcDbEntity
  8
0
100
AcDbSpline
 62
7
  6
BYLAYER
 70
0
 71
3
 72
11
 73
7
 74
0
 42
0.0000001
 43
0.0000001
 44
0.0000000001
 40
0.0
 40
0.0
 40
0.0
 40
0.0
 40
0.2265973974
 40
0.4228814657
 40
0.6681906044
 40
1.0
 40
1.0
 40
1.0
 40
1.0
 10
52.1883219211
 20
179.6715803626
 30
0.0
 10
51.9742590315
 20
179.6715803626
 30
0.0
 10
51.552584276
 20
179.6257309093
 30
0.0
 10
51.0838684308
 20
179.1401816522
 30
0.0
 10
50.9349885814
 20
178.4051504731
 30
0.0
 10
50.9232963809
 20
177.8625016068
 30
0.0
 10
50.9260317567
 20
177.5490585827
 30
0.0
  0
SPLINE
  5
581
100
AcDbEntity
  8
0
100
AcDbSpline
 62
7
  6
BYLAYER
 70
0
 71
3
 72
13
 73
9
 74
0
 42
0.0000001
 43
0.0000001
 44
0.0000000001
 40
0.0
 40
0.0
 40
0.0
 40
0.0
 40
0.0278834459
 40
0.1150622919
 40
0.2608249089
 40
0.4600938996
 40
0.7081850264
 40
1.0
 40
1.0
 40
1.0
 40
1.0
 10
45.8257849333
 20
179.6715803626
 30
0.0
 10
45.8910485906
 20
179.6715803626
 30
0.0
 10
46.0446953065
 20
179.3772205936
 30
0.0
 10
46.5188462949
 20
179.0543714439
 30
0.0
 10
47.2139705628
 20
178.2810353503
 30
0.0
 10
48.2060576914
 20
177.3261090096
 30
0.0
 10
49.4251045263
 20
176.0922229289
 30
0.0
 10
50.3177745974
 20
175.1994336595
 30
0.0
 10
50.7994848962
 20
174.71521304
 30
0.0
  0
LINE
  5
582
100
AcDbEntity
  8
0
100
AcDbLine
 62
7
  6
BYLAYER
 10
45.7250646525
 20
160.4715806658
 11
50.7249047283
 21
160.4715803625
  0
LINE
  5
583
100
AcDbEntity
  8
0
100
AcDbLine
 62
7
  6
BYLAYER
 10
50.7249047283
 20
160.4715803631
 11
45.7250646509
 21
160.4715803626
  0
SPLINE
  5
584
100
AcDbEntity
  8
0
100
AcDbSpline
 62
7
  6
BYLAYER
 70
0
 71
3
 72
13
 73
9
 74
0
 42
0.0000001
 43
0.0000001
 44
0.0000000001
 40
0.0
 40
0.0
 40
0.0
 40
0.0
 40
0.0278834889
 40
0.1150625147
 40
0.260825287
 40
0.4600943039
 40
0.7081852452
 40
1.0
 40
1.0
 40
1.0
 40
1.0
 10
45.8257849286
 20
179.6715801217
 30
0.0
 10
45.8910486893
 20
179.6715801217
 30
0.0
 10
46.0447465984
 20
179.3772741653
 30
0.0
 10
46.51883717
 20
179.0543596092
 30
0.0
 10
47.213896803
 20
178.2809592178
 30
0.0
 10
48.2061709914
 20
177.3262192892
 30
0.0
 10
49.4248555738
 20
176.0919728142
 30
0.0
 10
50.3177749383
 20
175.1994333168
 30
0.0
 10
50.7994848962
 20
174.71521304
 30
0.0
  0
SPLINE
  5
585
100
AcDbEntity
  8
0
100
AcDbSpline
 62
7
  6
BYLAYER
 70
0
 71
3
 72
11
 73
7
 74
0
 42
0.0000001
 43
0.0000001
 44
0.0000000001
 40
0.0
 40
0.0
 40
0.0
 40
0.0
 40
0.1848500278
 40
0.3725488094
 40
0.6389225407
 40
1.0
 40
1.0
 40
1.0
 40
1.0
 10
88.1333123127
 20
179.1759436303
 30
0.0
 10
88.3285756943
 20
179.1761121096
 30
0.0
 10
88.7498159442
 20
179.0785985675
 30
0.0
 10
89.1226271783
 20
178.4594128807
 30
0.0
 10
89.2114857409
 20
177.5979858871
 30
0.0
 10
89.2187391103
 20
176.9356211186
 30
0.0
 10
89.2154156918
 20
176.5542170348
 30
0.0
  0
SPLINE
  5
586
100
AcDbEntity
  8
0
100
AcDbSpline
 62
7
  6
BYLAYER
 70
0
 71
3
 72
10
 73
6
 74
0
 42
0.0000001
 43
0.0000001
 44
0.0000000001
 40
0.0
 40
0.0
 40
0.0
 40
0.0
 40
0.4397586295
 40
0.7843718198
 40
1.0
 40
1.0
 40
1.0
 40
1.0
 10
89.7154010023
 20
176.7590823337
 30
0.0
 10
89.6315124252
 20
176.7597003432
 30
0.0
 10
89.4808002011
 20
176.7430539943
 30
0.0
 10
89.2991151571
 20
176.6887149363
 30
0.0
 10
89.2157115953
 20
176.595641215
 30
0.0
 10
89.2154355462
 20
176.5545076851
 30
0.0
  0
SPLINE
  5
587
100
AcDbEntity
  8
0
100
AcDbSpline
 62
7
  6
BYLAYER
 70
0
 71
3
 72
10
 73
6
 74
0
 42
0.0000001
 43
0.0000001
 44
0.0000000001
 40
0.0
 40
0.0
 40
0.0
 40
0.0
 40
0.5004401237
 40
0.8661162865
 40
1.0
 40
1.0
 40
1.0
 40
1.0
 10
89.6993482353
 20
174.7152501269
 30
0.0
 10
89.6159457728
 20
174.7161470094
 30
0.0
 10
89.4558486039
 20
174.7318214949
 30
0.0
 10
89.3339221661
 20
174.6895713894
 30
0.0
 10
89.1995387812
 20
174.7375763501
 30
0.0
 10
89.1993673852
 20
174.7152628963
 30
0.0
  0
LINE
  5
588
100
AcDbEntity
  8
0
100
AcDbLine
 62
7
  6
BYLAYER
 10
98.4347302784
 20
176.7592525923
 11
98.4508147581
 21
174.71521304
  0
SPLINE
  5
589
100
AcDbEntity
  8
0
100
AcDbSpline
 62
7
  6
BYLAYER
 70
0
 71
3
 72
11
 73
7
 74
0
 42
0.0000001
 43
0.0000001
 44
0.0000000001
 40
0.0
 40
0.0
 40
0.0
 40
0.0
 40
0.1863790664
 40
0.3775892418
 40
0.64439435
 40
1.0
 40
1.0
 40
1.0
 40
1.0
 10
99.5939611209
 20
179.6715803626
 30
0.0
 10
99.3769741916
 20
179.6715857199
 30
0.0
 10
98.9009472105
 20
179.5573674677
 30
0.0
 10
98.5335959454
 20
178.8392067638
 30
0.0
 10
98.4368198815
 20
177.9000387184
 30
0.0
 10
98.4314791207
 20
177.1732443578
 30
0.0
 10
98.4347302784
 20
176.7592525923
 30
0.0
  0
SPLINE
  5
58A
100
AcDbEntity
  8
0
100
AcDbSpline
 62
7
  6
BYLAYER
 70
0
 71
3
 72
11
 73
7
 74
0
 42
0.0000001
 43
0.0000001
 44
0.0000000001
 40
0.0
 40
0.0
 40
0.0
 40
0.0
 40
0.3558200327
 40
0.6226006885
 40
0.8137306923
 40
1.0
 40
1.0
 40
1.0
 40
1.0
 10
89.7154012376
 20
176.7591342597
 30
0.0
 10
89.7186533442
 20
177.1733875162
 30
0.0
 10
89.7133339689
 20
177.9004271858
 30
0.0
 10
89.6163194569
 20
178.8397398704
 30
0.0
 10
89.2488309075
 20
179.5575622147
 30
0.0
 10
88.7730332435
 20
179.6715838596
 30
0.0
 10
88.5561678679
 20
179.6715803626
 30
0.0
  0
LINE
  5
58B
100
AcDbEntity
  8
0
100
AcDbLine
 62
7
  6
BYLAYER
 10
89.699347856
 20
174.71521304
 11
89.7154012376
 21
176.7591342597
  0
SPLINE
  5
58C
100
AcDbEntity
  8
0
100
AcDbSpline
 62
7
  6
BYLAYER
 70
0
 71
3
 72
12
 73
8
 74
0
 42
0.0000001
 43
0.0000001
 44
0.0000000001
 40
0.0
 40
0.0
 40
0.0
 40
0.0
 40
0.3224076249
 40
0.624862771
 40
0.7484234578
 40
0.8509732289
 40
1.0
 40
1.0
 40
1.0
 40
1.0
 10
98.4347277442
 20
176.7591322033
 30
0.0
 10
98.4964919386
 20
176.7595768931
 30
0.0
 10
98.616169942
 20
176.7496896785
 30
0.0
 10
98.7572095751
 20
176.7178131357
 30
0.0
 10
98.8486823265
 20
176.6721805748
 30
0.0
 10
98.9052704514
 20
176.6289754485
 30
0.0
 10
98.9344519872
 20
176.5832923094
 30
0.0
 10
98.9347024535
 20
176.5547433481
 30
0.0
  0
SPLINE
  5
58D
100
AcDbEntity
  8
0
100
AcDbSpline
 62
7
  6
BYLAYER
 70
0
 71
3
 72
10
 73
6
 74
0
 42
0.0000001
 43
0.0000001
 44
0.0000000001
 40
0.0
 40
0.0
 40
0.0
 40
0.0
 40
0.1339215315
 40
0.4998228931
 40
1.0
 40
1.0
 40
1.0
 40
1.0
 10
98.9507621842
 20
174.7152322208
 30
0.0
 10
98.9506003519
 20
174.7375520904
 30
0.0
 10
98.8161273399
 20
174.6895880462
 30
0.0
 10
98.6942294171
 20
174.731862859
 30
0.0
 10
98.5341417658
 20
174.7159464801
 30
0.0
 10
98.4507812902
 20
174.7152244946
 30
0.0
  0
SPLINE
  5
58E
100
AcDbEntity
  8
0
100
AcDbSpline
 62
7
  6
BYLAYER
 70
0
 71
3
 72
10
 73
6
 74
0
 42
0.0000001
 43
0.0000001
 44
0.0000000001
 40
0.0
 40
0.0
 40
0.0
 40
0.0
 40
0.4674951197
 40
0.7366246475
 40
1.0
 40
1.0
 40
1.0
 40
1.0
 10
99.5939626478
 20
179.6715619896
 30
0.0
 10
99.7043901192
 20
179.6715698319
 30
0.0
 10
99.8834001315
 20
179.5770829195
 30
0.0
 10
99.992276477
 20
179.3641627518
 30
0.0
 10
100.0163843415
 20
179.238154283
 30
0.0
 10
100.0168458711
 20
179.1759438498
 30
0.0
  0
SPLINE
  5
58F
100
AcDbEntity
  8
0
100
AcDbSpline
 62
7
  6
BYLAYER
 70
0
 71
3
 72
10
 73
6
 74
0
 42
0.0000001
 43
0.0000001
 44
0.0000000001
 40
0.0
 40
0.0
 40
0.0
 40
0.0
 40
0.1339793208
 40
0.4999736534
 40
1.0
 40
1.0
 40
1.0
 40
1.0
 10
99.0750646793
 20
160.471577098
 30
0.0
 10
99.0752893468
 20
160.4492481227
 30
0.0
 10
98.9398812849
 20
160.4971998156
 30
0.0
 10
98.818766347
 20
160.4549749592
 30
0.0
 10
98.6584184413
 20
160.4707857171
 30
0.0
 10
98.5750836894
 20
160.4715803626
 30
0.0
  0
SPLINE
  5
590
100
AcDbEntity
  8
0
100
AcDbSpline
 62
7
  6
BYLAYER
 70
0
 71
3
 72
10
 73
6
 74
0
 42
0.0000001
 43
0.0000001
 44
0.0000000001
 40
0.0
 40
0.0
 40
0.0
 40
0.0
 40
0.1339793203
 40
0.4999736531
 40
1.0
 40
1.0
 40
1.0
 40
1.0
 10
89.0750646222
 20
160.471583649
 30
0.0
 10
89.0748696943
 20
160.4939129035
 30
0.0
 10
89.210209032
 20
160.4459605145
 30
0.0
 10
89.3313840839
 20
160.48818598
 30
0.0
 10
89.4917108605
 20
160.4723750081
 30
0.0
 10
89.5750456124
 20
160.4715803626
 30
0.0
  0
SPLINE
  5
591
100
AcDbEntity
  8
0
100
AcDbSpline
 62
7
  6
BYLAYER
 70
0
 71
3
 72
12
 73
8
 74
0
 42
0.0000001
 43
0.0000001
 44
0.0000000001
 40
0.0
 40
0.0
 40
0.0
 40
0.0
 40
0.3089895664
 40
0.5877312097
 40
0.8089456946
 40
0.9509885286
 40
1.0
 40
1.0
 40
1.0
 40
1.0
 10
90.1973550351
 20
165.6454007561
 30
0.0
 10
89.8883678459
 20
165.6427044711
 30
0.0
 10
89.2949697136
 20
165.6332047859
 30
0.0
 10
88.5078689647
 20
165.6493963728
 30
0.0
 10
87.8098604381
 20
165.5980750388
 30
0.0
 10
87.5045269263
 20
165.6975322378
 30
0.0
 10
87.1978969793
 20
165.596389662
 30
0.0
 10
87.1974692659
 20
165.6454007561
 30
0.0
  0
SPLINE
  5
592
100
AcDbEntity
  8
0
100
AcDbSpline
 62
7
  6
BYLAYER
 70
0
 71
3
 72
12
 73
8
 74
0
 42
0.0000001
 43
0.0000001
 44
0.0000000001
 40
0.0
 40
0.0
 40
0.0
 40
0.0
 40
0.3089895664
 40
0.5877312097
 40
0.8089456946
 40
0.9509885286
 40
1.0
 40
1.0
 40
1.0
 40
1.0
 10
97.9527742667
 20
165.6454007561
 30
0.0
 10
98.2617614559
 20
165.6427044711
 30
0.0
 10
98.8551595881
 20
165.6332047859
 30
0.0
 10
99.6422603371
 20
165.6493963728
 30
0.0
 10
100.3402688636
 20
165.5980750388
 30
0.0
 10
100.6456023754
 20
165.6975322378
 30
0.0
 10
100.9522323225
 20
165.596389662
 30
0.0
 10
100.9526600358
 20
165.6454007561
 30
0.0
  0
SPLINE
  5
593
100
AcDbEntity
  8
0
100
AcDbSpline
 62
7
  6
BYLAYER
 70
0
 71
3
 72
9
 73
5
 74
0
 42
0.0000001
 43
0.0000001
 44
0.0000000001
 40
0.0
 40
0.0
 40
0.0
 40
0.0
 40
0.5
 40
1.0
 40
1.0
 40
1.0
 40
1.0
 10
132.0750646509
 20
179.9715803626
 30
0.0
 10
132.0750646509
 20
179.921555727
 30
0.0
 10
132.0703553555
 20
179.8215803626
 30
0.0
 10
132.06564606
 20
179.7216049981
 30
0.0
 10
132.06564606
 20
179.6715803626
 30
0.0
  0
SPLINE
  5
594
100
AcDbEntity
  8
0
100
AcDbSpline
 62
7
  6
BYLAYER
 70
0
 71
3
 72
12
 73
8
 74
0
 42
0.0000001
 43
0.0000001
 44
0.0000000001
 40
0.0
 40
0.0
 40
0.0
 40
0.0
 40
0.2169012537
 40
0.411116118
 40
0.5896856717
 40
0.7835474897
 40
1.0
 40
1.0
 40
1.0
 40
1.0
 10
87.6727139939
 20
179.9715803626
 30
0.0
 10
87.6309032794
 20
180.0314342478
 30
0.0
 10
87.5440332488
 20
180.1391656441
 30
0.0
 10
87.3772563916
 20
180.2603392703
 30
0.0
 10
87.1721507583
 20
180.2600697765
 30
0.0
 10
87.005856292
 20
180.1388093888
 30
0.0
 10
86.9191395209
 20
180.0313104171
 30
0.0
 10
86.8774153079
 20
179.9715803626
 30
0.0
  0
SPLINE
  5
595
100
AcDbEntity
  8
0
100
AcDbSpline
 62
7
  6
BYLAYER
 70
0
 71
3
 72
12
 73
8
 74
0
 42
0.0000001
 43
0.0000001
 44
0.0000000001
 40
0.0
 40
0.0
 40
0.0
 40
0.0
 40
0.3089895664
 40
0.5877312097
 40
0.8089456946
 40
0.9509885286
 40
1.0
 40
1.0
 40
1.0
 40
1.0
 10
138.1973550351
 20
165.6454007561
 30
0.0
 10
137.8883678459
 20
165.6427044711
 30
0.0
 10
137.2949697136
 20
165.6332047859
 30
0.0
 10
136.5078689647
 20
165.6493963728
 30
0.0
 10
135.8098604381
 20
165.5980750388
 30
0.0
 10
135.5045269263
 20
165.6975322378
 30
0.0
 10
135.1978969793
 20
165.596389662
 30
0.0
 10
135.1974692659
 20
165.6454007561
 30
0.0
  0
SPLINE
  5
596
100
AcDbEntity
  8
0
100
AcDbSpline
 62
7
  6
BYLAYER
 70
0
 71
3
 72
12
 73
8
 74
0
 42
0.0000001
 43
0.0000001
 44
0.0000000001
 40
0.0
 40
0.0
 40
0.0
 40
0.0
 40
0.0490114753
 40
0.1910543165
 40
0.4122688056
 40
0.6910104456
 40
1.0
 40
1.0
 40
1.0
 40
1.0
 10
148.9526600358
 20
165.6454007561
 30
0.0
 10
148.9522323225
 20
165.5963896581
 30
0.0
 10
148.645602357
 20
165.697532241
 30
0.0
 10
148.3402688338
 20
165.5980750381
 30
0.0
 10
147.6422602992
 20
165.6493963725
 30
0.0
 10
146.8551595604
 20
165.6332047864
 30
0.0
 10
146.2617614439
 20
165.6427044712
 30
0.0
 10
145.9527742667
 20
165.6454007561
 30
0.0
  0
SPLINE
  5
597
100
AcDbEntity
  8
0
100
AcDbSpline
 62
7
  6
BYLAYER
 70
0
 71
3
 72
11
 73
7
 74
0
 42
0.0000001
 43
0.0000001
 44
0.0000000001
 40
0.0
 40
0.0
 40
0.0
 40
0.0
 40
0.2000341008
 40
0.4359291759
 40
0.7112813511
 40
1.0
 40
1.0
 40
1.0
 40
1.0
 10
33.5250646509
 20
278.482905228
 30
0.0
 10
33.5250646509
 20
278.3993853768
 30
0.0
 10
33.6026275986
 20
278.2175509004
 30
0.0
 10
33.8492562713
 20
278.039472755
 30
0.0
 10
34.1680235469
 20
277.9296592431
 30
0.0
 10
34.4045165119
 20
277.9055549588
 30
0.0
 10
34.5250646509
 20
277.9055549588
 30
0.0
  0
SPLINE
  5
598
100
AcDbEntity
  8
0
100
AcDbSpline
 62
7
  6
BYLAYER
 70
0
 71
3
 72
11
 73
7
 74
0
 42
0.0000001
 43
0.0000001
 44
0.0000000001
 40
0.0
 40
0.0
 40
0.0
 40
0.0
 40
0.2000341008
 40
0.4359291759
 40
0.7112813511
 40
1.0
 40
1.0
 40
1.0
 40
1.0
 10
33.5250646509
 20
272.9980776707
 30
0.0
 10
33.5250646509
 20
272.9145578195
 30
0.0
 10
33.6026275986
 20
272.7327233431
 30
0.0
 10
33.8492562713
 20
272.5546451977
 30
0.0
 10
34.1680235469
 20
272.4448316858
 30
0.0
 10
34.4045165119
 20
272.4207274015
 30
0.0
 10
34.5250646509
 20
272.4207274015
 30
0.0
  0
ELLIPSE
  5
599
100
AcDbEntity
  8
0
100
AcDbEllipse
 62
7
  6
BYLAYER
 10
142.0750646509
 20
166.2864613727
 30
0.0
 11
0.0
 21
3.3339077954
 31
0.0
 40
0.9999619202
 41
-1.3659991144
 42
-1.1423433683
  0
ELLIPSE
  5
59A
100
AcDbEntity
  8
0
100
AcDbEllipse
 62
7
  6
BYLAYER
 10
142.0750646509
 20
166.2864613727
 30
0.0
 11
-0.0
 21
3.3339077954
 31
0.0
 40
0.9999619202
 41
1.1423433683
 42
1.3659991144
  0
ELLIPSE
  5
59B
100
AcDbEntity
  8
0
100
AcDbEllipse
 62
7
  6
BYLAYER
 10
142.0750646509
 20
166.3227155815
 30
0.0
 11
0.0
 21
7.4882286354
 31
0.0
 40
0.9999619202
 41
-1.4849888222
 42
-1.3896763364
  0
ELLIPSE
  5
59C
100
AcDbEntity
  8
0
100
AcDbEllipse
 62
7
  6
BYLAYER
 10
142.0750646509
 20
166.3227155815
 30
0.0
 11
0.0
 21
7.4882286354
 31
0.0
 40
0.9999619202
 41
1.3896763364
 42
1.4849888222
  0
ELLIPSE
  5
59D
100
AcDbEntity
  8
0
100
AcDbEllipse
 62
7
  6
BYLAYER
 10
94.0750646509
 20
166.3227155815
 30
0.0
 11
0.0
 21
7.4882286354
 31
0.0
 40
0.9999619202
 41
-1.4849888222
 42
-1.3896763364
  0
ELLIPSE
  5
59E
100
AcDbEntity
  8
0
100
AcDbEllipse
 62
7
  6
BYLAYER
 10
94.0750646509
 20
166.2864613727
 30
0.0
 11
-0.0
 21
3.3339077954
 31
0.0
 40
0.9999619202
 41
1.1423433683
 42
1.3659991144
  0
ELLIPSE
  5
59F
100
AcDbEntity
  8
0
100
AcDbEllipse
 62
7
  6
BYLAYER
 10
94.0750646509
 20
166.3227155815
 30
0.0
 11
0.0
 21
7.4882286354
 31
0.0
 40
0.9999619202
 41
1.3896763364
 42
1.4849888222
  0
ELLIPSE
  5
5A0
100
AcDbEntity
  8
0
100
AcDbEllipse
 62
7
  6
BYLAYER
 10
94.0750646509
 20
166.2864613727
 30
0.0
 11
-0.0
 21
3.3339077954
 31
0.0
 40
0.9999619202
 41
-1.3659991144
 42
-1.1423433683
  0
ENDSEC
  0
SECTION
  2
OBJECTS
  0
DICTIONARY
  5
C
100
AcDbDictionary
280
0
281
1
  3
ACAD_GROUP
350
D
  3
ACAD_MLINESTYLE
350
17
  3
ACAD_LAYOUT
350
1A
  3
ACAD_PLOTSETTINGS
350
19
  3
ACAD_PLOTSTYLENAME
350
E
  0
DICTIONARY
  5
D
102
{ACAD_REACTORS
330
C
102
}
100
AcDbDictionary
280
0
281
1
  0
ACDBDICTIONARYWDFLT
  5
E
102
{ACAD_REACTORS
330
C
102
}
100
AcDbDictionary
281
1
  3
Normal
350
F
100
AcDbDictionaryWithDefault
340
F
  0
DICTIONARY
  5
17
102
{ACAD_REACTORS
330
C
102
}
100
AcDbDictionary
280
0
281
1
  3
Standard
350
18
  0
DICTIONARY
  5
19
102
{ACAD_REACTORS
330
C
102
}
100
AcDbDictionary
281
1
  0
DICTIONARY
  5
1A
102
{ACAD_REACTORS
330
C
102
}
100
AcDbDictionary
281
1
  3
Model
350
5A1
  3
Layout1
350
5A2
  0
ACDBPLACEHOLDER
  5
F
102
{ACAD_REACTORS
330
E
102
}
  0
MLINESTYLE
  5
18
102
{ACAD_REACTORS
330
17
102
}
100
AcDbMlineStyle
  2
STANDARD
 70
0
  3

 62
256
 51
90.0
 52
90.0
 71
2
 49
0.5
 62
256
  6
BYLAYER
 49
-0.5
 62
256
  6
BYLAYER
  0
LAYOUT
  5
5A1
102
{ACAD_REACTORS
330
1A
102
}
100
AcDbPlotSettings
  1

  2
none_device
  4

  6

 40
0.0
 41
0.0
 42
0.0
 43
0.0
 44
210.0
 45
297.0
 46
0.0
 47
0.0
 48
0.0
 49
0.0
140
0.0
141
0.0
142
1.0
143
1.0
 70
1024
 72
1
 73
0
 74
0
  7

 75
0
147
1.0
148
0.0
149
0.0
100
AcDbLayout
  1
Model
 70
0
 71
0
 10
0.0
 20
0.0
 11
210.0
 21
297.0
 12
0.0
 22
0.0
 32
0.0
 14
0.0
 24
0.0
 34
0.0
 15
0.0
 25
0.0
 35
0.0
146
0.0
 13
0.0
 23
0.0
 33
0.0
 16
1.0
 26
0.0
 36
0.0
 17
0.0
 27
1.0
 37
0.0
 76
0
330
210
345
0
346
0
  0
LAYOUT
  5
5A2
102
{ACAD_REACTORS
330
1A
102
}
100
AcDbPlotSettings
  1

  2
none_device
  4

  6

 40
0.0
 41
0.0
 42
0.0
 43
0.0
 44
210.0
 45
297.0
 46
0.0
 47
0.0
 48
0.0
 49
0.0
140
0.0
141
0.0
142
1.0
143
1.0
 70
0
 72
1
 73
0
 74
0
  7

 75
0
147
1.0
148
0.0
149
0.0
100
AcDbLayout
  1
Layout1
 70
0
 71
1
 10
0.0
 20
0.0
 11
210.0
 21
297.0
 12
0.0
 22
0.0
 32
0.0
 14
0.0
 24
0.0
 34
0.0
 15
0.0
 25
0.0
 35
0.0
146
0.0
 13
0.0
 23
0.0
 33
0.0
 16
1.0
 26
0.0
 36
0.0
 17
0.0
 27
1.0
 37
0.0
 76
0
330
211
345
0
346
0
  0
ENDSEC
  0
EOF
