999
DXF file: C:\Users\sesa63760\Dev\_Creo\CAD\MCADID0002958_3D-CAD\drw0001_1.dxf
999
Pro/ENGINEER 2019471 by Parametric Technology Corporation
  0
SECTION
  2
HEADER
  9
$ACADVER
  1
AC1024
  9
$DWGCODEPAGE
  3
ANSI_1252
  9
$EXTMAX
 10
296.309466054
 20
419.0662448478
 30
0.0
  9
$EXTMIN
 10
0.0
 20
0.0
 30
0.0
  9
$LIMMIN
 10
0.0
 20
0.0
  9
$LIMMAX
 10
296.309466054
 20
419.0662448478
  9
$VIEWCTR
 10
148.154733027
 20
209.5331224239
  9
$VIEWSIZE
 40
419.0662448478
  9
$CLAYER
  8
0
  9
$LTSCALE
 40
27.3169107753
  9
$CELTYPE
  6
BYLAYER
  9
$DIMSCALE
 40
1.0
  9
$DIMASZ
 40
3.5274936435
  9
$DIMEXO
 40
1.0
  9
$DIMDLI
 40
18.8735019902
  9
$DIMEXE
 40
1.0
  9
$DIMCEN
 40
4.470039945
  9
$DIMLFAC
 40
1.0
  9
$DIMBLK
  1
_FILLED
  9
$DIMALT
 70
0
  9
$DIMALTF
 40
0.0393700787
  9
$DIMTXT
 40
4.9384911009
  9
$DIMTOL
 70
1
  9
$DIMLIM
 70
0
  9
$DIMTFAC
 40
1.0
  9
$DIMTP
 40
0.01
  9
$DIMTM
 40
0.01
  9
$DIMGAP
 40
0.625
  9
$DIMDSEP
 70
46
  9
$AUNITS
 70
0
  9
$PDMODE
 70
3
  9
$PDSIZE
 40
0.3125
  9
$HANDSEED
  5
290
  9
$TILEMODE
 70
1
  9
$MEASUREMENT
 70
1
  9
$INSUNITS
 70
4
  0
ENDSEC
  0
SECTION
  2
CLASSES
  0
CLASS
  1
ACDBDICTIONARYWDFLT
  2
AcDbDictionaryWithDefault
  3
AutoCAD 2000
 90
0
 91
1
280
0
281
0
  0
CLASS
  1
ACDBPLACEHOLDER
  2
AcDbPlaceHolder
  3
AutoCAD 2000
 90
0
 91
1
280
0
281
0
  0
CLASS
  1
LAYOUT
  2
AcDbLayout
  3
AutoCAD 2000
 90
0
 91
0
280
0
281
0
  0
ENDSEC
  0
SECTION
  2
TABLES
  0
TABLE
  2
VPORT
  5
8
100
AcDbSymbolTable
 70
2
  0
VPORT
  5
1F4
100
AcDbSymbolTableRecord
100
AcDbViewportTableRecord
  2
*ACTIVE
 70
0
 10
0.0
 20
0.0
 11
1.0
 21
1.0
 12
148.154733027
 22
209.5331224239
 13
0.0
 23
0.0
 14
1.0
 24
1.0
 15
0.0
 25
0.0
 16
0.0
 26
0.0
 36
1.0
 17
0.0
 27
0.0
 37
0.0
 40
419.0662448478
 41
0.7070707071
 42
50.0
 43
0.0
 44
0.0
 50
0.0
 51
0.0
 71
0
 72
100
 73
1
 74
1
 75
0
 76
0
 77
0
 78
0
  0
ENDTAB
  0
TABLE
  2
LTYPE
  5
5
100
AcDbSymbolTable
 70
6
  0
LTYPE
  5
14
100
AcDbSymbolTableRecord
100
AcDbLinetypeTableRecord
  2
BYBLOCK
 70
0
  3

 72
65
 73
0
 40
0.0
  0
LTYPE
  5
15
100
AcDbSymbolTableRecord
100
AcDbLinetypeTableRecord
  2
BYLAYER
 70
0
  3

 72
65
 73
0
 40
0.0
  0
LTYPE
  5
16
100
AcDbSymbolTableRecord
100
AcDbLinetypeTableRecord
  2
CONTINUOUS
 70
64
  3
Solid line
 72
65
 73
0
 40
0.0
  0
LTYPE
  5
1F5
100
AcDbSymbolTableRecord
100
AcDbLinetypeTableRecord
  2
CENTER
 70
64
  3
____ _ ____ _ ____ _ ____ _ ____ _ ____ _ ____
 72
65
 73
4
 40
0.6
 49
0.375
 74
0
 49
-0.075
 74
0
 49
0.075
 74
0
 49
-0.075
 74
0
  0
LTYPE
  5
1F6
100
AcDbSymbolTableRecord
100
AcDbLinetypeTableRecord
  2
HIDDEN
 70
64
  3
- - - - - - - - - - - - - - - - - - - -
 72
65
 73
2
 40
0.2
 49
0.1
 74
0
 49
-0.1
 74
0
  0
LTYPE
  5
1F7
100
AcDbSymbolTableRecord
100
AcDbLinetypeTableRecord
  2
PHANTOM
 70
64
  3
_____ _ _ _____ _ _ _____ _ _ _____
 72
65
 73
6
 40
0.8
 49
0.45
 74
0
 49
-0.05
 74
0
 49
0.1
 74
0
 49
-0.05
 74
0
 49
0.1
 74
0
 49
-0.05
 74
0
  0
LTYPE
  5
1F8
100
AcDbSymbolTableRecord
100
AcDbLinetypeTableRecord
  2
DOT
 70
64
  3
. . . . . . . . . . . . . . . . . . . .
 72
65
 73
2
 40
0.2
 49
0.1
 74
0
 49
-0.1
 74
0
  0
LTYPE
  5
1F9
100
AcDbSymbolTableRecord
100
AcDbLinetypeTableRecord
  2
DASHED
 70
64
  3
- - - - - - - - - - - - - - - - - - - -
 72
65
 73
2
 40
0.2
 49
0.1
 74
0
 49
-0.1
 74
0
  0
ENDTAB
  0
TABLE
  2
LAYER
  5
2
100
AcDbSymbolTable
 70
36
  0
LAYER
  5
10
100
AcDbSymbolTableRecord
100
AcDbLayerTableRecord
  2
0
 70
0
 62
7
  6
CONTINUOUS
370
-3
390
F
  0
LAYER
  5
1FA
100
AcDbSymbolTableRecord
100
AcDbLayerTableRecord
  2
DEFAULT_1
 70
0
 62
7
  6
CENTER
370
-3
390
F
  0
LAYER
  5
1FB
100
AcDbSymbolTableRecord
100
AcDbLayerTableRecord
  2
DEFAULT_2
 70
0
 62
7
  6
HIDDEN
370
-3
390
F
  0
LAYER
  5
1FC
100
AcDbSymbolTableRecord
100
AcDbLayerTableRecord
  2
DEFAULT_3
 70
0
 62
7
  6
PHANTOM
370
-3
390
F
  0
LAYER
  5
1FD
100
AcDbSymbolTableRecord
100
AcDbLayerTableRecord
  2
00_COMPONENTS
 70
0
 62
7
  6
CONTINUOUS
370
-3
390
F
  0
LAYER
  5
1FE
100
AcDbSymbolTableRecord
100
AcDbLayerTableRecord
  2
01_1_DEFAULT_DATUMS
 70
0
 62
7
  6
CONTINUOUS
370
-3
390
F
  0
LAYER
  5
1FF
100
AcDbSymbolTableRecord
100
AcDbLayerTableRecord
  2
01_PLANES
 70
0
 62
7
  6
CONTINUOUS
370
-3
390
F
  0
LAYER
  5
200
100
AcDbSymbolTableRecord
100
AcDbLayerTableRecord
  2
02_COORD_SYS
 70
0
 62
7
  6
CONTINUOUS
370
-3
390
F
  0
LAYER
  5
201
100
AcDbSymbolTableRecord
100
AcDbLayerTableRecord
  2
03_AXES
 70
0
 62
7
  6
CONTINUOUS
370
-3
390
F
  0
LAYER
  5
202
100
AcDbSymbolTableRecord
100
AcDbLayerTableRecord
  2
04_POINTS
 70
0
 62
7
  6
CONTINUOUS
370
-3
390
F
  0
LAYER
  5
203
100
AcDbSymbolTableRecord
100
AcDbLayerTableRecord
  2
05_CURVES
 70
0
 62
7
  6
CONTINUOUS
370
-3
390
F
  0
LAYER
  5
204
100
AcDbSymbolTableRecord
100
AcDbLayerTableRecord
  2
06_SURFS
 70
0
 62
7
  6
CONTINUOUS
370
-3
390
F
  0
LAYER
  5
205
100
AcDbSymbolTableRecord
100
AcDbLayerTableRecord
  2
07_COSMETICS
 70
0
 62
7
  6
CONTINUOUS
370
-3
390
F
  0
LAYER
  5
206
100
AcDbSymbolTableRecord
100
AcDbLayerTableRecord
  2
10_NOTES
 70
0
 62
7
  6
CONTINUOUS
370
-3
390
F
  0
LAYER
  5
207
100
AcDbSymbolTableRecord
100
AcDbLayerTableRecord
  2
11_NOTES_PUB
 70
0
 62
7
  6
CONTINUOUS
370
-3
390
F
  0
LAYER
  5
208
100
AcDbSymbolTableRecord
100
AcDbLayerTableRecord
  2
13_REF_GTOL
 70
0
 62
7
  6
CONTINUOUS
370
-3
390
F
  0
LAYER
  5
209
100
AcDbSymbolTableRecord
100
AcDbLayerTableRecord
  2
16_MISC
 70
0
 62
7
  6
CONTINUOUS
370
-3
390
F
  0
LAYER
  5
20A
100
AcDbSymbolTableRecord
100
AcDbLayerTableRecord
  2
17_NO_PRINT
 70
0
 62
7
  6
CONTINUOUS
370
-3
390
F
  0
LAYER
  5
20B
100
AcDbSymbolTableRecord
100
AcDbLayerTableRecord
  2
18_DATUM_CAMS_JOINTS
 70
0
 62
7
  6
CONTINUOUS
370
-3
390
F
  0
LAYER
  5
20C
100
AcDbSymbolTableRecord
100
AcDbLayerTableRecord
  2
19_DATUM_FUNCTIONAL
 70
0
 62
7
  6
CONTINUOUS
370
-3
390
F
  0
LAYER
  5
20D
100
AcDbSymbolTableRecord
100
AcDbLayerTableRecord
  2
20_DATUM_KINEMATIC_SCHEME
 70
0
 62
7
  6
CONTINUOUS
370
-3
390
F
  0
ENDTAB
  0
TABLE
  2
STYLE
  5
3
100
AcDbSymbolTable
 70
1
  0
STYLE
  5
11
100
AcDbSymbolTableRecord
100
AcDbTextStyleTableRecord
  2
STANDARD
 70
0
 40
0.0
 41
1.0
 50
0.0
 71
0
 42
0.2
  3
ARIAL.TTF
  4

  0
STYLE
  5
20E
100
AcDbSymbolTableRecord
100
AcDbTextStyleTableRecord
  2
TEXTSTYLE_1
 70
0
 40
0.0
 41
0.8
 50
0.0
 71
0
 42
0.2
  3
gdt
  4

  0
ENDTAB
  0
TABLE
  2
VIEW
  5
6
100
AcDbSymbolTable
 70
0
  0
ENDTAB
  0
TABLE
  2
UCS
  5
7
100
AcDbSymbolTable
 70
0
  0
ENDTAB
  0
TABLE
  2
APPID
  5
9
100
AcDbSymbolTable
 70
1
  0
APPID
  5
20F
100
AcDbSymbolTableRecord
100
AcDbRegAppTableRecord
  2
ACAD
 70
0
  0
ENDTAB
  0
TABLE
  2
BLOCK_RECORD
  5
1
100
AcDbSymbolTable
 70
0
  0
BLOCK_RECORD
  5
210
100
AcDbSymbolTableRecord
100
AcDbBlockTableRecord
  2
*Model_Space
  0
BLOCK_RECORD
  5
211
100
AcDbSymbolTableRecord
100
AcDbBlockTableRecord
  2
*Paper_Space
  0
BLOCK_RECORD
  5
212
100
AcDbSymbolTableRecord
100
AcDbBlockTableRecord
  2
_FILLED
  0
ENDTAB
  0
TABLE
  2
DIMSTYLE
  5
A
100
AcDbSymbolTable
 70
1
100
AcDbDimStyleTable
 71
0
  0
DIMSTYLE
105
213
100
AcDbSymbolTableRecord
100
AcDbDimStyleTableRecord
  2
STANDARD
 70
0
  3

  4

 40
1.0
 41
3.5274936435
 42
1.0
 43
0.38
 44
1.0
 45
0.0
 46
0.0
 47
0.01
 48
0.01
140
4.9384911009
141
0.09
142
0.0
143
25.4
144
1.0
145
0.0
146
1.0
147
0.625
 71
1
 72
0
 73
0
 74
0
 75
0
 76
0
 77
1
 78
8
 79
2
170
0
171
1
172
0
173
0
174
0
175
0
176
0
177
0
178
0
270
2
179
2
271
2
272
2
273
2
274
2
275
0
280
0
281
0
282
0
283
1
284
8
285
0
286
0
287
3
288
0
340
11
278
46
341
212
342
212
343
212
344
212
  0
ENDTAB
  0
ENDSEC
  0
SECTION
  2
BLOCKS
  0
BLOCK
  5
20
100
AcDbEntity
  8
0
100
AcDbBlockBegin
  2
*Model_Space
 70
0
 10
0.0
 20
0.0
 30
0.0
  3
*Model_Space
  1

  0
ENDBLK
  5
21
100
AcDbEntity
  8
0
100
AcDbBlockEnd
  0
BLOCK
  5
1C
100
AcDbEntity
  8
0
100
AcDbBlockBegin
  2
*Paper_Space
 70
0
 10
0.0
 20
0.0
 30
0.0
  3
*Paper_Space
  1

  0
ENDBLK
  5
1D
100
AcDbEntity
  8
0
100
AcDbBlockEnd
  0
BLOCK
  5
214
100
AcDbEntity
  8
0
100
AcDbBlockBegin
  2
_FILLED
 70
64
 10
0.0
 20
0.0
  3
_FILLED
  1

  0
SOLID
  5
215
100
AcDbEntity
  8
0
  6
BYBLOCK
 62
0
100
AcDbTrace
 10
0.0
 20
0.0
 11
-1.0
 21
0.25
 12
-1.0
 22
-0.25
 13
-1.0
 23
-0.25
  0
ENDBLK
  5
216
100
AcDbEntity
  8
0
  6
BYBLOCK
 62
0
100
AcDbBlockEnd
  0
ENDSEC
  0
SECTION
  2
ENTITIES
  0
LINE
  5
217
100
AcDbEntity
  8
0
100
AcDbLine
 62
7
  6
BYLAYER
 10
251.8087913693
 20
283.2329243317
 11
230.4358707857
 21
270.8933365367
  0
LINE
  5
218
100
AcDbEntity
  8
0
100
AcDbLine
 62
7
  6
BYLAYER
 10
257.0173616048
 20
280.2258229339
 11
250.9896751565
 21
276.7457573136
  0
LINE
  5
219
100
AcDbEntity
  8
0
100
AcDbLine
 62
7
  6
BYLAYER
 10
253.2087735492
 20
276.1604544487
 11
258.6338144365
 21
279.292584569
  0
LINE
  5
21A
100
AcDbEntity
  8
0
100
AcDbLine
 62
7
  6
BYLAYER
 10
35.032887668
 20
142.4699487426
 11
211.1349770146
 21
244.1419305318
  0
LINE
  5
21B
100
AcDbEntity
  8
0
100
AcDbLine
 62
7
  6
BYLAYER
 10
214.3118611661
 20
238.6436790463
 11
214.3096744805
 21
238.6423981705
  0
LINE
  5
21C
100
AcDbEntity
  8
0
100
AcDbLine
 62
7
  6
BYLAYER
 10
266.5364727247
 20
274.7300858965
 11
245.1635521411
 21
262.3904981016
  0
LINE
  5
21D
100
AcDbEntity
  8
0
100
AcDbLine
 62
7
  6
BYLAYER
 10
239.2666576068
 20
254.4472933372
 11
242.5544845647
 21
256.3455097855
  0
LINE
  5
21E
100
AcDbEntity
  8
0
100
AcDbLine
 62
7
  6
BYLAYER
 10
38.2078734539
 20
136.970679222
 11
214.3099628005
 21
238.6426610113
  0
LINE
  5
21F
100
AcDbEntity
  8
0
100
AcDbLine
 62
7
  6
BYLAYER
 10
239.4573785388
 20
252.3577042183
 11
243.5069803005
 21
254.6957289294
  0
LINE
  5
220
100
AcDbEntity
  8
0
100
AcDbLine
 62
7
  6
BYLAYER
 10
266.5364727247
 20
263.7383303571
 11
245.1635521411
 21
251.3987425622
  0
LINE
  5
221
100
AcDbEntity
  8
0
100
AcDbLine
 62
7
  6
BYLAYER
 10
214.3112985336
 20
238.644044467
 11
214.3091694009
 21
238.6422034022
  0
LINE
  5
222
100
AcDbEntity
  8
0
100
AcDbLine
 62
7
  6
BYLAYER
 10
230.4358707857
 20
259.9015809973
 11
230.4358707857
 21
270.8933365367
  0
LINE
  5
223
100
AcDbEntity
  8
0
100
AcDbLine
 62
7
  6
BYLAYER
 10
245.1635521411
 20
251.3987425622
 11
241.4799445548
 21
253.5254262817
  0
LINE
  5
224
100
AcDbEntity
  8
0
100
AcDbLine
 62
7
  6
BYLAYER
 10
239.5749201637
 20
254.625267745
 11
239.1145419062
 21
254.8910612428
  0
LINE
  5
225
100
AcDbEntity
  8
0
100
AcDbLine
 62
7
  6
BYLAYER
 10
232.663600685
 20
258.615429637
 11
230.4358707857
 21
259.9015809973
  0
LINE
  5
226
100
AcDbEntity
  8
0
100
AcDbLine
 62
7
  6
BYLAYER
 10
230.4358707857
 20
270.8933365367
 11
245.1635521411
 21
262.3904981016
  0
LINE
  5
227
100
AcDbEntity
  8
0
100
AcDbLine
 62
7
  6
BYLAYER
 10
245.1635521411
 20
262.3904981016
 11
245.1635521411
 21
251.3987425622
  0
LINE
  5
228
100
AcDbEntity
  8
0
100
AcDbLine
 62
7
  6
BYLAYER
 10
250.9896751565
 20
270.4883168737
 11
250.9896751565
 21
276.7457573136
  0
LINE
  5
229
100
AcDbEntity
  8
0
100
AcDbLine
 62
7
  6
BYLAYER
 10
253.2087735492
 20
276.1604544487
 11
253.2087735492
 21
271.0804645684
  0
LINE
  5
22A
100
AcDbEntity
  8
0
100
AcDbLine
 62
7
  6
BYLAYER
 10
257.0173616048
 20
278.3593306623
 11
257.0173616048
 21
280.2258229339
  0
LINE
  5
22B
100
AcDbEntity
  8
0
100
AcDbLine
 62
7
  6
BYLAYER
 10
253.1912077714
 20
273.3912735307
 11
253.2087735492
 21
273.3811321536
  0
LINE
  5
22C
100
AcDbEntity
  8
0
100
AcDbLine
 62
7
  6
BYLAYER
 10
248.7392935089
 20
281.4607594941
 11
247.1309414699
 21
282.3893209699
  0
LINE
  5
22D
100
AcDbEntity
  8
0
100
AcDbLine
 62
7
  6
BYLAYER
 10
266.5364727247
 20
263.7383303571
 11
266.5364727247
 21
274.7300858965
  0
LINE
  5
22E
100
AcDbEntity
  8
0
100
AcDbLine
 62
7
  6
BYLAYER
 10
266.5364727247
 20
274.7300858965
 11
258.6338144365
 21
279.292584569
  0
LINE
  5
22F
100
AcDbEntity
  8
0
100
AcDbLine
 62
7
  6
BYLAYER
 10
257.0173616048
 20
280.2258229339
 11
251.8087913693
 21
283.2329243317
  0
ARC
  5
230
100
AcDbEntity
  8
0
100
AcDbCircle
 62
7
  6
BYLAYER
 10
213.8908257975
 20
243.0795296499
 40
5.0394517695
100
AcDbArc
 50
180.0252420382
 51
182.7811010182
  0
ARC
  5
231
100
AcDbEntity
  8
0
100
AcDbCircle
 62
7
  6
BYLAYER
 10
246.1674731364
 20
278.7448721548
 40
2.4858087117
100
AcDbArc
 50
179.9260223852
 51
184.6279207461
  0
SPLINE
  5
232
100
AcDbEntity
  8
0
100
AcDbSpline
 62
7
  6
BYLAYER
 70
0
 71
3
 72
14
 73
10
 74
0
 42
0.0000001
 43
0.0000001
 44
0.0000000001
 40
0.0
 40
0.0
 40
0.0
 40
0.0
 40
0.2643153198
 40
0.3913513751
 40
0.5157112787
 40
0.6381206746
 40
0.7592934085
 40
0.8797834148
 40
1.0
 40
1.0
 40
1.0
 40
1.0
 10
238.1460902564
 20
252.1505638673
 30
0.0
 10
238.1460902564
 20
251.8716201325
 30
0.0
 10
238.110409576
 20
251.4565452849
 30
0.0
 10
237.9752287588
 20
250.9283458487
 30
0.0
 10
237.8318323033
 20
250.5596633419
 30
0.0
 10
237.6437782912
 20
250.2185225981
 30
0.0
 10
237.410782622
 20
249.9111631229
 30
0.0
 10
237.1348144636
 20
249.6449583501
 30
0.0
 10
236.9248562315
 20
249.4995966407
 30
0.0
 10
236.8149834946
 20
249.4361619651
 30
0.0
  0
SPLINE
  5
233
100
AcDbEntity
  8
0
100
AcDbSpline
 62
7
  6
BYLAYER
 70
0
 71
3
 72
9
 73
5
 74
0
 42
0.0000001
 43
0.0000001
 44
0.0000000001
 40
0.0
 40
0.0
 40
0.0
 40
0.0
 40
0.4993243795
 40
1.0
 40
1.0
 40
1.0
 40
1.0
 10
236.8149834946
 20
249.4361619651
 30
0.0
 10
236.6950966442
 20
249.3669456729
 30
0.0
 10
236.4420687056
 20
249.2495997945
 30
0.0
 10
236.1725039389
 20
249.1785771806
 30
0.0
 10
236.0358113886
 20
249.1544367875
 30
0.0
  0
SPLINE
  5
234
100
AcDbEntity
  8
0
100
AcDbSpline
 62
7
  6
BYLAYER
 70
0
 71
3
 72
25
 73
21
 74
0
 42
0.0000001
 43
0.0000001
 44
0.0000000001
 40
0.0
 40
0.0
 40
0.0
 40
0.0
 40
0.0267147381
 40
0.0534167891
 40
0.080215046
 40
0.1071288059
 40
0.1615070853
 40
0.217279792
 40
0.2750821149
 40
0.3353636066
 40
0.3982790409
 40
0.4636724286
 40
0.5311161804
 40
0.5999767958
 40
0.6694873568
 40
0.7388221532
 40
0.8071710204
 40
0.8738149205
 40
0.9381967167
 40
1.0
 40
1.0
 40
1.0
 40
1.0
 10
231.7350062371
 20
258.2349931979
 30
0.0
 10
231.8138846823
 20
258.2805334176
 30
0.0
 10
231.9771141646
 20
258.3624143734
 30
0.0
 10
232.2347452311
 20
258.455872141
 30
0.0
 10
232.5019985304
 20
258.5196558925
 30
0.0
 10
232.8682936724
 20
258.5654631747
 30
0.0
 10
233.3387308088
 20
258.5496228398
 30
0.0
 10
233.9002940901
 20
258.4244795721
 30
0.0
 10
234.4529561431
 20
258.2042147314
 30
0.0
 10
234.9907836128
 20
257.898221403
 30
0.0
 10
235.508537866
 20
257.5146669537
 30
0.0
 10
236.0001347403
 20
257.0615770723
 30
0.0
 10
236.4586209876
 20
256.5476960199
 30
0.0
 10
236.87653704
 20
255.982851379
 30
0.0
 10
237.2464306522
 20
255.3779244664
 30
0.0
 10
237.5612992881
 20
254.7445528177
 30
0.0
 10
237.8149242722
 20
254.0947020786
 30
0.0
 10
238.0019957286
 20
253.4400707653
 30
0.0
 10
238.1180837842
 20
252.7918117421
 30
0.0
 10
238.1460902564
 20
252.3612751004
 30
0.0
 10
238.1460902564
 20
252.1505638673
 30
0.0
  0
SPLINE
  5
235
100
AcDbEntity
  8
0
100
AcDbSpline
 62
7
  6
BYLAYER
 70
0
 71
3
 72
9
 73
5
 74
0
 42
0.0000001
 43
0.0000001
 44
0.0000000001
 40
0.0
 40
0.0
 40
0.0
 40
0.0
 40
0.5005736063
 40
1.0
 40
1.0
 40
1.0
 40
1.0
 10
231.1455309429
 20
257.752207961
 30
0.0
 10
231.2301554835
 20
257.8476444399
 30
0.0
 10
231.4142539381
 20
258.0255448324
 30
0.0
 10
231.6247962249
 20
258.1713637976
 30
0.0
 10
231.7350062371
 20
258.2349931979
 30
0.0
  0
SPLINE
  5
236
100
AcDbEntity
  8
0
100
AcDbSpline
 62
7
  6
BYLAYER
 70
0
 71
3
 72
14
 73
10
 74
0
 42
0.0000001
 43
0.0000001
 44
0.0000000001
 40
0.0
 40
0.0
 40
0.0
 40
0.0
 40
0.2643153198
 40
0.3913513751
 40
0.5157112787
 40
0.6381206746
 40
0.7592934085
 40
0.8797834148
 40
1.0
 40
1.0
 40
1.0
 40
1.0
 10
236.7990574465
 20
251.3728587541
 30
0.0
 10
236.7990574465
 20
251.0939150194
 30
0.0
 10
236.7633767661
 20
250.6788401718
 30
0.0
 10
236.6281959489
 20
250.1506407356
 30
0.0
 10
236.4847994934
 20
249.7819582288
 30
0.0
 10
236.2967454813
 20
249.440817485
 30
0.0
 10
236.0637498121
 20
249.1334580098
 30
0.0
 10
235.7877816537
 20
248.867253237
 30
0.0
 10
235.5778234216
 20
248.7218915276
 30
0.0
 10
235.4679506847
 20
248.658456852
 30
0.0
  0
SPLINE
  5
237
100
AcDbEntity
  8
0
100
AcDbSpline
 62
7
  6
BYLAYER
 70
0
 71
3
 72
9
 73
5
 74
0
 42
0.0000001
 43
0.0000001
 44
0.0000000001
 40
0.0
 40
0.0
 40
0.0
 40
0.0
 40
0.4993243795
 40
1.0
 40
1.0
 40
1.0
 40
1.0
 10
235.4679506847
 20
248.658456852
 30
0.0
 10
235.3480638343
 20
248.5892405598
 30
0.0
 10
235.0950358957
 20
248.4718946814
 30
0.0
 10
234.825471129
 20
248.4008720675
 30
0.0
 10
234.6887785787
 20
248.3767316744
 30
0.0
  0
SPLINE
  5
238
100
AcDbEntity
  8
0
100
AcDbSpline
 62
7
  6
BYLAYER
 70
0
 71
3
 72
25
 73
21
 74
0
 42
0.0000001
 43
0.0000001
 44
0.0000000001
 40
0.0
 40
0.0
 40
0.0
 40
0.0
 40
0.0267147381
 40
0.0534167891
 40
0.080215046
 40
0.1071288059
 40
0.1615070853
 40
0.217279792
 40
0.2750821149
 40
0.3353636066
 40
0.3982790409
 40
0.4636724286
 40
0.5311161804
 40
0.5999767958
 40
0.6694873568
 40
0.7388221532
 40
0.8071710204
 40
0.8738149205
 40
0.9381967167
 40
1.0
 40
1.0
 40
1.0
 40
1.0
 10
230.3879734272
 20
257.4572880848
 30
0.0
 10
230.4668518724
 20
257.5028283045
 30
0.0
 10
230.6300813547
 20
257.5847092603
 30
0.0
 10
230.8877124212
 20
257.6781670279
 30
0.0
 10
231.1549657206
 20
257.7419507794
 30
0.0
 10
231.5212608626
 20
257.7877580616
 30
0.0
 10
231.9916979989
 20
257.7719177266
 30
0.0
 10
232.5532612802
 20
257.646774459
 30
0.0
 10
233.1059233332
 20
257.4265096183
 30
0.0
 10
233.643750803
 20
257.1205162899
 30
0.0
 10
234.1615050561
 20
256.7369618406
 30
0.0
 10
234.6531019305
 20
256.2838719591
 30
0.0
 10
235.1115881777
 20
255.7699909068
 30
0.0
 10
235.5295042301
 20
255.2051462659
 30
0.0
 10
235.8993978423
 20
254.6002193532
 30
0.0
 10
236.2142664782
 20
253.9668477046
 30
0.0
 10
236.4678914623
 20
253.3169969655
 30
0.0
 10
236.6549629187
 20
252.6623656521
 30
0.0
 10
236.7710509743
 20
252.0141066289
 30
0.0
 10
236.7990574465
 20
251.5835699873
 30
0.0
 10
236.7990574465
 20
251.3728587541
 30
0.0
  0
SPLINE
  5
239
100
AcDbEntity
  8
0
100
AcDbSpline
 62
7
  6
BYLAYER
 70
0
 71
3
 72
9
 73
5
 74
0
 42
0.0000001
 43
0.0000001
 44
0.0000000001
 40
0.0
 40
0.0
 40
0.0
 40
0.0
 40
0.5005736063
 40
1.0
 40
1.0
 40
1.0
 40
1.0
 10
229.798498133
 20
256.9745028478
 30
0.0
 10
229.8831226736
 20
257.0699393268
 30
0.0
 10
230.0672211282
 20
257.2478397193
 30
0.0
 10
230.2777634151
 20
257.3936586844
 30
0.0
 10
230.3879734272
 20
257.4572880848
 30
0.0
  0
SPLINE
  5
23A
100
AcDbEntity
  8
0
100
AcDbSpline
 62
7
  6
BYLAYER
 70
0
 71
3
 72
14
 73
10
 74
0
 42
0.0000001
 43
0.0000001
 44
0.0000000001
 40
0.0
 40
0.0
 40
0.0
 40
0.0
 40
0.2643153198
 40
0.3913513751
 40
0.5157112787
 40
0.6381206746
 40
0.7592934085
 40
0.8797834148
 40
1.0
 40
1.0
 40
1.0
 40
1.0
 10
235.4520246366
 20
250.595153641
 30
0.0
 10
235.4520246366
 20
250.3162099062
 30
0.0
 10
235.4163439562
 20
249.9011350587
 30
0.0
 10
235.281163139
 20
249.3729356224
 30
0.0
 10
235.1377666835
 20
249.0042531157
 30
0.0
 10
234.9497126714
 20
248.6631123719
 30
0.0
 10
234.7167170022
 20
248.3557528967
 30
0.0
 10
234.4407488438
 20
248.0895481238
 30
0.0
 10
234.2307906117
 20
247.9441864144
 30
0.0
 10
234.1209178748
 20
247.8807517389
 30
0.0
  0
SPLINE
  5
23B
100
AcDbEntity
  8
0
100
AcDbSpline
 62
7
  6
BYLAYER
 70
0
 71
3
 72
9
 73
5
 74
0
 42
0.0000001
 43
0.0000001
 44
0.0000000001
 40
0.0
 40
0.0
 40
0.0
 40
0.0
 40
0.4993243795
 40
1.0
 40
1.0
 40
1.0
 40
1.0
 10
234.1209178748
 20
247.8807517389
 30
0.0
 10
234.0010310244
 20
247.8115354467
 30
0.0
 10
233.7480030858
 20
247.6941895683
 30
0.0
 10
233.4784383191
 20
247.6231669544
 30
0.0
 10
233.3417457688
 20
247.5990265613
 30
0.0
  0
SPLINE
  5
23C
100
AcDbEntity
  8
0
100
AcDbSpline
 62
7
  6
BYLAYER
 70
0
 71
3
 72
25
 73
21
 74
0
 42
0.0000001
 43
0.0000001
 44
0.0000000001
 40
0.0
 40
0.0
 40
0.0
 40
0.0
 40
0.0267147381
 40
0.0534167891
 40
0.080215046
 40
0.1071288059
 40
0.1615070853
 40
0.217279792
 40
0.2750821149
 40
0.3353636066
 40
0.3982790409
 40
0.4636724286
 40
0.5311161804
 40
0.5999767958
 40
0.6694873568
 40
0.7388221532
 40
0.8071710204
 40
0.8738149205
 40
0.9381967167
 40
1.0
 40
1.0
 40
1.0
 40
1.0
 10
229.0409406173
 20
256.6795829717
 30
0.0
 10
229.1198190625
 20
256.7251231914
 30
0.0
 10
229.2830485448
 20
256.8070041472
 30
0.0
 10
229.5406796113
 20
256.9004619148
 30
0.0
 10
229.8079329107
 20
256.9642456662
 30
0.0
 10
230.1742280527
 20
257.0100529484
 30
0.0
 10
230.644665189
 20
256.9942126135
 30
0.0
 10
231.2062284703
 20
256.8690693459
 30
0.0
 10
231.7588905233
 20
256.6488045052
 30
0.0
 10
232.2967179931
 20
256.3428111768
 30
0.0
 10
232.8144722462
 20
255.9592567275
 30
0.0
 10
233.3060691206
 20
255.506166846
 30
0.0
 10
233.7645553678
 20
254.9922857937
 30
0.0
 10
234.1824714202
 20
254.4274411528
 30
0.0
 10
234.5523650324
 20
253.8225142401
 30
0.0
 10
234.8672336683
 20
253.1891425915
 30
0.0
 10
235.1208586525
 20
252.5392918524
 30
0.0
 10
235.3079301088
 20
251.884660539
 30
0.0
 10
235.4240181644
 20
251.2364015158
 30
0.0
 10
235.4520246366
 20
250.8058648742
 30
0.0
 10
235.4520246366
 20
250.595153641
 30
0.0
  0
SPLINE
  5
23D
100
AcDbEntity
  8
0
100
AcDbSpline
 62
7
  6
BYLAYER
 70
0
 71
3
 72
9
 73
5
 74
0
 42
0.0000001
 43
0.0000001
 44
0.0000000001
 40
0.0
 40
0.0
 40
0.0
 40
0.0
 40
0.5005736063
 40
1.0
 40
1.0
 40
1.0
 40
1.0
 10
228.4514653231
 20
256.1967977347
 30
0.0
 10
228.5360898637
 20
256.2922342136
 30
0.0
 10
228.7201883183
 20
256.4701346061
 30
0.0
 10
228.9307306052
 20
256.6159535713
 30
0.0
 10
229.0409406173
 20
256.6795829717
 30
0.0
  0
SPLINE
  5
23E
100
AcDbEntity
  8
0
100
AcDbSpline
 62
7
  6
BYLAYER
 70
0
 71
3
 72
14
 73
10
 74
0
 42
0.0000001
 43
0.0000001
 44
0.0000000001
 40
0.0
 40
0.0
 40
0.0
 40
0.0
 40
0.2643153198
 40
0.3913513751
 40
0.5157112787
 40
0.6381206746
 40
0.7592934085
 40
0.8797834148
 40
1.0
 40
1.0
 40
1.0
 40
1.0
 10
234.1049918267
 20
249.8174485279
 30
0.0
 10
234.1049918267
 20
249.5385047931
 30
0.0
 10
234.0693111463
 20
249.1234299456
 30
0.0
 10
233.9341303291
 20
248.5952305093
 30
0.0
 10
233.7907338736
 20
248.2265480025
 30
0.0
 10
233.6026798615
 20
247.8854072587
 30
0.0
 10
233.3696841923
 20
247.5780477835
 30
0.0
 10
233.0937160339
 20
247.3118430107
 30
0.0
 10
232.8837578018
 20
247.1664813013
 30
0.0
 10
232.7738850649
 20
247.1030466257
 30
0.0
  0
SPLINE
  5
23F
100
AcDbEntity
  8
0
100
AcDbSpline
 62
7
  6
BYLAYER
 70
0
 71
3
 72
9
 73
5
 74
0
 42
0.0000001
 43
0.0000001
 44
0.0000000001
 40
0.0
 40
0.0
 40
0.0
 40
0.0
 40
0.4993243795
 40
1.0
 40
1.0
 40
1.0
 40
1.0
 10
232.7738850649
 20
247.1030466257
 30
0.0
 10
232.6539982145
 20
247.0338303336
 30
0.0
 10
232.400970276
 20
246.9164844551
 30
0.0
 10
232.1314055093
 20
246.8454618413
 30
0.0
 10
231.994712959
 20
246.8213214481
 30
0.0
  0
SPLINE
  5
240
100
AcDbEntity
  8
0
100
AcDbSpline
 62
7
  6
BYLAYER
 70
0
 71
3
 72
25
 73
21
 74
0
 42
0.0000001
 43
0.0000001
 44
0.0000000001
 40
0.0
 40
0.0
 40
0.0
 40
0.0
 40
0.0267147381
 40
0.0534167891
 40
0.080215046
 40
0.1071288059
 40
0.1615070853
 40
0.217279792
 40
0.2750821149
 40
0.3353636066
 40
0.3982790409
 40
0.4636724286
 40
0.5311161804
 40
0.5999767958
 40
0.6694873568
 40
0.7388221532
 40
0.8071710204
 40
0.8738149205
 40
0.9381967167
 40
1.0
 40
1.0
 40
1.0
 40
1.0
 10
227.6939078075
 20
255.9018778586
 30
0.0
 10
227.7727862526
 20
255.9474180783
 30
0.0
 10
227.9360157349
 20
256.029299034
 30
0.0
 10
228.1936468014
 20
256.1227568016
 30
0.0
 10
228.4609001008
 20
256.1865405531
 30
0.0
 10
228.8271952428
 20
256.2323478353
 30
0.0
 10
229.2976323791
 20
256.2165075004
 30
0.0
 10
229.8591956604
 20
256.0913642328
 30
0.0
 10
230.4118577134
 20
255.8710993921
 30
0.0
 10
230.9496851832
 20
255.5651060636
 30
0.0
 10
231.4674394363
 20
255.1815516143
 30
0.0
 10
231.9590363107
 20
254.7284617329
 30
0.0
 10
232.4175225579
 20
254.2145806805
 30
0.0
 10
232.8354386104
 20
253.6497360396
 30
0.0
 10
233.2053322225
 20
253.044809127
 30
0.0
 10
233.5202008584
 20
252.4114374784
 30
0.0
 10
233.7738258426
 20
251.7615867392
 30
0.0
 10
233.9608972989
 20
251.1069554259
 30
0.0
 10
234.0769853545
 20
250.4586964027
 30
0.0
 10
234.1049918267
 20
250.0281597611
 30
0.0
 10
234.1049918267
 20
249.8174485279
 30
0.0
  0
SPLINE
  5
241
100
AcDbEntity
  8
0
100
AcDbSpline
 62
7
  6
BYLAYER
 70
0
 71
3
 72
9
 73
5
 74
0
 42
0.0000001
 43
0.0000001
 44
0.0000000001
 40
0.0
 40
0.0
 40
0.0
 40
0.0
 40
0.5005736063
 40
1.0
 40
1.0
 40
1.0
 40
1.0
 10
227.1044325132
 20
255.4190926216
 30
0.0
 10
227.1890570538
 20
255.5145291005
 30
0.0
 10
227.3731555084
 20
255.692429493
 30
0.0
 10
227.5836977953
 20
255.8382484582
 30
0.0
 10
227.6939078075
 20
255.9018778586
 30
0.0
  0
SPLINE
  5
242
100
AcDbEntity
  8
0
100
AcDbSpline
 62
7
  6
BYLAYER
 70
0
 71
3
 72
14
 73
10
 74
0
 42
0.0000001
 43
0.0000001
 44
0.0000000001
 40
0.0
 40
0.0
 40
0.0
 40
0.0
 40
0.2643153198
 40
0.3913513751
 40
0.5157112787
 40
0.6381206746
 40
0.7592934085
 40
0.8797834148
 40
1.0
 40
1.0
 40
1.0
 40
1.0
 10
232.7579590168
 20
249.0397434148
 30
0.0
 10
232.7579590168
 20
248.76079968
 30
0.0
 10
232.7222783364
 20
248.3457248324
 30
0.0
 10
232.5870975192
 20
247.8175253962
 30
0.0
 10
232.4437010637
 20
247.4488428894
 30
0.0
 10
232.2556470516
 20
247.1077021456
 30
0.0
 10
232.0226513824
 20
246.8003426704
 30
0.0
 10
231.746683224
 20
246.5341378976
 30
0.0
 10
231.5367249919
 20
246.3887761882
 30
0.0
 10
231.426852255
 20
246.3253415126
 30
0.0
  0
SPLINE
  5
243
100
AcDbEntity
  8
0
100
AcDbSpline
 62
7
  6
BYLAYER
 70
0
 71
3
 72
9
 73
5
 74
0
 42
0.0000001
 43
0.0000001
 44
0.0000000001
 40
0.0
 40
0.0
 40
0.0
 40
0.0
 40
0.4993243795
 40
1.0
 40
1.0
 40
1.0
 40
1.0
 10
231.426852255
 20
246.3253415126
 30
0.0
 10
231.3069654046
 20
246.2561252204
 30
0.0
 10
231.0539374661
 20
246.138779342
 30
0.0
 10
230.7843726994
 20
246.0677567281
 30
0.0
 10
230.6476801491
 20
246.043616335
 30
0.0
  0
SPLINE
  5
244
100
AcDbEntity
  8
0
100
AcDbSpline
 62
7
  6
BYLAYER
 70
0
 71
3
 72
25
 73
21
 74
0
 42
0.0000001
 43
0.0000001
 44
0.0000000001
 40
0.0
 40
0.0
 40
0.0
 40
0.0
 40
0.0267147381
 40
0.0534167891
 40
0.080215046
 40
0.1071288059
 40
0.1615070853
 40
0.217279792
 40
0.2750821149
 40
0.3353636066
 40
0.3982790409
 40
0.4636724286
 40
0.5311161804
 40
0.5999767958
 40
0.6694873568
 40
0.7388221532
 40
0.8071710204
 40
0.8738149205
 40
0.9381967167
 40
1.0
 40
1.0
 40
1.0
 40
1.0
 10
226.3468749976
 20
255.1241727454
 30
0.0
 10
226.4257534427
 20
255.1697129651
 30
0.0
 10
226.588982925
 20
255.2515939209
 30
0.0
 10
226.8466139915
 20
255.3450516885
 30
0.0
 10
227.1138672909
 20
255.40883544
 30
0.0
 10
227.4801624329
 20
255.4546427222
 30
0.0
 10
227.9505995692
 20
255.4388023873
 30
0.0
 10
228.5121628505
 20
255.3136591196
 30
0.0
 10
229.0648249035
 20
255.0933942789
 30
0.0
 10
229.6026523733
 20
254.7874009505
 30
0.0
 10
230.1204066264
 20
254.4038465012
 30
0.0
 10
230.6120035008
 20
253.9507566198
 30
0.0
 10
231.070489748
 20
253.4368755674
 30
0.0
 10
231.4884058005
 20
252.8720309265
 30
0.0
 10
231.8582994126
 20
252.2671040139
 30
0.0
 10
232.1731680485
 20
251.6337323652
 30
0.0
 10
232.4267930327
 20
250.9838816261
 30
0.0
 10
232.613864489
 20
250.3292503128
 30
0.0
 10
232.7299525446
 20
249.6809912896
 30
0.0
 10
232.7579590168
 20
249.2504546479
 30
0.0
 10
232.7579590168
 20
249.0397434148
 30
0.0
  0
SPLINE
  5
245
100
AcDbEntity
  8
0
100
AcDbSpline
 62
7
  6
BYLAYER
 70
0
 71
3
 72
9
 73
5
 74
0
 42
0.0000001
 43
0.0000001
 44
0.0000000001
 40
0.0
 40
0.0
 40
0.0
 40
0.0
 40
0.5005736063
 40
1.0
 40
1.0
 40
1.0
 40
1.0
 10
225.7573997033
 20
254.6413875085
 30
0.0
 10
225.8420242439
 20
254.7368239874
 30
0.0
 10
226.0261226985
 20
254.9147243799
 30
0.0
 10
226.2366649854
 20
255.0605433451
 30
0.0
 10
226.3468749976
 20
255.1241727454
 30
0.0
  0
SPLINE
  5
246
100
AcDbEntity
  8
0
100
AcDbSpline
 62
7
  6
BYLAYER
 70
0
 71
3
 72
14
 73
10
 74
0
 42
0.0000001
 43
0.0000001
 44
0.0000000001
 40
0.0
 40
0.0
 40
0.0
 40
0.0
 40
0.2643153198
 40
0.3913513751
 40
0.5157112787
 40
0.6381206746
 40
0.7592934085
 40
0.8797834148
 40
1.0
 40
1.0
 40
1.0
 40
1.0
 10
231.4109262069
 20
248.2620383016
 30
0.0
 10
231.4109262069
 20
247.9830945669
 30
0.0
 10
231.3752455265
 20
247.5680197193
 30
0.0
 10
231.2400647093
 20
247.0398202831
 30
0.0
 10
231.0966682538
 20
246.6711377763
 30
0.0
 10
230.9086142417
 20
246.3299970325
 30
0.0
 10
230.6756185725
 20
246.0226375573
 30
0.0
 10
230.3996504141
 20
245.7564327845
 30
0.0
 10
230.189692182
 20
245.6110710751
 30
0.0
 10
230.0798194451
 20
245.5476363995
 30
0.0
  0
SPLINE
  5
247
100
AcDbEntity
  8
0
100
AcDbSpline
 62
7
  6
BYLAYER
 70
0
 71
3
 72
9
 73
5
 74
0
 42
0.0000001
 43
0.0000001
 44
0.0000000001
 40
0.0
 40
0.0
 40
0.0
 40
0.0
 40
0.4993243795
 40
1.0
 40
1.0
 40
1.0
 40
1.0
 10
230.0798194451
 20
245.5476363995
 30
0.0
 10
229.9599325947
 20
245.4784201073
 30
0.0
 10
229.7069046562
 20
245.3610742289
 30
0.0
 10
229.4373398895
 20
245.290051615
 30
0.0
 10
229.3006473392
 20
245.2659112219
 30
0.0
  0
SPLINE
  5
248
100
AcDbEntity
  8
0
100
AcDbSpline
 62
7
  6
BYLAYER
 70
0
 71
3
 72
25
 73
21
 74
0
 42
0.0000001
 43
0.0000001
 44
0.0000000001
 40
0.0
 40
0.0
 40
0.0
 40
0.0
 40
0.0267147381
 40
0.0534167891
 40
0.080215046
 40
0.1071288059
 40
0.1615070853
 40
0.217279792
 40
0.2750821149
 40
0.3353636066
 40
0.3982790409
 40
0.4636724286
 40
0.5311161804
 40
0.5999767958
 40
0.6694873568
 40
0.7388221532
 40
0.8071710204
 40
0.8738149205
 40
0.9381967167
 40
1.0
 40
1.0
 40
1.0
 40
1.0
 10
224.9998421877
 20
254.3464676323
 30
0.0
 10
225.0787206328
 20
254.392007852
 30
0.0
 10
225.2419501151
 20
254.4738888078
 30
0.0
 10
225.4995811816
 20
254.5673465754
 30
0.0
 10
225.766834481
 20
254.6311303269
 30
0.0
 10
226.133129623
 20
254.6769376091
 30
0.0
 10
226.6035667593
 20
254.6610972741
 30
0.0
 10
227.1651300407
 20
254.5359540065
 30
0.0
 10
227.7177920936
 20
254.3156891658
 30
0.0
 10
228.2556195634
 20
254.0096958374
 30
0.0
 10
228.7733738166
 20
253.6261413881
 30
0.0
 10
229.2649706909
 20
253.1730515066
 30
0.0
 10
229.7234569381
 20
252.6591704543
 30
0.0
 10
230.1413729906
 20
252.0943258134
 30
0.0
 10
230.5112666027
 20
251.4893989007
 30
0.0
 10
230.8261352386
 20
250.8560272521
 30
0.0
 10
231.0797602228
 20
250.206176513
 30
0.0
 10
231.2668316791
 20
249.5515451996
 30
0.0
 10
231.3829197347
 20
248.9032861764
 30
0.0
 10
231.4109262069
 20
248.4727495348
 30
0.0
 10
231.4109262069
 20
248.2620383016
 30
0.0
  0
SPLINE
  5
249
100
AcDbEntity
  8
0
100
AcDbSpline
 62
7
  6
BYLAYER
 70
0
 71
3
 72
9
 73
5
 74
0
 42
0.0000001
 43
0.0000001
 44
0.0000000001
 40
0.0
 40
0.0
 40
0.0
 40
0.0
 40
0.5005736063
 40
1.0
 40
1.0
 40
1.0
 40
1.0
 10
224.4103668935
 20
253.8636823953
 30
0.0
 10
224.494991434
 20
253.9591188743
 30
0.0
 10
224.6790898886
 20
254.1370192668
 30
0.0
 10
224.8896321755
 20
254.2828382319
 30
0.0
 10
224.9998421877
 20
254.3464676323
 30
0.0
  0
SPLINE
  5
24A
100
AcDbEntity
  8
0
100
AcDbSpline
 62
7
  6
BYLAYER
 70
0
 71
3
 72
14
 73
10
 74
0
 42
0.0000001
 43
0.0000001
 44
0.0000000001
 40
0.0
 40
0.0
 40
0.0
 40
0.0
 40
0.2643153198
 40
0.3913513751
 40
0.5157112787
 40
0.6381206746
 40
0.7592934085
 40
0.8797834148
 40
1.0
 40
1.0
 40
1.0
 40
1.0
 10
230.063893397
 20
247.4843331885
 30
0.0
 10
230.063893397
 20
247.2053894537
 30
0.0
 10
230.0282127166
 20
246.7903146062
 30
0.0
 10
229.8930318994
 20
246.2621151699
 30
0.0
 10
229.749635444
 20
245.8934326632
 30
0.0
 10
229.5615814318
 20
245.5522919194
 30
0.0
 10
229.3285857626
 20
245.2449324442
 30
0.0
 10
229.0526176042
 20
244.9787276713
 30
0.0
 10
228.8426593721
 20
244.8333659619
 30
0.0
 10
228.7327866352
 20
244.7699312864
 30
0.0
  0
SPLINE
  5
24B
100
AcDbEntity
  8
0
100
AcDbSpline
 62
7
  6
BYLAYER
 70
0
 71
3
 72
9
 73
5
 74
0
 42
0.0000001
 43
0.0000001
 44
0.0000000001
 40
0.0
 40
0.0
 40
0.0
 40
0.0
 40
0.4993243795
 40
1.0
 40
1.0
 40
1.0
 40
1.0
 10
228.7327866352
 20
244.7699312864
 30
0.0
 10
228.6128997848
 20
244.7007149942
 30
0.0
 10
228.3598718463
 20
244.5833691158
 30
0.0
 10
228.0903070796
 20
244.5123465019
 30
0.0
 10
227.9536145293
 20
244.4882061088
 30
0.0
  0
SPLINE
  5
24C
100
AcDbEntity
  8
0
100
AcDbSpline
 62
7
  6
BYLAYER
 70
0
 71
3
 72
25
 73
21
 74
0
 42
0.0000001
 43
0.0000001
 44
0.0000000001
 40
0.0
 40
0.0
 40
0.0
 40
0.0
 40
0.0267147381
 40
0.0534167891
 40
0.080215046
 40
0.1071288059
 40
0.1615070853
 40
0.217279792
 40
0.2750821149
 40
0.3353636066
 40
0.3982790409
 40
0.4636724286
 40
0.5311161804
 40
0.5999767958
 40
0.6694873568
 40
0.7388221532
 40
0.8071710204
 40
0.8738149205
 40
0.9381967167
 40
1.0
 40
1.0
 40
1.0
 40
1.0
 10
223.6528093778
 20
253.5687625192
 30
0.0
 10
223.7316878229
 20
253.6143027389
 30
0.0
 10
223.8949173053
 20
253.6961836947
 30
0.0
 10
224.1525483717
 20
253.7896414623
 30
0.0
 10
224.4198016711
 20
253.8534252137
 30
0.0
 10
224.7860968131
 20
253.8992324959
 30
0.0
 10
225.2565339494
 20
253.883392161
 30
0.0
 10
225.8180972308
 20
253.7582488934
 30
0.0
 10
226.3707592837
 20
253.5379840527
 30
0.0
 10
226.9085867535
 20
253.2319907243
 30
0.0
 10
227.4263410067
 20
252.848436275
 30
0.0
 10
227.917937881
 20
252.3953463935
 30
0.0
 10
228.3764241282
 20
251.8814653412
 30
0.0
 10
228.7943401807
 20
251.3166207003
 30
0.0
 10
229.1642337928
 20
250.7116937876
 30
0.0
 10
229.4791024287
 20
250.078322139
 30
0.0
 10
229.7327274129
 20
249.4284713999
 30
0.0
 10
229.9197988692
 20
248.7738400865
 30
0.0
 10
230.0358869248
 20
248.1255810633
 30
0.0
 10
230.063893397
 20
247.6950444217
 30
0.0
 10
230.063893397
 20
247.4843331885
 30
0.0
  0
SPLINE
  5
24D
100
AcDbEntity
  8
0
100
AcDbSpline
 62
7
  6
BYLAYER
 70
0
 71
3
 72
9
 73
5
 74
0
 42
0.0000001
 43
0.0000001
 44
0.0000000001
 40
0.0
 40
0.0
 40
0.0
 40
0.0
 40
0.5005736063
 40
1.0
 40
1.0
 40
1.0
 40
1.0
 10
223.0633340836
 20
253.0859772822
 30
0.0
 10
223.1479586241
 20
253.1814137611
 30
0.0
 10
223.3320570788
 20
253.3593141536
 30
0.0
 10
223.5425993656
 20
253.5051331188
 30
0.0
 10
223.6528093778
 20
253.5687625192
 30
0.0
  0
SPLINE
  5
24E
100
AcDbEntity
  8
0
100
AcDbSpline
 62
7
  6
BYLAYER
 70
0
 71
3
 72
14
 73
10
 74
0
 42
0.0000001
 43
0.0000001
 44
0.0000000001
 40
0.0
 40
0.0
 40
0.0
 40
0.0
 40
0.2643153198
 40
0.3913513751
 40
0.5157112787
 40
0.6381206746
 40
0.7592934085
 40
0.8797834148
 40
1.0
 40
1.0
 40
1.0
 40
1.0
 10
228.7168605872
 20
246.7066280754
 30
0.0
 10
228.7168605872
 20
246.4276843406
 30
0.0
 10
228.6811799067
 20
246.0126094931
 30
0.0
 10
228.5459990895
 20
245.4844100568
 30
0.0
 10
228.4026026341
 20
245.11572755
 30
0.0
 10
228.2145486219
 20
244.7745868062
 30
0.0
 10
227.9815529527
 20
244.467227331
 30
0.0
 10
227.7055847943
 20
244.2010225582
 30
0.0
 10
227.4956265622
 20
244.0556608488
 30
0.0
 10
227.3857538253
 20
243.9922261732
 30
0.0
  0
SPLINE
  5
24F
100
AcDbEntity
  8
0
100
AcDbSpline
 62
7
  6
BYLAYER
 70
0
 71
3
 72
9
 73
5
 74
0
 42
0.0000001
 43
0.0000001
 44
0.0000000001
 40
0.0
 40
0.0
 40
0.0
 40
0.0
 40
0.4993243795
 40
1.0
 40
1.0
 40
1.0
 40
1.0
 10
227.3857538253
 20
243.9922261732
 30
0.0
 10
227.2658669749
 20
243.9230098811
 30
0.0
 10
227.0128390364
 20
243.8056640026
 30
0.0
 10
226.7432742697
 20
243.7346413888
 30
0.0
 10
226.6065817194
 20
243.7105009956
 30
0.0
  0
SPLINE
  5
250
100
AcDbEntity
  8
0
100
AcDbSpline
 62
7
  6
BYLAYER
 70
0
 71
3
 72
25
 73
21
 74
0
 42
0.0000001
 43
0.0000001
 44
0.0000000001
 40
0.0
 40
0.0
 40
0.0
 40
0.0
 40
0.0267147381
 40
0.0534167891
 40
0.080215046
 40
0.1071288059
 40
0.1615070853
 40
0.217279792
 40
0.2750821149
 40
0.3353636066
 40
0.3982790409
 40
0.4636724286
 40
0.5311161804
 40
0.5999767958
 40
0.6694873568
 40
0.7388221532
 40
0.8071710204
 40
0.8738149205
 40
0.9381967167
 40
1.0
 40
1.0
 40
1.0
 40
1.0
 10
222.3057765679
 20
252.7910574061
 30
0.0
 10
222.384655013
 20
252.8365976258
 30
0.0
 10
222.5478844954
 20
252.9184785815
 30
0.0
 10
222.8055155618
 20
253.0119363491
 30
0.0
 10
223.0727688612
 20
253.0757201006
 30
0.0
 10
223.4390640032
 20
253.1215273828
 30
0.0
 10
223.9095011395
 20
253.1056870479
 30
0.0
 10
224.4710644209
 20
252.9805437803
 30
0.0
 10
225.0237264738
 20
252.7602789396
 30
0.0
 10
225.5615539436
 20
252.4542856111
 30
0.0
 10
226.0793081968
 20
252.0707311618
 30
0.0
 10
226.5709050711
 20
251.6176412804
 30
0.0
 10
227.0293913183
 20
251.103760228
 30
0.0
 10
227.4473073708
 20
250.5389155871
 30
0.0
 10
227.8172009829
 20
249.9339886745
 30
0.0
 10
228.1320696188
 20
249.3006170259
 30
0.0
 10
228.385694603
 20
248.6507662867
 30
0.0
 10
228.5727660593
 20
247.9961349734
 30
0.0
 10
228.6888541149
 20
247.3478759502
 30
0.0
 10
228.7168605872
 20
246.9173393086
 30
0.0
 10
228.7168605872
 20
246.7066280754
 30
0.0
  0
SPLINE
  5
251
100
AcDbEntity
  8
0
100
AcDbSpline
 62
7
  6
BYLAYER
 70
0
 71
3
 72
9
 73
5
 74
0
 42
0.0000001
 43
0.0000001
 44
0.0000000001
 40
0.0
 40
0.0
 40
0.0
 40
0.0
 40
0.5005736063
 40
1.0
 40
1.0
 40
1.0
 40
1.0
 10
221.7163012737
 20
252.3082721691
 30
0.0
 10
221.8009258142
 20
252.403708648
 30
0.0
 10
221.9850242689
 20
252.5816090405
 30
0.0
 10
222.1955665557
 20
252.7274280057
 30
0.0
 10
222.3057765679
 20
252.7910574061
 30
0.0
  0
SPLINE
  5
252
100
AcDbEntity
  8
0
100
AcDbSpline
 62
7
  6
BYLAYER
 70
0
 71
3
 72
14
 73
10
 74
0
 42
0.0000001
 43
0.0000001
 44
0.0000000001
 40
0.0
 40
0.0
 40
0.0
 40
0.0
 40
0.2643153198
 40
0.3913513751
 40
0.5157112787
 40
0.6381206746
 40
0.7592934085
 40
0.8797834148
 40
1.0
 40
1.0
 40
1.0
 40
1.0
 10
227.3698277773
 20
245.9289229623
 30
0.0
 10
227.3698277773
 20
245.6499792275
 30
0.0
 10
227.3341470968
 20
245.2349043799
 30
0.0
 10
227.1989662797
 20
244.7067049437
 30
0.0
 10
227.0555698242
 20
244.3380224369
 30
0.0
 10
226.8675158121
 20
243.9968816931
 30
0.0
 10
226.6345201428
 20
243.6895222179
 30
0.0
 10
226.3585519844
 20
243.4233174451
 30
0.0
 10
226.1485937523
 20
243.2779557357
 30
0.0
 10
226.0387210154
 20
243.2145210601
 30
0.0
  0
SPLINE
  5
253
100
AcDbEntity
  8
0
100
AcDbSpline
 62
7
  6
BYLAYER
 70
0
 71
3
 72
9
 73
5
 74
0
 42
0.0000001
 43
0.0000001
 44
0.0000000001
 40
0.0
 40
0.0
 40
0.0
 40
0.0
 40
0.4993243795
 40
1.0
 40
1.0
 40
1.0
 40
1.0
 10
226.0387210154
 20
243.2145210601
 30
0.0
 10
225.918834165
 20
243.1453047679
 30
0.0
 10
225.6658062265
 20
243.0279588895
 30
0.0
 10
225.3962414598
 20
242.9569362756
 30
0.0
 10
225.2595489095
 20
242.9327958825
 30
0.0
  0
SPLINE
  5
254
100
AcDbEntity
  8
0
100
AcDbSpline
 62
7
  6
BYLAYER
 70
0
 71
3
 72
25
 73
21
 74
0
 42
0.0000001
 43
0.0000001
 44
0.0000000001
 40
0.0
 40
0.0
 40
0.0
 40
0.0
 40
0.0267147381
 40
0.0534167891
 40
0.080215046
 40
0.1071288059
 40
0.1615070853
 40
0.217279792
 40
0.2750821149
 40
0.3353636066
 40
0.3982790409
 40
0.4636724286
 40
0.5311161804
 40
0.5999767958
 40
0.6694873568
 40
0.7388221532
 40
0.8071710204
 40
0.8738149205
 40
0.9381967167
 40
1.0
 40
1.0
 40
1.0
 40
1.0
 10
220.958743758
 20
252.0133522929
 30
0.0
 10
221.0376222031
 20
252.0588925126
 30
0.0
 10
221.2008516855
 20
252.1407734684
 30
0.0
 10
221.4584827519
 20
252.234231236
 30
0.0
 10
221.7257360513
 20
252.2980149875
 30
0.0
 10
222.0920311933
 20
252.3438222697
 30
0.0
 10
222.5624683297
 20
252.3279819348
 30
0.0
 10
223.124031611
 20
252.2028386671
 30
0.0
 10
223.676693664
 20
251.9825738264
 30
0.0
 10
224.2145211337
 20
251.676580498
 30
0.0
 10
224.7322753869
 20
251.2930260487
 30
0.0
 10
225.2238722612
 20
250.8399361673
 30
0.0
 10
225.6823585084
 20
250.3260551149
 30
0.0
 10
226.1002745609
 20
249.761210474
 30
0.0
 10
226.470168173
 20
249.1562835614
 30
0.0
 10
226.785036809
 20
248.5229119127
 30
0.0
 10
227.0386617931
 20
247.8730611736
 30
0.0
 10
227.2257332494
 20
247.2184298603
 30
0.0
 10
227.341821305
 20
246.5701708371
 30
0.0
 10
227.3698277773
 20
246.1396341954
 30
0.0
 10
227.3698277773
 20
245.9289229623
 30
0.0
  0
SPLINE
  5
255
100
AcDbEntity
  8
0
100
AcDbSpline
 62
7
  6
BYLAYER
 70
0
 71
3
 72
9
 73
5
 74
0
 42
0.0000001
 43
0.0000001
 44
0.0000000001
 40
0.0
 40
0.0
 40
0.0
 40
0.0
 40
0.5005736063
 40
1.0
 40
1.0
 40
1.0
 40
1.0
 10
220.3692684638
 20
251.530567056
 30
0.0
 10
220.4538930043
 20
251.6260035349
 30
0.0
 10
220.637991459
 20
251.8039039274
 30
0.0
 10
220.8485337458
 20
251.9497228926
 30
0.0
 10
220.958743758
 20
252.0133522929
 30
0.0
  0
SPLINE
  5
256
100
AcDbEntity
  8
0
100
AcDbSpline
 62
7
  6
BYLAYER
 70
0
 71
3
 72
14
 73
10
 74
0
 42
0.0000001
 43
0.0000001
 44
0.0000000001
 40
0.0
 40
0.0
 40
0.0
 40
0.0
 40
0.2643153198
 40
0.3913513751
 40
0.5157112787
 40
0.6381206746
 40
0.7592934085
 40
0.8797834148
 40
1.0
 40
1.0
 40
1.0
 40
1.0
 10
226.0227949674
 20
245.1512178491
 30
0.0
 10
226.0227949674
 20
244.8722741144
 30
0.0
 10
225.9871142869
 20
244.4571992668
 30
0.0
 10
225.8519334698
 20
243.9289998306
 30
0.0
 10
225.7085370143
 20
243.5603173238
 30
0.0
 10
225.5204830022
 20
243.21917658
 30
0.0
 10
225.2874873329
 20
242.9118171048
 30
0.0
 10
225.0115191745
 20
242.645612332
 30
0.0
 10
224.8015609424
 20
242.5002506226
 30
0.0
 10
224.6916882055
 20
242.436815947
 30
0.0
  0
SPLINE
  5
257
100
AcDbEntity
  8
0
100
AcDbSpline
 62
7
  6
BYLAYER
 70
0
 71
3
 72
9
 73
5
 74
0
 42
0.0000001
 43
0.0000001
 44
0.0000000001
 40
0.0
 40
0.0
 40
0.0
 40
0.0
 40
0.4993243795
 40
1.0
 40
1.0
 40
1.0
 40
1.0
 10
224.6916882055
 20
242.436815947
 30
0.0
 10
224.5718013551
 20
242.3675996548
 30
0.0
 10
224.3187734166
 20
242.2502537764
 30
0.0
 10
224.0492086499
 20
242.1792311625
 30
0.0
 10
223.9125160996
 20
242.1550907694
 30
0.0
  0
SPLINE
  5
258
100
AcDbEntity
  8
0
100
AcDbSpline
 62
7
  6
BYLAYER
 70
0
 71
3
 72
25
 73
21
 74
0
 42
0.0000001
 43
0.0000001
 44
0.0000000001
 40
0.0
 40
0.0
 40
0.0
 40
0.0
 40
0.0267147381
 40
0.0534167891
 40
0.080215046
 40
0.1071288059
 40
0.1615070853
 40
0.217279792
 40
0.2750821149
 40
0.3353636066
 40
0.3982790409
 40
0.4636724286
 40
0.5311161804
 40
0.5999767958
 40
0.6694873568
 40
0.7388221532
 40
0.8071710204
 40
0.8738149205
 40
0.9381967167
 40
1.0
 40
1.0
 40
1.0
 40
1.0
 10
219.6117109481
 20
251.2356471798
 30
0.0
 10
219.6905893932
 20
251.2811873995
 30
0.0
 10
219.8538188756
 20
251.3630683553
 30
0.0
 10
220.111449942
 20
251.4565261229
 30
0.0
 10
220.3787032414
 20
251.5203098744
 30
0.0
 10
220.7449983834
 20
251.5661171566
 30
0.0
 10
221.2154355198
 20
251.5502768216
 30
0.0
 10
221.7769988011
 20
251.425133554
 30
0.0
 10
222.3296608541
 20
251.2048687133
 30
0.0
 10
222.8674883238
 20
250.8988753849
 30
0.0
 10
223.385242577
 20
250.5153209356
 30
0.0
 10
223.8768394513
 20
250.0622310541
 30
0.0
 10
224.3353256985
 20
249.5483500018
 30
0.0
 10
224.753241751
 20
248.9835053609
 30
0.0
 10
225.1231353631
 20
248.3785784482
 30
0.0
 10
225.4380039991
 20
247.7452067996
 30
0.0
 10
225.6916289832
 20
247.0953560605
 30
0.0
 10
225.8787004395
 20
246.4407247471
 30
0.0
 10
225.9947884951
 20
245.7924657239
 30
0.0
 10
226.0227949674
 20
245.3619290823
 30
0.0
 10
226.0227949674
 20
245.1512178491
 30
0.0
  0
SPLINE
  5
259
100
AcDbEntity
  8
0
100
AcDbSpline
 62
7
  6
BYLAYER
 70
0
 71
3
 72
9
 73
5
 74
0
 42
0.0000001
 43
0.0000001
 44
0.0000000001
 40
0.0
 40
0.0
 40
0.0
 40
0.0
 40
0.5005736063
 40
1.0
 40
1.0
 40
1.0
 40
1.0
 10
219.0222356539
 20
250.7528619428
 30
0.0
 10
219.1068601944
 20
250.8482984218
 30
0.0
 10
219.2909586491
 20
251.0261988143
 30
0.0
 10
219.5015009359
 20
251.1720177794
 30
0.0
 10
219.6117109481
 20
251.2356471798
 30
0.0
  0
SPLINE
  5
25A
100
AcDbEntity
  8
0
100
AcDbSpline
 62
7
  6
BYLAYER
 70
0
 71
3
 72
14
 73
10
 74
0
 42
0.0000001
 43
0.0000001
 44
0.0000000001
 40
0.0
 40
0.0
 40
0.0
 40
0.0
 40
0.2643153198
 40
0.3913513751
 40
0.5157112787
 40
0.6381206746
 40
0.7592934085
 40
0.8797834148
 40
1.0
 40
1.0
 40
1.0
 40
1.0
 10
224.6757621575
 20
244.373512736
 30
0.0
 10
224.6757621575
 20
244.0945690012
 30
0.0
 10
224.640081477
 20
243.6794941537
 30
0.0
 10
224.5049006599
 20
243.1512947174
 30
0.0
 10
224.3615042044
 20
242.7826122107
 30
0.0
 10
224.1734501923
 20
242.4414714669
 30
0.0
 10
223.940454523
 20
242.1341119917
 30
0.0
 10
223.6644863647
 20
241.8679072188
 30
0.0
 10
223.4545281325
 20
241.7225455094
 30
0.0
 10
223.3446553957
 20
241.6591108339
 30
0.0
  0
SPLINE
  5
25B
100
AcDbEntity
  8
0
100
AcDbSpline
 62
7
  6
BYLAYER
 70
0
 71
3
 72
9
 73
5
 74
0
 42
0.0000001
 43
0.0000001
 44
0.0000000001
 40
0.0
 40
0.0
 40
0.0
 40
0.0
 40
0.4993243795
 40
1.0
 40
1.0
 40
1.0
 40
1.0
 10
223.3446553957
 20
241.6591108339
 30
0.0
 10
223.2247685452
 20
241.5898945417
 30
0.0
 10
222.9717406067
 20
241.4725486633
 30
0.0
 10
222.70217584
 20
241.4015260494
 30
0.0
 10
222.5654832897
 20
241.3773856563
 30
0.0
  0
SPLINE
  5
25C
100
AcDbEntity
  8
0
100
AcDbSpline
 62
7
  6
BYLAYER
 70
0
 71
3
 72
25
 73
21
 74
0
 42
0.0000001
 43
0.0000001
 44
0.0000000001
 40
0.0
 40
0.0
 40
0.0
 40
0.0
 40
0.0267147381
 40
0.0534167891
 40
0.080215046
 40
0.1071288059
 40
0.1615070853
 40
0.217279792
 40
0.2750821149
 40
0.3353636066
 40
0.3982790409
 40
0.4636724286
 40
0.5311161804
 40
0.5999767958
 40
0.6694873568
 40
0.7388221532
 40
0.8071710204
 40
0.8738149205
 40
0.9381967167
 40
1.0
 40
1.0
 40
1.0
 40
1.0
 10
218.2646781382
 20
250.4579420667
 30
0.0
 10
218.3435565834
 20
250.5034822864
 30
0.0
 10
218.5067860657
 20
250.5853632422
 30
0.0
 10
218.7644171321
 20
250.6788210098
 30
0.0
 10
219.0316704315
 20
250.7426047612
 30
0.0
 10
219.3979655735
 20
250.7884120434
 30
0.0
 10
219.8684027099
 20
250.7725717085
 30
0.0
 10
220.4299659912
 20
250.6474284409
 30
0.0
 10
220.9826280442
 20
250.4271636002
 30
0.0
 10
221.5204555139
 20
250.1211702718
 30
0.0
 10
222.0382097671
 20
249.7376158225
 30
0.0
 10
222.5298066414
 20
249.284525941
 30
0.0
 10
222.9882928886
 20
248.7706448887
 30
0.0
 10
223.4062089411
 20
248.2058002478
 30
0.0
 10
223.7761025533
 20
247.6008733351
 30
0.0
 10
224.0909711892
 20
246.9675016865
 30
0.0
 10
224.3445961733
 20
246.3176509474
 30
0.0
 10
224.5316676296
 20
245.663019634
 30
0.0
 10
224.6477556853
 20
245.0147606108
 30
0.0
 10
224.6757621575
 20
244.5842239692
 30
0.0
 10
224.6757621575
 20
244.373512736
 30
0.0
  0
SPLINE
  5
25D
100
AcDbEntity
  8
0
100
AcDbSpline
 62
7
  6
BYLAYER
 70
0
 71
3
 72
9
 73
5
 74
0
 42
0.0000001
 43
0.0000001
 44
0.0000000001
 40
0.0
 40
0.0
 40
0.0
 40
0.0
 40
0.5005736063
 40
1.0
 40
1.0
 40
1.0
 40
1.0
 10
217.675202844
 20
249.9751568297
 30
0.0
 10
217.7598273845
 20
250.0705933086
 30
0.0
 10
217.9439258392
 20
250.2484937011
 30
0.0
 10
218.154468126
 20
250.3943126663
 30
0.0
 10
218.2646781382
 20
250.4579420667
 30
0.0
  0
SPLINE
  5
25E
100
AcDbEntity
  8
0
100
AcDbSpline
 62
7
  6
BYLAYER
 70
0
 71
3
 72
14
 73
10
 74
0
 42
0.0000001
 43
0.0000001
 44
0.0000000001
 40
0.0
 40
0.0
 40
0.0
 40
0.0
 40
0.2643153198
 40
0.3913513751
 40
0.5157112787
 40
0.6381206746
 40
0.7592934085
 40
0.8797834148
 40
1.0
 40
1.0
 40
1.0
 40
1.0
 10
223.3287293476
 20
243.5958076229
 30
0.0
 10
223.3287293476
 20
243.3168638881
 30
0.0
 10
223.2930486671
 20
242.9017890406
 30
0.0
 10
223.15786785
 20
242.3735896043
 30
0.0
 10
223.0144713945
 20
242.0049070975
 30
0.0
 10
222.8264173824
 20
241.6637663537
 30
0.0
 10
222.5934217132
 20
241.3564068785
 30
0.0
 10
222.3174535548
 20
241.0902021057
 30
0.0
 10
222.1074953226
 20
240.9448403963
 30
0.0
 10
221.9976225858
 20
240.8814057207
 30
0.0
  0
SPLINE
  5
25F
100
AcDbEntity
  8
0
100
AcDbSpline
 62
7
  6
BYLAYER
 70
0
 71
3
 72
9
 73
5
 74
0
 42
0.0000001
 43
0.0000001
 44
0.0000000001
 40
0.0
 40
0.0
 40
0.0
 40
0.0
 40
0.4993243795
 40
1.0
 40
1.0
 40
1.0
 40
1.0
 10
221.9976225858
 20
240.8814057207
 30
0.0
 10
221.8777357354
 20
240.8121894286
 30
0.0
 10
221.6247077968
 20
240.6948435501
 30
0.0
 10
221.3551430301
 20
240.6238209363
 30
0.0
 10
221.2184504798
 20
240.5996805431
 30
0.0
  0
SPLINE
  5
260
100
AcDbEntity
  8
0
100
AcDbSpline
 62
7
  6
BYLAYER
 70
0
 71
3
 72
25
 73
21
 74
0
 42
0.0000001
 43
0.0000001
 44
0.0000000001
 40
0.0
 40
0.0
 40
0.0
 40
0.0
 40
0.0267147381
 40
0.0534167891
 40
0.080215046
 40
0.1071288059
 40
0.1615070853
 40
0.217279792
 40
0.2750821149
 40
0.3353636066
 40
0.3982790409
 40
0.4636724286
 40
0.5311161804
 40
0.5999767958
 40
0.6694873568
 40
0.7388221532
 40
0.8071710204
 40
0.8738149205
 40
0.9381967167
 40
1.0
 40
1.0
 40
1.0
 40
1.0
 10
216.9176453283
 20
249.6802369536
 30
0.0
 10
216.9965237735
 20
249.7257771733
 30
0.0
 10
217.1597532558
 20
249.807658129
 30
0.0
 10
217.4173843223
 20
249.9011158966
 30
0.0
 10
217.6846376216
 20
249.9648996481
 30
0.0
 10
218.0509327636
 20
250.0107069303
 30
0.0
 10
218.5213699
 20
249.9948665954
 30
0.0
 10
219.0829331813
 20
249.8697233277
 30
0.0
 10
219.6355952343
 20
249.6494584871
 30
0.0
 10
220.173422704
 20
249.3434651586
 30
0.0
 10
220.6911769572
 20
248.9599107093
 30
0.0
 10
221.1827738315
 20
248.5068208279
 30
0.0
 10
221.6412600787
 20
247.9929397755
 30
0.0
 10
222.0591761312
 20
247.4280951346
 30
0.0
 10
222.4290697434
 20
246.823168222
 30
0.0
 10
222.7439383793
 20
246.1897965734
 30
0.0
 10
222.9975633634
 20
245.5399458342
 30
0.0
 10
223.1846348198
 20
244.8853145209
 30
0.0
 10
223.3007228754
 20
244.2370554977
 30
0.0
 10
223.3287293476
 20
243.8065188561
 30
0.0
 10
223.3287293476
 20
243.5958076229
 30
0.0
  0
SPLINE
  5
261
100
AcDbEntity
  8
0
100
AcDbSpline
 62
7
  6
BYLAYER
 70
0
 71
3
 72
9
 73
5
 74
0
 42
0.0000001
 43
0.0000001
 44
0.0000000001
 40
0.0
 40
0.0
 40
0.0
 40
0.0
 40
0.5005736063
 40
1.0
 40
1.0
 40
1.0
 40
1.0
 10
216.3281700341
 20
249.1974517166
 30
0.0
 10
216.4127945746
 20
249.2928881955
 30
0.0
 10
216.5968930293
 20
249.470788588
 30
0.0
 10
216.8074353161
 20
249.6166075532
 30
0.0
 10
216.9176453283
 20
249.6802369536
 30
0.0
  0
SPLINE
  5
262
100
AcDbEntity
  8
0
100
AcDbSpline
 62
7
  6
BYLAYER
 70
0
 71
3
 72
14
 73
10
 74
0
 42
0.0000001
 43
0.0000001
 44
0.0000000001
 40
0.0
 40
0.0
 40
0.0
 40
0.0
 40
0.2643153198
 40
0.3913513751
 40
0.5157112787
 40
0.6381206746
 40
0.7592934085
 40
0.8797834148
 40
1.0
 40
1.0
 40
1.0
 40
1.0
 10
221.9816965377
 20
242.8181025097
 30
0.0
 10
221.9816965377
 20
242.539158775
 30
0.0
 10
221.9460158572
 20
242.1240839274
 30
0.0
 10
221.8108350401
 20
241.5958844912
 30
0.0
 10
221.6674385846
 20
241.2272019844
 30
0.0
 10
221.4793845725
 20
240.8860612406
 30
0.0
 10
221.2463889033
 20
240.5787017654
 30
0.0
 10
220.9704207449
 20
240.3124969926
 30
0.0
 10
220.7604625127
 20
240.1671352832
 30
0.0
 10
220.6505897759
 20
240.1037006076
 30
0.0
  0
SPLINE
  5
263
100
AcDbEntity
  8
0
100
AcDbSpline
 62
7
  6
BYLAYER
 70
0
 71
3
 72
9
 73
5
 74
0
 42
0.0000001
 43
0.0000001
 44
0.0000000001
 40
0.0
 40
0.0
 40
0.0
 40
0.0
 40
0.4993243795
 40
1.0
 40
1.0
 40
1.0
 40
1.0
 10
220.6505897759
 20
240.1037006076
 30
0.0
 10
220.5307029255
 20
240.0344843154
 30
0.0
 10
220.2776749869
 20
239.917138437
 30
0.0
 10
220.0081102202
 20
239.8461158231
 30
0.0
 10
219.8714176699
 20
239.82197543
 30
0.0
  0
SPLINE
  5
264
100
AcDbEntity
  8
0
100
AcDbSpline
 62
7
  6
BYLAYER
 70
0
 71
3
 72
25
 73
21
 74
0
 42
0.0000001
 43
0.0000001
 44
0.0000000001
 40
0.0
 40
0.0
 40
0.0
 40
0.0
 40
0.0267147381
 40
0.0534167891
 40
0.080215046
 40
0.1071288059
 40
0.1615070853
 40
0.217279792
 40
0.2750821149
 40
0.3353636066
 40
0.3982790409
 40
0.4636724286
 40
0.5311161804
 40
0.5999767958
 40
0.6694873568
 40
0.7388221532
 40
0.8071710204
 40
0.8738149205
 40
0.9381967167
 40
1.0
 40
1.0
 40
1.0
 40
1.0
 10
215.5706125184
 20
248.9025318404
 30
0.0
 10
215.6494909636
 20
248.9480720601
 30
0.0
 10
215.8127204459
 20
249.0299530159
 30
0.0
 10
216.0703515124
 20
249.1234107835
 30
0.0
 10
216.3376048117
 20
249.187194535
 30
0.0
 10
216.7038999537
 20
249.2330018172
 30
0.0
 10
217.1743370901
 20
249.2171614823
 30
0.0
 10
217.7359003714
 20
249.0920182146
 30
0.0
 10
218.2885624244
 20
248.8717533739
 30
0.0
 10
218.8263898941
 20
248.5657600455
 30
0.0
 10
219.3441441473
 20
248.1822055962
 30
0.0
 10
219.8357410216
 20
247.7291157148
 30
0.0
 10
220.2942272688
 20
247.2152346624
 30
0.0
 10
220.7121433213
 20
246.6503900215
 30
0.0
 10
221.0820369335
 20
246.0454631089
 30
0.0
 10
221.3969055694
 20
245.4120914602
 30
0.0
 10
221.6505305535
 20
244.7622407211
 30
0.0
 10
221.8376020099
 20
244.1076094078
 30
0.0
 10
221.9536900655
 20
243.4593503846
 30
0.0
 10
221.9816965377
 20
243.0288137429
 30
0.0
 10
221.9816965377
 20
242.8181025097
 30
0.0
  0
SPLINE
  5
265
100
AcDbEntity
  8
0
100
AcDbSpline
 62
7
  6
BYLAYER
 70
0
 71
3
 72
9
 73
5
 74
0
 42
0.0000001
 43
0.0000001
 44
0.0000000001
 40
0.0
 40
0.0
 40
0.0
 40
0.0
 40
0.5005736063
 40
1.0
 40
1.0
 40
1.0
 40
1.0
 10
214.9811372242
 20
248.4197466035
 30
0.0
 10
215.0657617647
 20
248.5151830824
 30
0.0
 10
215.2498602194
 20
248.6930834749
 30
0.0
 10
215.4604025062
 20
248.8389024401
 30
0.0
 10
215.5706125184
 20
248.9025318404
 30
0.0
  0
SPLINE
  5
266
100
AcDbEntity
  8
0
100
AcDbSpline
 62
7
  6
BYLAYER
 70
0
 71
3
 72
14
 73
10
 74
0
 42
0.0000001
 43
0.0000001
 44
0.0000000001
 40
0.0
 40
0.0
 40
0.0
 40
0.0
 40
0.2643153198
 40
0.3913513751
 40
0.5157112787
 40
0.6381206746
 40
0.7592934085
 40
0.8797834148
 40
1.0
 40
1.0
 40
1.0
 40
1.0
 10
220.6346637278
 20
242.0403973966
 30
0.0
 10
220.6346637278
 20
241.7614536619
 30
0.0
 10
220.5989830473
 20
241.3463788143
 30
0.0
 10
220.4638022302
 20
240.8181793781
 30
0.0
 10
220.3204057747
 20
240.4494968713
 30
0.0
 10
220.1323517626
 20
240.1083561275
 30
0.0
 10
219.8993560934
 20
239.8009966523
 30
0.0
 10
219.623387935
 20
239.5347918795
 30
0.0
 10
219.4134297029
 20
239.3894301701
 30
0.0
 10
219.303556966
 20
239.3259954945
 30
0.0
  0
SPLINE
  5
267
100
AcDbEntity
  8
0
100
AcDbSpline
 62
7
  6
BYLAYER
 70
0
 71
3
 72
9
 73
5
 74
0
 42
0.0000001
 43
0.0000001
 44
0.0000000001
 40
0.0
 40
0.0
 40
0.0
 40
0.0
 40
0.4993243795
 40
1.0
 40
1.0
 40
1.0
 40
1.0
 10
219.303556966
 20
239.3259954945
 30
0.0
 10
219.1836701156
 20
239.2567792023
 30
0.0
 10
218.930642177
 20
239.1394333239
 30
0.0
 10
218.6610774103
 20
239.06841071
 30
0.0
 10
218.52438486
 20
239.0442703169
 30
0.0
  0
SPLINE
  5
268
100
AcDbEntity
  8
0
100
AcDbSpline
 62
7
  6
BYLAYER
 70
0
 71
3
 72
25
 73
21
 74
0
 42
0.0000001
 43
0.0000001
 44
0.0000000001
 40
0.0
 40
0.0
 40
0.0
 40
0.0
 40
0.0267147381
 40
0.0534167891
 40
0.080215046
 40
0.1071288059
 40
0.1615070853
 40
0.217279792
 40
0.2750821149
 40
0.3353636066
 40
0.3982790409
 40
0.4636724286
 40
0.5311161804
 40
0.5999767958
 40
0.6694873568
 40
0.7388221532
 40
0.8071710204
 40
0.8738149205
 40
0.9381967167
 40
1.0
 40
1.0
 40
1.0
 40
1.0
 10
214.2235797085
 20
248.1248267273
 30
0.0
 10
214.3024581537
 20
248.170366947
 30
0.0
 10
214.465687636
 20
248.2522479028
 30
0.0
 10
214.7233187025
 20
248.3457056704
 30
0.0
 10
214.9905720018
 20
248.4094894219
 30
0.0
 10
215.3568671438
 20
248.4552967041
 30
0.0
 10
215.8273042802
 20
248.4394563691
 30
0.0
 10
216.3888675615
 20
248.3143131015
 30
0.0
 10
216.9415296145
 20
248.0940482608
 30
0.0
 10
217.4793570842
 20
247.7880549324
 30
0.0
 10
217.9971113374
 20
247.4045004831
 30
0.0
 10
218.4887082117
 20
246.9514106016
 30
0.0
 10
218.947194459
 20
246.4375295493
 30
0.0
 10
219.3651105114
 20
245.8726849084
 30
0.0
 10
219.7350041236
 20
245.2677579957
 30
0.0
 10
220.0498727595
 20
244.6343863471
 30
0.0
 10
220.3034977436
 20
243.984535608
 30
0.0
 10
220.4905692
 20
243.3299042946
 30
0.0
 10
220.6066572556
 20
242.6816452714
 30
0.0
 10
220.6346637278
 20
242.2511086298
 30
0.0
 10
220.6346637278
 20
242.0403973966
 30
0.0
  0
SPLINE
  5
269
100
AcDbEntity
  8
0
100
AcDbSpline
 62
7
  6
BYLAYER
 70
0
 71
3
 72
9
 73
5
 74
0
 42
0.0000001
 43
0.0000001
 44
0.0000000001
 40
0.0
 40
0.0
 40
0.0
 40
0.0
 40
0.5005736063
 40
1.0
 40
1.0
 40
1.0
 40
1.0
 10
213.6341044143
 20
247.6420414903
 30
0.0
 10
213.7187289549
 20
247.7374779693
 30
0.0
 10
213.9028274095
 20
247.9153783618
 30
0.0
 10
214.1133696963
 20
248.0611973269
 30
0.0
 10
214.2235797085
 20
248.1248267273
 30
0.0
  0
SPLINE
  5
26A
100
AcDbEntity
  8
0
100
AcDbSpline
 62
7
  6
BYLAYER
 70
0
 71
3
 72
14
 73
10
 74
0
 42
0.0000001
 43
0.0000001
 44
0.0000000001
 40
0.0
 40
0.0
 40
0.0
 40
0.0
 40
0.2643153198
 40
0.3913513751
 40
0.5157112787
 40
0.6381206746
 40
0.7592934085
 40
0.8797834148
 40
1.0
 40
1.0
 40
1.0
 40
1.0
 10
219.2876309179
 20
241.2626922835
 30
0.0
 10
219.2876309179
 20
240.9837485487
 30
0.0
 10
219.2519502375
 20
240.5686737012
 30
0.0
 10
219.1167694203
 20
240.0404742649
 30
0.0
 10
218.9733729648
 20
239.6717917581
 30
0.0
 10
218.7853189527
 20
239.3306510144
 30
0.0
 10
218.5523232835
 20
239.0232915392
 30
0.0
 10
218.2763551251
 20
238.7570867663
 30
0.0
 10
218.066396893
 20
238.6117250569
 30
0.0
 10
217.9565241561
 20
238.5482903814
 30
0.0
  0
SPLINE
  5
26B
100
AcDbEntity
  8
0
100
AcDbSpline
 62
7
  6
BYLAYER
 70
0
 71
3
 72
25
 73
21
 74
0
 42
0.0000001
 43
0.0000001
 44
0.0000000001
 40
0.0
 40
0.0
 40
0.0
 40
0.0
 40
0.0267147381
 40
0.0534167891
 40
0.080215046
 40
0.1071288059
 40
0.1615070853
 40
0.217279792
 40
0.2750821149
 40
0.3353636066
 40
0.3982790409
 40
0.4636724286
 40
0.5311161804
 40
0.5999767958
 40
0.6694873568
 40
0.7388221532
 40
0.8071710204
 40
0.8738149205
 40
0.9381967167
 40
1.0
 40
1.0
 40
1.0
 40
1.0
 10
212.8765468986
 20
247.3471216142
 30
0.0
 10
212.9554253438
 20
247.3926618339
 30
0.0
 10
213.1186548261
 20
247.4745427897
 30
0.0
 10
213.3762858926
 20
247.5680005573
 30
0.0
 10
213.6435391919
 20
247.6317843087
 30
0.0
 10
214.0098343339
 20
247.6775915909
 30
0.0
 10
214.4802714703
 20
247.661751256
 30
0.0
 10
215.0418347516
 20
247.5366079884
 30
0.0
 10
215.5944968046
 20
247.3163431477
 30
0.0
 10
216.1323242744
 20
247.0103498193
 30
0.0
 10
216.6500785275
 20
246.62679537
 30
0.0
 10
217.1416754019
 20
246.1737054885
 30
0.0
 10
217.6001616491
 20
245.6598244362
 30
0.0
 10
218.0180777015
 20
245.0949797952
 30
0.0
 10
218.3879713137
 20
244.4900528826
 30
0.0
 10
218.7028399496
 20
243.856681234
 30
0.0
 10
218.9564649337
 20
243.2068304949
 30
0.0
 10
219.1435363901
 20
242.5521991815
 30
0.0
 10
219.2596244457
 20
241.9039401583
 30
0.0
 10
219.2876309179
 20
241.4734035167
 30
0.0
 10
219.2876309179
 20
241.2626922835
 30
0.0
  0
SPLINE
  5
26C
100
AcDbEntity
  8
0
100
AcDbSpline
 62
7
  6
BYLAYER
 70
0
 71
3
 72
9
 73
5
 74
0
 42
0.0000001
 43
0.0000001
 44
0.0000000001
 40
0.0
 40
0.0
 40
0.0
 40
0.0
 40
0.5005736063
 40
1.0
 40
1.0
 40
1.0
 40
1.0
 10
212.2870716044
 20
246.8643363772
 30
0.0
 10
212.371696145
 20
246.9597728561
 30
0.0
 10
212.5557945996
 20
247.1376732486
 30
0.0
 10
212.7663368865
 20
247.2834922138
 30
0.0
 10
212.8765468986
 20
247.3471216142
 30
0.0
  0
SPLINE
  5
26D
100
AcDbEntity
  8
0
100
AcDbSpline
 62
7
  6
BYLAYER
 70
0
 71
3
 72
9
 73
5
 74
0
 42
0.0000001
 43
0.0000001
 44
0.0000000001
 40
0.0
 40
0.0
 40
0.0
 40
0.0
 40
0.4993243795
 40
1.0
 40
1.0
 40
1.0
 40
1.0
 10
217.9565241561
 20
238.5482903814
 30
0.0
 10
217.8366373057
 20
238.4790740892
 30
0.0
 10
217.5836093671
 20
238.3617282108
 30
0.0
 10
217.3140446004
 20
238.2907055969
 30
0.0
 10
217.1773520501
 20
238.2665652038
 30
0.0
  0
SPLINE
  5
26E
100
AcDbEntity
  8
0
100
AcDbSpline
 62
7
  6
BYLAYER
 70
0
 71
3
 72
14
 73
10
 74
0
 42
0.0000001
 43
0.0000001
 44
0.0000000001
 40
0.0
 40
0.0
 40
0.0
 40
0.0
 40
0.2643153198
 40
0.3913513751
 40
0.5157112787
 40
0.6381206746
 40
0.7592934085
 40
0.8797834148
 40
1.0
 40
1.0
 40
1.0
 40
1.0
 10
217.940598108
 20
240.4849871704
 30
0.0
 10
217.940598108
 20
240.2060434356
 30
0.0
 10
217.9049174276
 20
239.7909685881
 30
0.0
 10
217.7697366104
 20
239.2627691518
 30
0.0
 10
217.6263401549
 20
238.894086645
 30
0.0
 10
217.4382861428
 20
238.5529459012
 30
0.0
 10
217.2052904736
 20
238.245586426
 30
0.0
 10
216.9293223152
 20
237.9793816532
 30
0.0
 10
216.7193640831
 20
237.8340199438
 30
0.0
 10
216.6094913462
 20
237.7705852682
 30
0.0
  0
SPLINE
  5
26F
100
AcDbEntity
  8
0
100
AcDbSpline
 62
7
  6
BYLAYER
 70
0
 71
3
 72
25
 73
21
 74
0
 42
0.0000001
 43
0.0000001
 44
0.0000000001
 40
0.0
 40
0.0
 40
0.0
 40
0.0
 40
0.0267147381
 40
0.0534167891
 40
0.080215046
 40
0.1071288059
 40
0.1615070853
 40
0.217279792
 40
0.2750821149
 40
0.3353636066
 40
0.3982790409
 40
0.4636724286
 40
0.5311161804
 40
0.5999767958
 40
0.6694873568
 40
0.7388221532
 40
0.8071710204
 40
0.8738149205
 40
0.9381967167
 40
1.0
 40
1.0
 40
1.0
 40
1.0
 10
211.5295140887
 20
246.5694165011
 30
0.0
 10
211.6083925339
 20
246.6149567208
 30
0.0
 10
211.7716220162
 20
246.6968376765
 30
0.0
 10
212.0292530827
 20
246.7902954441
 30
0.0
 10
212.2965063821
 20
246.8540791956
 30
0.0
 10
212.6628015241
 20
246.8998864778
 30
0.0
 10
213.1332386604
 20
246.8840461429
 30
0.0
 10
213.6948019417
 20
246.7589028752
 30
0.0
 10
214.2474639947
 20
246.5386380346
 30
0.0
 10
214.7852914645
 20
246.2326447061
 30
0.0
 10
215.3030457176
 20
245.8490902568
 30
0.0
 10
215.794642592
 20
245.3960003754
 30
0.0
 10
216.2531288392
 20
244.882119323
 30
0.0
 10
216.6710448916
 20
244.3172746821
 30
0.0
 10
217.0409385038
 20
243.7123477695
 30
0.0
 10
217.3558071397
 20
243.0789761209
 30
0.0
 10
217.6094321239
 20
242.4291253817
 30
0.0
 10
217.7965035802
 20
241.7744940684
 30
0.0
 10
217.9125916358
 20
241.1262350452
 30
0.0
 10
217.940598108
 20
240.6956984036
 30
0.0
 10
217.940598108
 20
240.4849871704
 30
0.0
  0
SPLINE
  5
270
100
AcDbEntity
  8
0
100
AcDbSpline
 62
7
  6
BYLAYER
 70
0
 71
3
 72
9
 73
5
 74
0
 42
0.0000001
 43
0.0000001
 44
0.0000000001
 40
0.0
 40
0.0
 40
0.0
 40
0.0
 40
0.5005736063
 40
1.0
 40
1.0
 40
1.0
 40
1.0
 10
210.9400387945
 20
246.0866312641
 30
0.0
 10
211.0246633351
 20
246.182067743
 30
0.0
 10
211.2087617897
 20
246.3599681355
 30
0.0
 10
211.4193040766
 20
246.5057871007
 30
0.0
 10
211.5295140887
 20
246.5694165011
 30
0.0
  0
SPLINE
  5
271
100
AcDbEntity
  8
0
100
AcDbSpline
 62
7
  6
BYLAYER
 70
0
 71
3
 72
9
 73
5
 74
0
 42
0.0000001
 43
0.0000001
 44
0.0000000001
 40
0.0
 40
0.0
 40
0.0
 40
0.0
 40
0.4993243795
 40
1.0
 40
1.0
 40
1.0
 40
1.0
 10
216.6094913462
 20
237.7705852682
 30
0.0
 10
216.4896044958
 20
237.7013689761
 30
0.0
 10
216.2365765572
 20
237.5840230976
 30
0.0
 10
215.9670117905
 20
237.5130004838
 30
0.0
 10
215.8303192402
 20
237.4888600906
 30
0.0
  0
SPLINE
  5
272
100
AcDbEntity
  8
0
100
AcDbSpline
 62
7
  6
BYLAYER
 70
0
 71
3
 72
25
 73
21
 74
0
 42
0.0000001
 43
0.0000001
 44
0.0000000001
 40
0.0
 40
0.0
 40
0.0
 40
0.0
 40
0.0267147381
 40
0.0534167891
 40
0.080215046
 40
0.1071288059
 40
0.1615070853
 40
0.217279792
 40
0.2750821149
 40
0.3353636066
 40
0.3982790409
 40
0.4636724286
 40
0.5311161804
 40
0.5999767958
 40
0.6694873568
 40
0.7388221532
 40
0.8071710204
 40
0.8738149205
 40
0.9381967167
 40
1.0
 40
1.0
 40
1.0
 40
1.0
 10
210.1824812789
 20
245.7917113879
 30
0.0
 10
210.261359724
 20
245.8372516076
 30
0.0
 10
210.4245892063
 20
245.9191325634
 30
0.0
 10
210.6822202728
 20
246.012590331
 30
0.0
 10
210.9494735722
 20
246.0763740825
 30
0.0
 10
211.3157687142
 20
246.1221813647
 30
0.0
 10
211.7862058505
 20
246.1063410298
 30
0.0
 10
212.3477691318
 20
245.9811977621
 30
0.0
 10
212.9004311848
 20
245.7609329214
 30
0.0
 10
213.4382586546
 20
245.454939593
 30
0.0
 10
213.9560129077
 20
245.0713851437
 30
0.0
 10
214.4476097821
 20
244.6182952623
 30
0.0
 10
214.9060960293
 20
244.1044142099
 30
0.0
 10
215.3240120818
 20
243.539569569
 30
0.0
 10
215.6939056939
 20
242.9346426564
 30
0.0
 10
216.0087743298
 20
242.3012710077
 30
0.0
 10
216.262399314
 20
241.6514202686
 30
0.0
 10
216.4494707703
 20
240.9967889553
 30
0.0
 10
216.5655588259
 20
240.3485299321
 30
0.0
 10
216.5935652981
 20
239.9179932904
 30
0.0
 10
216.5935652981
 20
239.7072820572
 30
0.0
  0
SPLINE
  5
273
100
AcDbEntity
  8
0
100
AcDbSpline
 62
7
  6
BYLAYER
 70
0
 71
3
 72
10
 73
6
 74
0
 42
0.0000001
 43
0.0000001
 44
0.0000000001
 40
0.0
 40
0.0
 40
0.0
 40
0.0
 40
0.1971005565
 40
0.4175529771
 40
1.0
 40
1.0
 40
1.0
 40
1.0
 10
211.1352653347
 20
244.1421933726
 30
0.0
 10
211.1543175319
 20
244.1532773005
 30
0.0
 10
211.1967054149
 20
244.173438255
 30
0.0
 10
211.3043592257
 20
244.2049592887
 30
0.0
 10
211.3955473425
 20
244.2097242873
 30
0.0
 10
211.4606071097
 20
244.2065925728
 30
0.0
  0
SPLINE
  5
274
100
AcDbEntity
  8
0
100
AcDbSpline
 62
7
  6
BYLAYER
 70
0
 71
3
 72
21
 73
17
 74
0
 42
0.0000001
 43
0.0000001
 44
0.0000000001
 40
0.0
 40
0.0
 40
0.0
 40
0.0
 40
0.0329012807
 40
0.0738663654
 40
0.1224226483
 40
0.1777193978
 40
0.2387700964
 40
0.3045555536
 40
0.374056876
 40
0.446260032
 40
0.5946440789
 40
0.7417459586
 40
0.812347192
 40
0.8796026677
 40
0.94249369
 40
1.0
 40
1.0
 40
1.0
 40
1.0
 10
211.4606071097
 20
244.2065925728
 30
0.0
 10
211.5252873894
 20
244.2034791253
 30
0.0
 10
211.6698846458
 20
244.1820058619
 30
0.0
 10
211.9008032985
 20
244.1107056431
 30
0.0
 10
212.1605563257
 20
243.9916164209
 30
0.0
 10
212.4389148647
 20
243.8235529523
 30
0.0
 10
212.7262611909
 20
243.6083472557
 30
0.0
 10
213.0139996464
 20
243.3497165378
 30
0.0
 10
213.2947186325
 20
243.0525237302
 30
0.0
 10
213.6542061718
 20
242.6083734165
 30
0.0
 10
214.0466946768
 20
241.9973110205
 30
0.0
 10
214.3492183647
 20
241.340431226
 30
0.0
 10
214.5250815361
 20
240.8073587556
 30
0.0
 10
214.6187277785
 20
240.4230240315
 30
0.0
 10
214.674996292
 20
240.0575354001
 30
0.0
 10
214.6885652981
 20
239.8204640014
 30
0.0
 10
214.6885652981
 20
239.7072820572
 30
0.0
  0
SPLINE
  5
275
100
AcDbEntity
  8
0
100
AcDbSpline
 62
7
  6
BYLAYER
 70
0
 71
3
 72
14
 73
10
 74
0
 42
0.0000001
 43
0.0000001
 44
0.0000000001
 40
0.0
 40
0.0
 40
0.0
 40
0.0
 40
0.2643192962
 40
0.3913484344
 40
0.5157000187
 40
0.6381157067
 40
0.759288724
 40
0.8797835823
 40
1.0
 40
1.0
 40
1.0
 40
1.0
 10
208.851374517
 20
243.0773094858
 30
0.0
 10
208.851374517
 20
243.3562889133
 30
0.0
 10
208.8870566926
 20
243.7714096832
 30
0.0
 10
209.0222785846
 20
244.2996496746
 30
0.0
 10
209.1656946247
 20
244.668362534
 30
0.0
 10
209.3537971419
 20
245.0095254536
 30
0.0
 10
209.5868587926
 20
245.3169069266
 30
0.0
 10
209.8629076696
 20
245.583094775
 30
0.0
 10
210.072898846
 20
245.7284712433
 30
0.0
 10
210.1828006775
 20
245.791883813
 30
0.0
  0
SPLINE
  5
276
100
AcDbEntity
  8
0
100
AcDbSpline
 62
7
  6
BYLAYER
 70
0
 71
3
 72
15
 73
11
 74
0
 42
0.0000001
 43
0.0000001
 44
0.0000000001
 40
0.0
 40
0.0
 40
0.0
 40
0.0
 40
0.2001264078
 40
0.3791868319
 40
0.535639176
 40
0.6683181086
 40
0.7774209798
 40
0.8655161937
 40
0.937121185
 40
1.0
 40
1.0
 40
1.0
 40
1.0
 10
214.6885652981
 20
239.7072820572
 30
0.0
 10
214.6885652981
 20
239.6291277792
 30
0.0
 10
214.6827042631
 20
239.4809386134
 30
0.0
 10
214.6551371369
 20
239.2732613274
 30
0.0
 10
214.6125332069
 20
239.0950777633
 30
0.0
 10
214.5589863715
 20
238.9486480355
 30
0.0
 10
214.4992351676
 20
238.8340605532
 30
0.0
 10
214.4376608904
 20
238.7485645367
 30
0.0
 10
214.3762083498
 20
238.6865307339
 30
0.0
 10
214.3330124874
 20
238.6561532229
 30
0.0
 10
214.3118611661
 20
238.6436790463
 30
0.0
  0
SPLINE
  5
277
100
AcDbEntity
  8
0
100
AcDbSpline
 62
7
  6
BYLAYER
 70
0
 71
3
 72
14
 73
10
 74
0
 42
0.0000001
 43
0.0000001
 44
0.0000000001
 40
0.0
 40
0.0
 40
0.0
 40
0.0
 40
0.1195223259
 40
0.2393683255
 40
0.3599936183
 40
0.4820649674
 40
0.6063939813
 40
0.7337967508
 40
1.0
 40
1.0
 40
1.0
 40
1.0
 10
215.2621391377
 20
236.9927077301
 30
0.0
 10
215.1453631333
 20
236.9253288118
 30
0.0
 10
214.8992076601
 20
236.8105260571
 30
0.0
 10
214.5055040157
 20
236.7038630347
 30
0.0
 10
214.096931387
 20
236.6623775422
 30
0.0
 10
213.6820278031
 20
236.6833277218
 30
0.0
 10
213.2666104718
 20
236.7624987858
 30
0.0
 10
212.7095944501
 20
236.9423383017
 30
0.0
 10
212.3123769812
 20
237.1494991814
 30
0.0
 10
212.0591562237
 20
237.3108828957
 30
0.0
  0
SPLINE
  5
278
100
AcDbEntity
  8
0
100
AcDbSpline
 62
7
  6
BYLAYER
 70
0
 71
3
 72
14
 73
10
 74
0
 42
0.0000001
 43
0.0000001
 44
0.0000000001
 40
0.0
 40
0.0
 40
0.0
 40
0.0
 40
0.2643153198
 40
0.3913513751
 40
0.5157112787
 40
0.6381206746
 40
0.7592934085
 40
0.8797834148
 40
1.0
 40
1.0
 40
1.0
 40
1.0
 10
216.5935652981
 20
239.7072820572
 30
0.0
 10
216.5935652981
 20
239.4283383225
 30
0.0
 10
216.5578846177
 20
239.0132634749
 30
0.0
 10
216.4227038005
 20
238.4850640387
 30
0.0
 10
216.279307345
 20
238.1163815319
 30
0.0
 10
216.0912533329
 20
237.7752407881
 30
0.0
 10
215.8582576637
 20
237.4678813129
 30
0.0
 10
215.5822895053
 20
237.2016765401
 30
0.0
 10
215.3723312732
 20
237.0563148307
 30
0.0
 10
215.2624585363
 20
236.9928801551
 30
0.0
  0
SPLINE
  5
279
100
AcDbEntity
  8
0
100
AcDbSpline
 62
7
  6
BYLAYER
 70
0
 71
3
 72
17
 73
13
 74
0
 42
0.0000001
 43
0.0000001
 44
0.0000000001
 40
0.0
 40
0.0
 40
0.0
 40
0.0
 40
0.1286892243
 40
0.2702758677
 40
0.4174293416
 40
0.561777018
 40
0.6954488393
 40
0.8127122705
 40
0.8646773697
 40
0.9125114218
 40
0.9571405072
 40
1.0
 40
1.0
 40
1.0
 40
1.0
 10
243.6816664967
 20
278.7480817131
 30
0.0
 10
243.6816664967
 20
278.9923276669
 30
0.0
 10
243.7500003089
 20
279.5058823075
 30
0.0
 10
244.005009831
 20
280.2599344705
 30
0.0
 10
244.3980034044
 20
280.9863278915
 30
0.0
 10
244.8973560172
 20
281.6255032071
 30
0.0
 10
245.4622643477
 20
282.1258474448
 30
0.0
 10
245.9735988139
 20
282.4054073901
 30
0.0
 10
246.3735704734
 20
282.5118461414
 30
0.0
 10
246.64886043
 20
282.532096713
 30
0.0
 10
246.9051901968
 20
282.4945073857
 30
0.0
 10
247.0604923907
 20
282.429990094
 30
0.0
 10
247.1309357976
 20
282.3893111457
 30
0.0
  0
SPLINE
  5
27A
100
AcDbEntity
  8
0
100
AcDbSpline
 62
7
  6
BYLAYER
 70
0
 71
3
 72
19
 73
15
 74
0
 42
0.0000001
 43
0.0000001
 44
0.0000000001
 40
0.0
 40
0.0
 40
0.0
 40
0.0
 40
0.1286271662
 40
0.2701536082
 40
0.4172443848
 40
0.5615288558
 40
0.6301808899
 40
0.6953202344
 40
0.7563155635
 40
0.8127967298
 40
0.8647377794
 40
0.9125500836
 40
0.9571593665
 40
1.0
 40
1.0
 40
1.0
 40
1.0
 10
253.7845337092
 20
271.3081669935
 30
0.0
 10
253.3709019585
 20
271.0693580164
 30
0.0
 10
252.4343669284
 20
270.6829542282
 30
0.0
 10
250.9079210349
 20
270.377499052
 30
0.0
 10
249.2936915381
 20
270.3328831542
 30
0.0
 10
247.9622592101
 20
270.5196728558
 30
0.0
 10
246.9686520906
 20
270.8058955152
 30
0.0
 10
246.2964285041
 20
271.0767247617
 30
0.0
 10
245.6992492538
 20
271.4015313833
 30
0.0
 10
245.1895743112
 20
271.7739669271
 30
0.0
 10
244.7782542757
 20
272.1870122349
 30
0.0
 10
244.4747740449
 20
272.6333747047
 30
0.0
 10
244.2877291436
 20
273.1042348322
 30
0.0
 10
244.2452353527
 20
273.430340012
 30
0.0
 10
244.2452203572
 20
273.5894164175
 30
0.0
  0
SPLINE
  5
27B
100
AcDbEntity
  8
0
100
AcDbSpline
 62
7
  6
BYLAYER
 70
0
 71
3
 72
18
 73
14
 74
0
 42
0.0000001
 43
0.0000001
 44
0.0000000001
 40
0.0
 40
0.0
 40
0.0
 40
0.0
 40
0.0533484605
 40
0.1069463586
 40
0.1611744967
 40
0.2165608195
 40
0.273690346
 40
0.3330128308
 40
0.458764163
 40
0.5929948249
 40
0.7315728711
 40
0.8689613835
 40
1.0
 40
1.0
 40
1.0
 40
1.0
 10
233.0814475222
 20
259.012294111
 30
0.0
 10
233.2281594646
 20
259.0970959216
 30
0.0
 10
233.5421017988
 20
259.2350126041
 30
0.0
 10
234.0472878966
 20
259.3373753955
 30
0.0
 10
234.568847043
 20
259.3379759829
 30
0.0
 10
235.092640951
 20
259.2445381257
 30
0.0
 10
235.6105249952
 20
259.0660935259
 30
0.0
 10
236.2990813004
 20
258.7186698924
 30
0.0
 10
237.1152228608
 20
258.102261417
 30
0.0
 10
237.9688573041
 20
257.1593286828
 30
0.0
 10
238.6752590784
 20
256.0574298265
 30
0.0
 10
239.191619388
 20
254.8663948863
 30
0.0
 10
239.3926141499
 20
254.0315041428
 30
0.0
 10
239.4466697946
 20
253.6187952548
 30
0.0
  0
SPLINE
  5
27C
100
AcDbEntity
  8
0
100
AcDbSpline
 62
7
  6
BYLAYER
 70
0
 71
3
 72
9
 73
5
 74
0
 42
0.0000001
 43
0.0000001
 44
0.0000000001
 40
0.0
 40
0.0
 40
0.0
 40
0.0
 40
0.2506119833
 40
1.0
 40
1.0
 40
1.0
 40
1.0
 10
232.5267159004
 20
258.5675755613
 30
0.0
 10
232.5671375291
 20
258.6113465108
 30
0.0
 10
232.7346536074
 20
258.780141687
 30
0.0
 10
232.9277488327
 20
258.923619346
 30
0.0
 10
233.082039047
 20
259.0126983111
 30
0.0
  0
SPLINE
  5
27D
100
AcDbEntity
  8
0
100
AcDbSpline
 62
7
  6
BYLAYER
 70
0
 71
3
 72
9
 73
5
 74
0
 42
0.0000001
 43
0.0000001
 44
0.0000000001
 40
0.0
 40
0.0
 40
0.0
 40
0.0
 40
0.2510334341
 40
1.0
 40
1.0
 40
1.0
 40
1.0
 10
238.1620163045
 20
250.2138670782
 30
0.0
 10
238.1088261466
 20
250.1831579096
 30
0.0
 10
237.8922004172
 20
250.0691747736
 30
0.0
 10
237.6576026589
 20
249.9897944854
 30
0.0
 10
237.4785121798
 20
249.9509984292
 30
0.0
  0
SPLINE
  5
27E
100
AcDbEntity
  8
0
100
AcDbSpline
 62
7
  6
BYLAYER
 70
0
 71
3
 72
9
 73
5
 74
0
 42
0.0000001
 43
0.0000001
 44
0.0000000001
 40
0.0
 40
0.0
 40
0.0
 40
0.0
 40
0.5164961833
 40
1.0
 40
1.0
 40
1.0
 40
1.0
 10
242.4174021494
 20
252.9479552247
 30
0.0
 10
242.1723842983
 20
252.9639792545
 30
0.0
 10
241.6995647855
 20
253.0304085911
 30
0.0
 10
241.2430304364
 20
253.1733876046
 30
0.0
 10
241.0318666552
 20
253.2641840294
 30
0.0
  0
SPLINE
  5
27F
100
AcDbEntity
  8
0
100
AcDbSpline
 62
7
  6
BYLAYER
 70
0
 71
3
 72
11
 73
7
 74
0
 42
0.0000001
 43
0.0000001
 44
0.0000000001
 40
0.0
 40
0.0
 40
0.0
 40
0.0
 40
0.2598474196
 40
0.5105653049
 40
0.7562397265
 40
1.0
 40
1.0
 40
1.0
 40
1.0
 10
239.4574059921
 20
252.3577881877
 30
0.0
 10
239.4285980265
 20
252.1352360864
 30
0.0
 10
239.3357560845
 20
251.7012659905
 30
0.0
 10
239.0723192985
 20
251.0981004362
 30
0.0
 10
238.6834755953
 20
250.5826916337
 30
0.0
 10
238.3448672446
 20
250.3196200875
 30
0.0
 10
238.1626078293
 20
250.2142712784
 30
0.0
  0
SPLINE
  5
280
100
AcDbEntity
  8
0
100
AcDbSpline
 62
7
  6
BYLAYER
 70
0
 71
3
 72
12
 73
8
 74
0
 42
0.0000001
 43
0.0000001
 44
0.0000000001
 40
0.0
 40
0.0
 40
0.0
 40
0.0
 40
0.1081614319
 40
0.218362319
 40
0.4513674003
 40
0.7104074326
 40
1.0
 40
1.0
 40
1.0
 40
1.0
 10
255.421187156
 20
273.5894163377
 30
0.0
 10
255.4211834014
 20
273.4836298362
 30
0.0
 10
255.4028103
 20
273.2696176232
 30
0.0
 10
255.2916203527
 20
272.8405709456
 30
0.0
 10
255.0062366833
 20
272.3145063683
 30
0.0
 10
254.4747338938
 20
271.7561925935
 30
0.0
 10
254.0298218309
 20
271.4497833113
 30
0.0
 10
253.7845337092
 20
271.3081669935
 30
0.0
  0
SPLINE
  5
281
100
AcDbEntity
  8
0
100
AcDbSpline
 62
7
  6
BYLAYER
 70
0
 71
3
 72
10
 73
6
 74
0
 42
0.0000001
 43
0.0000001
 44
0.0000000001
 40
0.0
 40
0.0
 40
0.0
 40
0.0
 40
0.5098307987
 40
0.7595642302
 40
1.0
 40
1.0
 40
1.0
 40
1.0
 10
239.2141450795
 20
252.5394196617
 30
0.0
 10
239.304221977
 20
252.7068173559
 30
0.0
 10
239.4062412303
 20
252.976094354
 30
0.0
 10
239.4616357407
 20
253.3457175107
 30
0.0
 10
239.4583383762
 20
253.5298766241
 30
0.0
 10
239.4467071632
 20
253.6187671899
 30
0.0
  0
SPLINE
  5
282
100
AcDbEntity
  8
0
100
AcDbSpline
 62
7
  6
BYLAYER
 70
0
 71
3
 72
9
 73
5
 74
0
 42
0.0000001
 43
0.0000001
 44
0.0000000001
 40
0.0
 40
0.0
 40
0.0
 40
0.0
 40
0.474473414
 40
1.0
 40
1.0
 40
1.0
 40
1.0
 10
252.7966588004
 20
274.2633561422
 30
0.0
 10
252.7966588004
 20
274.4813795942
 30
0.0
 10
252.8773821864
 20
274.941056776
 30
0.0
 10
253.062702861
 20
275.3657528986
 30
0.0
 10
253.1823232977
 20
275.5755262162
 30
0.0
  0
SPLINE
  5
283
100
AcDbEntity
  8
0
100
AcDbSpline
 62
7
  6
BYLAYER
 70
0
 71
3
 72
13
 73
9
 74
0
 42
0.0000001
 43
0.0000001
 44
0.0000000001
 40
0.0
 40
0.0
 40
0.0
 40
0.0
 40
0.2964817699
 40
0.4319858557
 40
0.5588524646
 40
0.7888683763
 40
0.8957774498
 40
1.0
 40
1.0
 40
1.0
 40
1.0
 10
253.2087735492
 20
276.1604544487
 30
0.0
 10
253.5327236706
 20
276.0186849032
 30
0.0
 10
253.9902545509
 20
275.7723557095
 30
0.0
 10
254.5172302918
 20
275.3616881565
 30
0.0
 10
254.9327752023
 20
274.9456193
 30
0.0
 10
255.2407568542
 20
274.4720282343
 30
0.0
 10
255.3956032102
 20
273.9662488483
 30
0.0
 10
255.4211915678
 20
273.7137223548
 30
0.0
 10
255.421187156
 20
273.5894163377
 30
0.0
  0
SPLINE
  5
284
100
AcDbEntity
  8
0
100
AcDbSpline
 62
7
  6
BYLAYER
 70
0
 71
3
 72
18
 73
14
 74
0
 42
0.0000001
 43
0.0000001
 44
0.0000000001
 40
0.0
 40
0.0
 40
0.0
 40
0.0
 40
0.0054430869
 40
0.0196334186
 40
0.0423322047
 40
0.0732367787
 40
0.1120499666
 40
0.1585398097
 40
0.2737015863
 40
0.4170279602
 40
0.5868695782
 40
0.7816958852
 40
1.0
 40
1.0
 40
1.0
 40
1.0
 10
239.4574183598
 20
252.3577538493
 30
0.0
 10
239.457485991
 20
252.3583007882
 30
0.0
 10
239.4553504666
 20
252.3596224212
 30
0.0
 10
239.4527833926
 20
252.3625389817
 30
0.0
 10
239.4471641979
 20
252.3668939222
 30
0.0
 10
239.4400396508
 20
252.3727998036
 30
0.0
 10
239.4307678139
 20
252.3801072721
 30
0.0
 10
239.4148003178
 20
252.3926079393
 30
0.0
 10
239.3902671053
 20
252.4113795165
 30
0.0
 10
239.3555846118
 20
252.4374084967
 30
0.0
 10
239.3141630082
 20
252.4679031472
 30
0.0
 10
239.2663296695
 20
252.5024855369
 30
0.0
 10
239.2322211229
 20
252.5266996783
 30
0.0
 10
239.2141450795
 20
252.5394196617
 30
0.0
  0
SPLINE
  5
285
100
AcDbEntity
  8
0
100
AcDbSpline
 62
7
  6
BYLAYER
 70
0
 71
3
 72
16
 73
12
 74
0
 42
0.0000001
 43
0.0000001
 44
0.0000000001
 40
0.0
 40
0.0
 40
0.0
 40
0.0
 40
0.0428765743
 40
0.0875234667
 40
0.186928609
 40
0.3042403422
 40
0.4379658104
 40
0.582370771
 40
0.729593422
 40
0.8712541043
 40
1.0
 40
1.0
 40
1.0
 40
1.0
 10
242.5544931087
 20
256.3454950479
 30
0.0
 10
242.577969157
 20
256.3590614477
 30
0.0
 10
242.6297361448
 20
256.3805662344
 30
0.0
 10
242.7477118843
 20
256.3978687404
 30
0.0
 10
242.9142699026
 20
256.3653453254
 30
0.0
 10
243.1104737203
 20
256.2577286783
 30
0.0
 10
243.2990724348
 20
256.0909140036
 30
0.0
 10
243.4654378882
 20
255.8778766681
 30
0.0
 10
243.596468689
 20
255.6357378184
 30
0.0
 10
243.6814744808
 20
255.3843789741
 30
0.0
 10
243.7042544458
 20
255.2131856726
 30
0.0
 10
243.7042544458
 20
255.1317700388
 30
0.0
  0
SPLINE
  5
286
100
AcDbEntity
  8
0
100
AcDbSpline
 62
7
  6
BYLAYER
 70
0
 71
3
 72
11
 73
7
 74
0
 42
0.0000001
 43
0.0000001
 44
0.0000000001
 40
0.0
 40
0.0
 40
0.0
 40
0.0
 40
0.2277745636
 40
0.4764931022
 40
0.7373709871
 40
1.0
 40
1.0
 40
1.0
 40
1.0
 10
245.881875421
 20
275.870665666
 30
0.0
 10
246.2277870447
 20
276.070376643
 30
0.0
 10
246.999021728
 20
276.4075431763
 30
0.0
 10
248.25905872
 20
276.7187060042
 30
0.0
 10
249.6118601988
 20
276.8455986982
 30
0.0
 10
250.5325275611
 20
276.8015880616
 30
0.0
 10
250.9896751565
 20
276.7457573136
 30
0.0
  0
SPLINE
  5
287
100
AcDbEntity
  8
0
100
AcDbSpline
 62
7
  6
BYLAYER
 70
0
 71
3
 72
12
 73
8
 74
0
 42
0.0000001
 43
0.0000001
 44
0.0000000001
 40
0.0
 40
0.0
 40
0.0
 40
0.0
 40
0.1081597107
 40
0.2183584078
 40
0.4513623118
 40
0.710409786
 40
1.0
 40
1.0
 40
1.0
 40
1.0
 10
244.2452203572
 20
273.5894164175
 30
0.0
 10
244.2452103852
 20
273.6952013209
 30
0.0
 10
244.2636208969
 20
273.909207503
 30
0.0
 10
244.3747599486
 20
274.3382585154
 30
0.0
 10
244.6601672565
 20
274.8643254088
 30
0.0
 10
245.1916723656
 20
275.4226366351
 30
0.0
 10
245.6365890939
 20
275.7290503844
 30
0.0
 10
245.881875421
 20
275.870665666
 30
0.0
  0
SPLINE
  5
288
100
AcDbEntity
  8
0
100
AcDbSpline
 62
7
  6
BYLAYER
 70
0
 71
3
 72
11
 73
7
 74
0
 42
0.0000001
 43
0.0000001
 44
0.0000000001
 40
0.0
 40
0.0
 40
0.0
 40
0.0
 40
0.2896413964
 40
0.5491107671
 40
0.7822355978
 40
1.0
 40
1.0
 40
1.0
 40
1.0
 10
243.7042544458
 20
255.1317700388
 30
0.0
 10
243.7042544458
 20
255.0835190406
 30
0.0
 10
243.6969202762
 20
254.9917342212
 30
0.0
 10
243.6597714669
 20
254.8656248293
 30
0.0
 10
243.5971944358
 20
254.763269124
 30
0.0
 10
243.5383814037
 20
254.7138947556
 30
0.0
 10
243.5069717565
 20
254.695743667
 30
0.0
  0
SPLINE
  5
289
100
AcDbEntity
  8
0
100
AcDbSpline
 62
7
  6
BYLAYER
 70
0
 71
3
 72
11
 73
7
 74
0
 42
0.0000001
 43
0.0000001
 44
0.0000000001
 40
0.0
 40
0.0
 40
0.0
 40
0.0
 40
0.2177793734
 40
0.4509236359
 40
0.7102593173
 40
1.0
 40
1.0
 40
1.0
 40
1.0
 10
253.1912134892
 20
273.3912834341
 30
0.0
 10
253.1283681864
 20
273.4275515007
 30
0.0
 10
253.0108017581
 20
273.5264104715
 30
0.0
 10
252.8856385593
 20
273.7310478098
 30
0.0
 10
252.8112709568
 20
273.9832551932
 30
0.0
 10
252.7966588004
 20
274.1668204325
 30
0.0
 10
252.7966588004
 20
274.2633561422
 30
0.0
  0
SPLINE
  5
28A
100
AcDbEntity
  8
0
100
AcDbSpline
 62
7
  6
BYLAYER
 70
0
 71
3
 72
15
 73
11
 74
0
 42
0.0000001
 43
0.0000001
 44
0.0000000001
 40
0.0
 40
0.0
 40
0.0
 40
0.0
 40
0.1288264876
 40
0.2706004401
 40
0.4179152403
 40
0.5624099808
 40
0.6962094649
 40
0.8135936835
 40
0.9130627728
 40
1.0
 40
1.0
 40
1.0
 40
1.0
 10
34.3753071836
 20
141.0164783779
 30
0.0
 10
34.3753071836
 20
140.7451029947
 30
0.0
 10
34.4512903874
 20
140.174436643
 30
0.0
 10
34.7345802314
 20
139.3365336675
 30
0.0
 10
35.1714215631
 20
138.5294156603
 30
0.0
 10
35.7260208864
 20
137.8193969078
 30
0.0
 10
36.3542757089
 20
137.2631246305
 30
0.0
 10
37.0094355296
 20
136.9052825626
 30
0.0
 10
37.650771675
 20
136.7767752814
 30
0.0
 10
38.0491962993
 20
136.8792470661
 30
0.0
 10
38.2078024235
 20
136.9708029597
 30
0.0
  0
SPLINE
  5
28B
100
AcDbEntity
  8
0
100
AcDbSpline
 62
7
  6
BYLAYER
 70
0
 71
3
 72
11
 73
7
 74
0
 42
0.0000001
 43
0.0000001
 44
0.0000000001
 40
0.0
 40
0.0
 40
0.0
 40
0.0
 40
0.2177239861
 40
0.4508730345
 40
0.7104683317
 40
1.0
 40
1.0
 40
1.0
 40
1.0
 10
35.0329568325
 20
142.4698284863
 30
0.0
 10
34.9282522915
 20
142.4093830267
 30
0.0
 10
34.7321809314
 20
142.2448444237
 30
0.0
 10
34.523530972
 20
141.9036139102
 30
0.0
 10
34.3998594467
 20
141.4831880523
 30
0.0
 10
34.3753071836
 20
141.1772518462
 30
0.0
 10
34.3753071836
 20
141.0164783779
 30
0.0
  0
SPLINE
  5
28C
100
AcDbEntity
  8
0
100
AcDbSpline
 62
7
  6
BYLAYER
 70
0
 71
3
 72
11
 73
7
 74
0
 42
0.0000001
 43
0.0000001
 44
0.0000000001
 40
0.0
 40
0.0
 40
0.0
 40
0.0
 40
0.217724048
 40
0.4508765471
 40
0.7104753324
 40
1.0
 40
1.0
 40
1.0
 40
1.0
 10
38.2078024235
 20
136.9708029597
 30
0.0
 10
38.3125087744
 20
137.0312450364
 30
0.0
 10
38.5085794706
 20
137.195788192
 30
0.0
 10
38.7172335855
 20
137.5370195801
 30
0.0
 10
38.8408988936
 20
137.9574470931
 30
0.0
 10
38.8654539383
 20
138.263380216
 30
0.0
 10
38.8654539383
 20
138.4241495867
 30
0.0
  0
SPLINE
  5
28D
100
AcDbEntity
  8
0
100
AcDbSpline
 62
7
  6
BYLAYER
 70
0
 71
3
 72
15
 73
11
 74
0
 42
0.0000001
 43
0.0000001
 44
0.0000000001
 40
0.0
 40
0.0
 40
0.0
 40
0.0
 40
0.1288248732
 40
0.2705977602
 40
0.4178979
 40
0.5623932695
 40
0.696206034
 40
0.8135977194
 40
0.9130663632
 40
1.0
 40
1.0
 40
1.0
 40
1.0
 10
38.8654539383
 20
138.4241495867
 30
0.0
 10
38.8654539383
 20
138.6955215895
 30
0.0
 10
38.7894744237
 20
139.2661830298
 30
0.0
 10
38.5061911918
 20
140.1040489213
 30
0.0
 10
38.0693898183
 20
140.9111511719
 30
0.0
 10
37.5147958867
 20
141.6211735824
 30
0.0
 10
36.8865139321
 20
142.177482956
 30
0.0
 10
36.2313155958
 20
142.5353497614
 30
0.0
 10
35.5899728183
 20
142.6638483429
 30
0.0
 10
35.1915535145
 20
142.5613856359
 30
0.0
 10
35.0329568325
 20
142.4698284863
 30
0.0
  0
ENDSEC
  0
SECTION
  2
OBJECTS
  0
DICTIONARY
  5
C
100
AcDbDictionary
280
0
281
1
  3
ACAD_GROUP
350
D
  3
ACAD_MLINESTYLE
350
17
  3
ACAD_LAYOUT
350
1A
  3
ACAD_PLOTSETTINGS
350
19
  3
ACAD_PLOTSTYLENAME
350
E
  0
DICTIONARY
  5
D
102
{ACAD_REACTORS
330
C
102
}
100
AcDbDictionary
280
0
281
1
  0
ACDBDICTIONARYWDFLT
  5
E
102
{ACAD_REACTORS
330
C
102
}
100
AcDbDictionary
281
1
  3
Normal
350
F
100
AcDbDictionaryWithDefault
340
F
  0
DICTIONARY
  5
17
102
{ACAD_REACTORS
330
C
102
}
100
AcDbDictionary
280
0
281
1
  3
Standard
350
18
  0
DICTIONARY
  5
19
102
{ACAD_REACTORS
330
C
102
}
100
AcDbDictionary
281
1
  0
DICTIONARY
  5
1A
102
{ACAD_REACTORS
330
C
102
}
100
AcDbDictionary
281
1
  3
Model
350
28E
  3
Layout1
350
28F
  0
ACDBPLACEHOLDER
  5
F
102
{ACAD_REACTORS
330
E
102
}
  0
MLINESTYLE
  5
18
102
{ACAD_REACTORS
330
17
102
}
100
AcDbMlineStyle
  2
STANDARD
 70
0
  3

 62
256
 51
90.0
 52
90.0
 71
2
 49
0.5
 62
256
  6
BYLAYER
 49
-0.5
 62
256
  6
BYLAYER
  0
LAYOUT
  5
28E
102
{ACAD_REACTORS
330
1A
102
}
100
AcDbPlotSettings
  1

  2
none_device
  4

  6

 40
0.0
 41
0.0
 42
0.0
 43
0.0
 44
210.0
 45
297.0
 46
0.0
 47
0.0
 48
0.0
 49
0.0
140
0.0
141
0.0
142
1.0
143
1.0
 70
1024
 72
1
 73
0
 74
0
  7

 75
0
147
1.0
148
0.0
149
0.0
100
AcDbLayout
  1
Model
 70
0
 71
0
 10
0.0
 20
0.0
 11
210.0
 21
297.0
 12
0.0
 22
0.0
 32
0.0
 14
0.0
 24
0.0
 34
0.0
 15
0.0
 25
0.0
 35
0.0
146
0.0
 13
0.0
 23
0.0
 33
0.0
 16
1.0
 26
0.0
 36
0.0
 17
0.0
 27
1.0
 37
0.0
 76
0
330
210
345
0
346
0
  0
LAYOUT
  5
28F
102
{ACAD_REACTORS
330
1A
102
}
100
AcDbPlotSettings
  1

  2
none_device
  4

  6

 40
0.0
 41
0.0
 42
0.0
 43
0.0
 44
210.0
 45
297.0
 46
0.0
 47
0.0
 48
0.0
 49
0.0
140
0.0
141
0.0
142
1.0
143
1.0
 70
0
 72
1
 73
0
 74
0
  7

 75
0
147
1.0
148
0.0
149
0.0
100
AcDbLayout
  1
Layout1
 70
0
 71
1
 10
0.0
 20
0.0
 11
210.0
 21
297.0
 12
0.0
 22
0.0
 32
0.0
 14
0.0
 24
0.0
 34
0.0
 15
0.0
 25
0.0
 35
0.0
146
0.0
 13
0.0
 23
0.0
 33
0.0
 16
1.0
 26
0.0
 36
0.0
 17
0.0
 27
1.0
 37
0.0
 76
0
330
211
345
0
346
0
  0
ENDSEC
  0
EOF
