999
DXF file: D:\david\140xbe10000.dxf
999
Pro/ENGINEER 2004010 by Parametric Technology Corporation
0
SECTION
2
HEADER
9
$ACADVER
1
AC1014
9
$HANDSEED
5
       4CF
9
$EXTMAX
10
420.0000000000
20
297.0000000000
9
$EXTMIN
10
0.0000000000
20
0.0000000000
9
$LIMMIN
10
0.0000000000
20
0.0000000000
9
$LIMMAX
10
420.0000000000
20
297.0000000000
9
$VIEWCTR
10
210.0000000000
20
148.5000000000
9
$VIEWSIZE
40
297.0000000000
9
$CLAYER
8
0
9
$LTSCALE
40
23.1000000000
9
$CELTYPE
6
BYLAYER
9
$DIMSCALE
40
1
9
$DIMASZ
40
3.0000000000
9
$DIMEXO
40
2.6250000000
9
$DIMDLI
40
15.9600000000
9
$DIMEXE
40
7.5600000000
9
$DIMCEN
40
3.7800000000
9
$DIMLFAC
40
1.0000000000
9
$DIMTXT
40
3.5000000000
9
$DIMTOL
70
1
9
$DIMLIM
70
0
9
$DIMTFAC
40
1.0000000000
9
$DIMTP
40
0.0100000000
9
$DIMTM
40
0.0100000000
9
$MEASUREMENT
70
1
0
ENDSEC
0
SECTION
2
CLASSES
0
ENDSEC
0
SECTION
2
TABLES
0
TABLE
2
VPORT
5
8
100
AcDbSymbolTable
70
2
0
VPORT
5
1F4
100
AcDbSymbolTableRecord
100
AcDbViewportTableRecord
2
*ACTIVE
70
0
10
0.0
20
0.0
11
1.0
21
1.0
12
210.0000000000
22
148.5000000000
13
0.0
23
0.0
14
1.0
24
1.0
15
0.0
25
0.0
16
0.0
26
0.0
36
1.0
17
0.0
27
0.0
37
0.0
40
297.0000000000
41
1.4141414141
42
50.0
43
0.0
44
0.0
50
0.0
51
0.0
71
0
72
100
73
1
74
1
75
0
76
0
77
0
78
0
0
ENDTAB
0
TABLE
2
LTYPE
5
5
100
AcDbSymbolTable
70
6
0
LTYPE
5
14
100
AcDbSymbolTableRecord
100
AcDbLinetypeTableRecord
2
BYBLOCK
70
0
3

72
65
73
0
40
0.0
0
LTYPE
5
15
100
AcDbSymbolTableRecord
100
AcDbLinetypeTableRecord
2
BYLAYER
70
0
3

72
65
73
0
40
0.0
0
LTYPE
5
16
100
AcDbSymbolTableRecord
100
AcDbLinetypeTableRecord
2
CONTINUOUS
70
64
3
Solid line
72
65
73
0
40
0
0
LTYPE
5
1F5
100
AcDbSymbolTableRecord
100
AcDbLinetypeTableRecord
2
CENTER
70
64
3
____ _ ____ _ ____ _ ____ _ ____ _ ____ _ ____
72
65
73
4
40
0.6
49
0.375
74
0
49
-0.075
74
0
49
0.075
74
0
49
-0.075
74
0
0
LTYPE
5
1F6
100
AcDbSymbolTableRecord
100
AcDbLinetypeTableRecord
2
HIDDEN
70
64
3
- - - - - - - - - - - - - - - - - - - -
72
65
73
2
40
0.2
49
0.1
74
0
49
-0.1
74
0
0
LTYPE
5
1F7
100
AcDbSymbolTableRecord
100
AcDbLinetypeTableRecord
2
PHANTOM
70
64
3
_____ _ _ _____ _ _ _____ _ _ _____
72
65
73
6
40
0.8
49
0.45
74
0
49
-0.05
74
0
49
0.1
74
0
49
-0.05
74
0
49
0.1
74
0
49
-0.05
74
0
0
LTYPE
5
1F8
100
AcDbSymbolTableRecord
100
AcDbLinetypeTableRecord
2
DOT
70
64
3
. . . . . . . . . . . . . . . . . . . .
72
65
73
2
40
0.2
49
0.1
74
0
49
-0.1
74
0
0
LTYPE
5
1F9
100
AcDbSymbolTableRecord
100
AcDbLinetypeTableRecord
2
DASHED
70
64
3
- - - - - - - - - - - - - - - - - - - -
72
65
73
2
40
0.2
49
0.1
74
0
49
-0.1
74
0
0
ENDTAB
0
TABLE
2
LAYER
5
2
100
AcDbSymbolTable
70
36
0
LAYER
5
10
100
AcDbSymbolTableRecord
100
AcDbLayerTableRecord
2
0
70
0
62
7
6
CONTINUOUS
0
LAYER
5
1FA
100
AcDbSymbolTableRecord
100
AcDbLayerTableRecord
2
DEFAULT_1
70
0
62
7
6
CENTER
0
LAYER
5
1FB
100
AcDbSymbolTableRecord
100
AcDbLayerTableRecord
2
DEFAULT_2
70
0
62
8
6
HIDDEN
0
LAYER
5
1FC
100
AcDbSymbolTableRecord
100
AcDbLayerTableRecord
2
DEFAULT_3
70
0
62
7
6
PHANTOM
0
LAYER
5
1FD
100
AcDbSymbolTableRecord
100
AcDbLayerTableRecord
2
_BLACK_HOLE
70
0
62
7
6
CONTINUOUS
0
LAYER
5
1FE
100
AcDbSymbolTableRecord
100
AcDbLayerTableRecord
2
1
70
0
62
7
6
CONTINUOUS
0
LAYER
5
1FF
100
AcDbSymbolTableRecord
100
AcDbLayerTableRecord
2
10
70
0
62
7
6
CONTINUOUS
0
LAYER
5
200
100
AcDbSymbolTableRecord
100
AcDbLayerTableRecord
2
11
70
0
62
7
6
CONTINUOUS
0
LAYER
5
201
100
AcDbSymbolTableRecord
100
AcDbLayerTableRecord
2
12
70
0
62
7
6
CONTINUOUS
0
LAYER
5
202
100
AcDbSymbolTableRecord
100
AcDbLayerTableRecord
2
13
70
0
62
7
6
CONTINUOUS
0
LAYER
5
203
100
AcDbSymbolTableRecord
100
AcDbLayerTableRecord
2
14
70
0
62
7
6
CONTINUOUS
0
LAYER
5
204
100
AcDbSymbolTableRecord
100
AcDbLayerTableRecord
2
15
70
0
62
7
6
CONTINUOUS
0
LAYER
5
205
100
AcDbSymbolTableRecord
100
AcDbLayerTableRecord
2
16
70
0
62
7
6
CONTINUOUS
0
LAYER
5
206
100
AcDbSymbolTableRecord
100
AcDbLayerTableRecord
2
17
70
0
62
7
6
CONTINUOUS
0
LAYER
5
207
100
AcDbSymbolTableRecord
100
AcDbLayerTableRecord
2
18
70
0
62
7
6
CONTINUOUS
0
LAYER
5
208
100
AcDbSymbolTableRecord
100
AcDbLayerTableRecord
2
19
70
0
62
7
6
CONTINUOUS
0
LAYER
5
209
100
AcDbSymbolTableRecord
100
AcDbLayerTableRecord
2
2
70
0
62
7
6
CONTINUOUS
0
LAYER
5
20A
100
AcDbSymbolTableRecord
100
AcDbLayerTableRecord
2
20
70
0
62
7
6
CONTINUOUS
0
LAYER
5
20B
100
AcDbSymbolTableRecord
100
AcDbLayerTableRecord
2
21
70
0
62
7
6
CONTINUOUS
0
LAYER
5
20C
100
AcDbSymbolTableRecord
100
AcDbLayerTableRecord
2
22
70
0
62
7
6
CONTINUOUS
0
LAYER
5
20D
100
AcDbSymbolTableRecord
100
AcDbLayerTableRecord
2
23
70
0
62
7
6
CONTINUOUS
0
LAYER
5
20E
100
AcDbSymbolTableRecord
100
AcDbLayerTableRecord
2
24
70
0
62
7
6
CONTINUOUS
0
LAYER
5
20F
100
AcDbSymbolTableRecord
100
AcDbLayerTableRecord
2
25
70
0
62
7
6
CONTINUOUS
0
LAYER
5
210
100
AcDbSymbolTableRecord
100
AcDbLayerTableRecord
2
26
70
0
62
7
6
CONTINUOUS
0
LAYER
5
211
100
AcDbSymbolTableRecord
100
AcDbLayerTableRecord
2
27
70
0
62
7
6
CONTINUOUS
0
LAYER
5
212
100
AcDbSymbolTableRecord
100
AcDbLayerTableRecord
2
28
70
0
62
7
6
CONTINUOUS
0
LAYER
5
213
100
AcDbSymbolTableRecord
100
AcDbLayerTableRecord
2
29
70
0
62
7
6
CONTINUOUS
0
LAYER
5
214
100
AcDbSymbolTableRecord
100
AcDbLayerTableRecord
2
3
70
0
62
7
6
CONTINUOUS
0
LAYER
5
215
100
AcDbSymbolTableRecord
100
AcDbLayerTableRecord
2
30
70
0
62
7
6
CONTINUOUS
0
LAYER
5
216
100
AcDbSymbolTableRecord
100
AcDbLayerTableRecord
2
31
70
0
62
7
6
CONTINUOUS
0
LAYER
5
217
100
AcDbSymbolTableRecord
100
AcDbLayerTableRecord
2
32
70
0
62
7
6
CONTINUOUS
0
LAYER
5
218
100
AcDbSymbolTableRecord
100
AcDbLayerTableRecord
2
4
70
0
62
7
6
CONTINUOUS
0
LAYER
5
219
100
AcDbSymbolTableRecord
100
AcDbLayerTableRecord
2
5
70
0
62
7
6
CONTINUOUS
0
LAYER
5
21A
100
AcDbSymbolTableRecord
100
AcDbLayerTableRecord
2
6
70
0
62
7
6
CONTINUOUS
0
LAYER
5
21B
100
AcDbSymbolTableRecord
100
AcDbLayerTableRecord
2
7
70
0
62
7
6
CONTINUOUS
0
LAYER
5
21C
100
AcDbSymbolTableRecord
100
AcDbLayerTableRecord
2
8
70
0
62
7
6
CONTINUOUS
0
LAYER
5
21D
100
AcDbSymbolTableRecord
100
AcDbLayerTableRecord
2
9
70
0
62
7
6
CONTINUOUS
0
LAYER
5
21E
100
AcDbSymbolTableRecord
100
AcDbLayerTableRecord
2
AXES
70
0
62
7
6
CONTINUOUS
0
LAYER
5
21F
100
AcDbSymbolTableRecord
100
AcDbLayerTableRecord
2
CONN
70
0
62
7
6
CONTINUOUS
0
LAYER
5
220
100
AcDbSymbolTableRecord
100
AcDbLayerTableRecord
2
COSMETICS
70
0
62
7
6
CONTINUOUS
0
LAYER
5
221
100
AcDbSymbolTableRecord
100
AcDbLayerTableRecord
2
COTATION
70
0
62
7
6
CONTINUOUS
0
LAYER
5
222
100
AcDbSymbolTableRecord
100
AcDbLayerTableRecord
2
CURVE
70
0
62
7
6
CONTINUOUS
0
LAYER
5
223
100
AcDbSymbolTableRecord
100
AcDbLayerTableRecord
2
DATUMS
70
0
62
7
6
CONTINUOUS
0
LAYER
5
224
100
AcDbSymbolTableRecord
100
AcDbLayerTableRecord
2
DATUM_PLANE
70
0
62
7
6
CONTINUOUS
0
LAYER
5
225
100
AcDbSymbolTableRecord
100
AcDbLayerTableRecord
2
FEATURES
70
0
62
7
6
CONTINUOUS
0
LAYER
5
226
100
AcDbSymbolTableRecord
100
AcDbLayerTableRecord
2
XSEC_DATUMS
70
0
62
7
6
CONTINUOUS
0
ENDTAB
0
TABLE
2
STYLE
5
3
100
AcDbSymbolTable
70
1
0
STYLE
5
11
100
AcDbSymbolTableRecord
100
AcDbTextStyleTableRecord
2
STANDARD
70
0
40
0.0
41
0.7000000000
50
0.0
71
0
42
0.2
3
txt
4

0
ENDTAB
0
TABLE
2
VIEW
5
6
100
AcDbSymbolTable
70
0
0
ENDTAB
0
TABLE
2
UCS
5
7
100
AcDbSymbolTable
70
0
0
ENDTAB
0
TABLE
2
APPID
5
9
100
AcDbSymbolTable
70
1
0
APPID
5
227
100
AcDbSymbolTableRecord
100
AcDbRegAppTableRecord
2
ACAD
70
0
0
ENDTAB
0
TABLE
2
DIMSTYLE
5
A
100
AcDbSymbolTable
70
1
0
DIMSTYLE
105
228
100
AcDbSymbolTableRecord
100
AcDbDimStyleTableRecord
2
STANDARD
70
0
3

4

5

6

7

40
1.0
41
3.0000000000
42
0.0625
43
0.38
44
0.18
45
0.0
46
0.0
47
0.0100000000
48
0.0100000000
140
3.5000000000
141
0.09
142
0.0
143
25.4
144
1.0000000000
145
0.0
146
1.0000000000
147
0.09
71
1
72
0
73
0
74
0
75
0
76
0
77
1
78
8
170
0
171
2
172
0
173
0
174
0
175
0
176
0
177
0
178
0
270
2
271
2
272
2
273
2
274
2
340
11
275
0
280
0
281
0
282
0
283
1
284
8
285
0
286
0
287
3
288
0
0
ENDTAB
0
TABLE
2
BLOCK_RECORD
5
1
100
AcDbSymbolTable
70
0
0
BLOCK_RECORD
5
1B
100
AcDbSymbolTableRecord
100
AcDbBlockTableRecord
2
*MODEL_SPACE
0
BLOCK_RECORD
5
1C
100
AcDbSymbolTableRecord
100
AcDbBlockTableRecord
2
*PAPER_SPACE
0
ENDTAB
0
ENDSEC
0
SECTION
2
BLOCKS
0
BLOCK
5
1E
100
AcDbEntity
8
0
100
AcDbBlockBegin
2
*MODEL_SPACE
70
0
10
0.0
20
0.0
30
0.0
3
*MODEL_SPACE
1

0
ENDBLK
5
1F
100
AcDbEntity
8
0
100
AcDbBlockEnd
0
BLOCK
5
20
100
AcDbEntity
8
0
100
AcDbBlockBegin
2
*PAPER_SPACE
70
0
10
0.0
20
0.0
30
0.0
3
*PAPER_SPACE
1

0
ENDBLK
5
21
100
AcDbEntity
8
0
100
AcDbBlockEnd
0
ENDSEC
0
SECTION
2
ENTITIES
0
TEXT
5
229
100
AcDbEntity
8
0
100
AcDbText
62
2
6
CONTINUOUS
10
298.0566458227
20
148.6293506936
7
STANDARD
40
10.0000000000
1
140XBE10000
41
0.7000000094
72
0
100
AcDbText
0
LINE
5
22A
100
AcDbEntity
8
0
100
AcDbLine
62
7
6
CONTINUOUS
10
0.0000000000
20
0.0000000000
11
0.0000000000
21
297.0000000000
0
LINE
5
22B
100
AcDbEntity
8
0
100
AcDbLine
62
7
6
CONTINUOUS
10
0.0000000000
20
0.0000000000
11
420.0000000000
21
0.0000000000
0
LINE
5
22C
100
AcDbEntity
8
0
100
AcDbLine
62
7
6
CONTINUOUS
10
0.0000000000
20
297.0000000000
11
420.0000000000
21
297.0000000000
0
LINE
5
22D
100
AcDbEntity
8
0
100
AcDbLine
62
7
6
CONTINUOUS
10
420.0000000000
20
0.0000000000
11
420.0000000000
21
297.0000000000
0
LINE
5
22E
100
AcDbEntity
8
0
100
AcDbLine
62
7
6
CONTINUOUS
10
91.9935255296
20
32.2086385577
11
91.5935255296
21
32.2016565318
0
LINE
5
22F
100
AcDbEntity
8
0
100
AcDbLine
62
7
6
CONTINUOUS
10
83.8399835570
20
24.5758405577
11
82.9977960570
21
24.5758405577
0
LINE
5
230
100
AcDbEntity
8
0
100
AcDbLine
62
7
6
CONTINUOUS
10
82.6769630296
20
24.5758405577
11
81.1530045433
21
24.5758405577
0
LINE
5
231
100
AcDbEntity
8
0
100
AcDbLine
62
7
6
CONTINUOUS
10
80.8321715159
20
24.5758405577
11
79.3884215159
21
24.5758405577
0
LINE
5
232
100
AcDbEntity
8
0
100
AcDbLine
62
7
6
CONTINUOUS
10
79.0675880296
20
24.5758405577
11
78.5061295433
21
24.5758405577
0
LINE
5
233
100
AcDbEntity
8
0
100
AcDbLine
62
7
6
CONTINUOUS
10
78.1852965159
20
24.5758405577
11
76.6212337864
21
24.5758405577
0
LINE
5
234
100
AcDbEntity
8
0
100
AcDbLine
62
7
6
CONTINUOUS
10
76.3004005296
20
24.5758405577
11
74.8165464012
21
24.5758405577
0
LINE
5
235
100
AcDbEntity
8
0
100
AcDbLine
62
7
6
CONTINUOUS
10
74.4957130296
20
24.5758405577
11
73.6535255296
21
24.5758405577
0
LINE
5
236
100
AcDbEntity
8
0
100
AcDbLine
62
7
6
CONTINUOUS
10
63.8817112509
20
24.5758405577
11
59.3372645187
21
24.5758405577
0
LINE
5
237
100
AcDbEntity
8
0
100
AcDbLine
62
7
6
CONTINUOUS
10
51.6535255296
20
24.7758405577
11
91.9935255296
21
24.7758405577
0
LINE
5
238
100
AcDbEntity
8
0
100
AcDbLine
62
7
6
CONTINUOUS
10
51.6535255296
20
25.7758405577
11
55.0102473479
21
25.7758405577
0
LINE
5
239
100
AcDbEntity
8
0
100
AcDbLine
62
9
6
CONTINUOUS
10
51.6535255296
20
28.7758405577
11
55.0102473479
21
28.7758405577
0
LINE
5
23A
100
AcDbEntity
8
0
100
AcDbLine
62
9
6
CONTINUOUS
10
76.6986356692
20
29.6213396375
11
77.6984833644
21
29.6213396375
0
LINE
5
23B
100
AcDbEntity
8
0
100
AcDbLine
62
7
6
CONTINUOUS
10
71.3735255296
20
30.1558405577
11
72.2735255296
21
30.1558405577
0
LINE
5
23C
100
AcDbEntity
8
0
100
AcDbLine
62
7
6
CONTINUOUS
10
76.0440112836
20
30.8058405577
11
72.2860255296
21
30.8058405577
0
LINE
5
23D
100
AcDbEntity
8
0
100
AcDbLine
62
7
6
CONTINUOUS
10
67.6030397756
20
30.8058405577
11
71.3610255296
21
30.8058405577
0
LINE
5
23E
100
AcDbEntity
8
0
100
AcDbLine
62
7
6
CONTINUOUS
10
70.3360255296
20
30.8433405577
11
71.3610255296
21
30.8433405577
0
LINE
5
23F
100
AcDbEntity
8
0
100
AcDbLine
62
7
6
CONTINUOUS
10
72.2860255296
20
30.8433405577
11
73.3110255296
21
30.8433405577
0
LINE
5
240
100
AcDbEntity
8
0
100
AcDbLine
62
7
6
CONTINUOUS
10
70.6735255296
20
30.8558405577
11
71.3735255296
21
30.8558405577
0
LINE
5
241
100
AcDbEntity
8
0
100
AcDbLine
62
7
6
CONTINUOUS
10
72.2860255296
20
30.8558405577
11
72.9735255296
21
30.8558405577
0
LINE
5
242
100
AcDbEntity
8
0
100
AcDbLine
62
7
6
CONTINUOUS
10
72.9735255296
20
31.7558405577
11
72.2735255296
21
31.7558405577
0
LINE
5
243
100
AcDbEntity
8
0
100
AcDbLine
62
7
6
CONTINUOUS
10
71.3610255296
20
31.7558405577
11
70.6735255296
21
31.7558405577
0
LINE
5
244
100
AcDbEntity
8
0
100
AcDbLine
62
7
6
CONTINUOUS
10
73.3110255296
20
31.7683405577
11
72.2860255296
21
31.7683405577
0
LINE
5
245
100
AcDbEntity
8
0
100
AcDbLine
62
7
6
CONTINUOUS
10
71.3610255296
20
31.7683405577
11
70.3360255296
21
31.7683405577
0
LINE
5
246
100
AcDbEntity
8
0
100
AcDbLine
62
7
6
CONTINUOUS
10
51.6535255296
20
31.7758405577
11
54.9578821531
21
31.7758405577
0
LINE
5
247
100
AcDbEntity
8
0
100
AcDbLine
62
7
6
CONTINUOUS
10
67.6030397756
20
31.8058405577
11
71.3610255296
21
31.8058405577
0
LINE
5
248
100
AcDbEntity
8
0
100
AcDbLine
62
7
6
CONTINUOUS
10
72.2860255296
20
31.8058405577
11
76.0440112836
21
31.8058405577
0
LINE
5
249
100
AcDbEntity
8
0
100
AcDbLine
62
7
6
CONTINUOUS
10
88.3935255296
20
32.2016565318
11
91.5935255296
21
32.2016565318
0
LINE
5
24A
100
AcDbEntity
8
0
100
AcDbLine
62
7
6
CONTINUOUS
10
81.0631419397
20
32.2557672330
11
86.9935255296
21
32.2557672330
0
LINE
5
24B
100
AcDbEntity
8
0
100
AcDbLine
62
7
6
CONTINUOUS
10
91.9935255296
20
32.2758405577
11
90.5644456593
21
32.2758405577
0
LINE
5
24C
100
AcDbEntity
8
0
100
AcDbLine
62
7
6
CONTINUOUS
10
72.2735255296
20
32.4558405577
11
71.3735255296
21
32.4558405577
0
LINE
5
24D
100
AcDbEntity
8
0
100
AcDbLine
62
7
6
CONTINUOUS
10
88.3935255296
20
32.2016565318
11
87.9935255296
21
32.2086385577
0
LINE
5
24E
100
AcDbEntity
8
0
100
AcDbLine
62
7
6
CONTINUOUS
10
54.9235557300
20
36.8424000201
11
54.6735255296
21
36.8292964926
0
LINE
5
24F
100
AcDbEntity
8
0
100
AcDbLine
62
9
6
CONTINUOUS
10
90.2194034941
20
32.6208827229
11
80.6980264499
21
32.6208827229
0
LINE
5
250
100
AcDbEntity
8
0
100
AcDbLine
62
7
6
CONTINUOUS
10
51.6535255296
20
32.7758405577
11
53.8226053999
21
32.7758405577
0
LINE
5
251
100
AcDbEntity
8
0
100
AcDbLine
62
9
6
CONTINUOUS
10
90.2022530621
20
33.6207304181
11
80.6980264499
21
33.6207304181
0
LINE
5
252
100
AcDbEntity
8
0
100
AcDbLine
62
7
6
CONTINUOUS
10
55.1676475651
20
37.7803946172
11
90.2022530621
21
37.7803946172
0
LINE
5
253
100
AcDbEntity
8
0
100
AcDbLine
62
7
6
CONTINUOUS
10
87.9935255296
20
32.2383121681
11
86.9935255296
21
32.2557672330
0
LINE
5
254
100
AcDbEntity
8
0
100
AcDbLine
62
7
6
CONTINUOUS
10
54.6735255296
20
48.7223846228
11
54.9235557300
21
48.7092810953
0
LINE
5
255
100
AcDbEntity
8
0
100
AcDbLine
62
7
6
CONTINUOUS
10
51.6535255296
20
55.7758405577
11
53.8226053999
21
55.7758405577
0
LINE
5
256
100
AcDbEntity
8
0
100
AcDbLine
62
7
6
CONTINUOUS
10
54.8402127928
20
31.7758405577
11
53.8226053999
21
32.7758405577
0
LINE
5
257
100
AcDbEntity
8
0
100
AcDbLine
62
9
6
CONTINUOUS
10
51.6535255296
20
61.1163305477
11
54.9840647505
21
61.1163305477
0
LINE
5
258
100
AcDbEntity
8
0
100
AcDbLine
62
7
6
CONTINUOUS
10
51.6535255296
20
62.8658405577
11
51.4985255296
21
62.8658405577
0
LINE
5
259
100
AcDbEntity
8
0
100
AcDbLine
62
7
6
CONTINUOUS
10
91.9935255296
20
62.8658405577
11
92.1485255296
21
62.8658405577
0
LINE
5
25A
100
AcDbEntity
8
0
100
AcDbLine
62
9
6
CONTINUOUS
10
51.6535255296
20
63.7144067591
11
55.0102473479
21
63.7144067591
0
LINE
5
25B
100
AcDbEntity
8
0
100
AcDbLine
62
7
6
CONTINUOUS
10
70.0461420101
20
33.0832240773
11
71.3235255296
21
31.8058405577
0
LINE
5
25C
100
AcDbEntity
8
0
100
AcDbLine
62
7
6
CONTINUOUS
10
72.3235255296
20
30.8058405577
11
73.6009090491
21
29.5284570382
0
LINE
5
25D
100
AcDbEntity
8
0
100
AcDbLine
62
9
6
CONTINUOUS
10
77.6984833644
20
29.6213396375
11
78.0635988543
21
29.2562241476
0
LINE
5
25E
100
AcDbEntity
8
0
100
AcDbLine
62
9
6
CONTINUOUS
10
80.6980264499
20
32.6208827229
11
81.0631419397
21
32.2557672330
0
LINE
5
25F
100
AcDbEntity
8
0
100
AcDbLine
62
7
6
CONTINUOUS
10
91.9935255296
20
274.7758405577
11
91.9671762019
21
274.7494912300
0
LINE
5
260
100
AcDbEntity
8
0
100
AcDbLine
62
7
6
CONTINUOUS
10
51.6535255296
20
80.3658405577
11
51.4985255296
21
80.3658405577
0
LINE
5
261
100
AcDbEntity
8
0
100
AcDbLine
62
7
6
CONTINUOUS
10
91.9935255296
20
80.3658405577
11
92.1485255296
21
80.3658405577
0
LINE
5
262
100
AcDbEntity
8
0
100
AcDbLine
62
7
6
CONTINUOUS
10
90.2194034941
20
32.6208827229
11
90.5644456593
21
32.2758405577
0
LINE
5
263
100
AcDbEntity
8
0
100
AcDbLine
62
7
6
CONTINUOUS
10
51.6884544247
20
216.1807694528
11
51.6535255296
21
216.1458405577
0
LINE
5
264
100
AcDbEntity
8
0
100
AcDbLine
62
7
6
CONTINUOUS
10
76.1410919009
20
99.6551288651
11
79.4500755730
21
100.2385919652
0
LINE
5
265
100
AcDbEntity
8
0
100
AcDbLine
62
9
6
CONTINUOUS
10
76.0969852637
20
99.9052700343
11
79.4059689359
21
100.4887331344
0
LINE
5
266
100
AcDbEntity
8
0
100
AcDbLine
62
7
6
CONTINUOUS
10
76.3526380523
20
92.3758405577
11
77.8744130069
21
92.3758405577
0
LINE
5
267
100
AcDbEntity
8
0
100
AcDbLine
62
7
6
CONTINUOUS
10
75.6663498566
20
92.7858405577
11
78.5531012026
21
92.7858405577
0
LINE
5
268
100
AcDbEntity
8
0
100
AcDbLine
62
7
6
CONTINUOUS
10
73.1135255296
20
97.0258405577
11
74.1135255296
21
97.0258405577
0
LINE
5
269
100
AcDbEntity
8
0
100
AcDbLine
62
7
6
CONTINUOUS
10
80.1135255296
20
97.0258405577
11
81.1135255296
21
97.0258405577
0
LINE
5
26A
100
AcDbEntity
8
0
100
AcDbLine
62
7
6
CONTINUOUS
10
78.5531012026
20
97.7858405577
11
75.6663498566
21
97.7858405577
0
LINE
5
26B
100
AcDbEntity
8
0
100
AcDbLine
62
9
6
CONTINUOUS
10
51.6535255296
20
99.8372743563
11
55.0102473479
21
99.8372743563
0
LINE
5
26C
100
AcDbEntity
8
0
100
AcDbLine
62
7
6
CONTINUOUS
10
90.1935255296
20
207.5803946172
11
90.5644456593
21
207.7658405577
0
LINE
5
26D
100
AcDbEntity
8
0
100
AcDbLine
62
9
6
CONTINUOUS
10
81.0594255296
20
102.1565405577
11
80.8054255296
21
102.1565405577
0
LINE
5
26E
100
AcDbEntity
8
0
100
AcDbLine
62
9
6
CONTINUOUS
10
73.4140255296
20
102.1565405577
11
73.1600255296
21
102.1565405577
0
LINE
5
26F
100
AcDbEntity
8
0
100
AcDbLine
62
9
6
CONTINUOUS
10
51.6535255296
20
102.4353505677
11
54.9840647505
21
102.4353505677
0
LINE
5
270
100
AcDbEntity
8
0
100
AcDbLine
62
7
6
CONTINUOUS
10
51.6535255296
20
107.7758405577
11
53.8226053999
21
107.7758405577
0
LINE
5
271
100
AcDbEntity
8
0
100
AcDbLine
62
7
6
CONTINUOUS
10
54.8400578063
20
107.1985782218
11
53.8226053999
21
107.7758405577
0
LINE
5
272
100
AcDbEntity
8
0
100
AcDbLine
62
9
6
CONTINUOUS
10
78.0635988543
20
210.7954569678
11
78.0435255296
21
210.7753836432
0
LINE
5
273
100
AcDbEntity
8
0
100
AcDbLine
62
9
6
CONTINUOUS
10
81.0631419397
20
207.7959138824
11
81.0430686151
21
207.7758405577
0
LINE
5
274
100
AcDbEntity
8
0
100
AcDbLine
62
7
6
CONTINUOUS
10
90.9601811660
20
207.8500245837
11
90.9235255296
21
207.8133689473
0
LINE
5
275
100
AcDbEntity
8
0
100
AcDbLine
62
7
6
CONTINUOUS
10
79.0965010608
20
123.2758405577
11
77.9677061986
21
123.2758405577
0
LINE
5
276
100
AcDbEntity
8
0
100
AcDbLine
62
7
6
CONTINUOUS
10
75.1910853105
20
124.7758405577
11
76.1835136083
21
124.7758405577
0
LINE
5
277
100
AcDbEntity
8
0
100
AcDbLine
62
7
6
CONTINUOUS
10
74.2229741837
20
95.2858405577
11
75.6663498566
21
92.7858405577
0
LINE
5
278
100
AcDbEntity
8
0
100
AcDbLine
62
7
6
CONTINUOUS
10
54.8400578063
20
107.1985782218
11
54.9840647505
21
102.4353505677
0
LINE
5
279
100
AcDbEntity
8
0
100
AcDbLine
62
7
6
CONTINUOUS
10
54.8400578063
20
185.1985782218
11
54.9840647505
21
180.4353505677
0
LINE
5
27A
100
AcDbEntity
8
0
100
AcDbLine
62
7
6
CONTINUOUS
10
55.0277024128
20
24.7758405577
11
55.0102473479
21
25.7758405577
0
LINE
5
27B
100
AcDbEntity
8
0
100
AcDbLine
62
7
6
CONTINUOUS
10
51.4985255296
20
62.8658405577
11
51.4985255296
21
80.3658405577
0
LINE
5
27C
100
AcDbEntity
8
0
100
AcDbLine
62
7
6
CONTINUOUS
10
51.4985255296
20
220.6158405577
11
51.4985255296
21
238.1158405577
0
LINE
5
27D
100
AcDbEntity
8
0
100
AcDbLine
62
7
6
CONTINUOUS
10
51.6535255296
20
24.7758405577
11
51.6535255296
21
215.0258405577
0
LINE
5
27E
100
AcDbEntity
8
0
100
AcDbLine
62
7
6
CONTINUOUS
10
51.6535255296
20
215.0363135967
11
51.6535255296
21
274.7758405577
0
LINE
5
27F
100
AcDbEntity
8
0
100
AcDbLine
62
7
6
CONTINUOUS
10
51.6884544247
20
274.7409116626
11
51.6884544247
21
216.1807694528
0
LINE
5
280
100
AcDbEntity
8
0
100
AcDbLine
62
7
6
CONTINUOUS
10
53.8226053999
20
207.7658405577
11
53.8226053999
21
185.7758405577
0
LINE
5
281
100
AcDbEntity
8
0
100
AcDbLine
62
7
6
CONTINUOUS
10
53.8226053999
20
55.7758405577
11
53.8226053999
21
32.7758405577
0
LINE
5
282
100
AcDbEntity
8
0
100
AcDbLine
62
7
6
CONTINUOUS
10
53.8226053999
20
107.7758405577
11
53.8226053999
21
133.7758405577
0
LINE
5
283
100
AcDbEntity
8
0
100
AcDbLine
62
7
6
CONTINUOUS
10
54.6735255296
20
203.0723846228
11
54.6735255296
21
191.1792964926
0
LINE
5
284
100
AcDbEntity
8
0
100
AcDbLine
62
7
6
CONTINUOUS
10
54.6735255296
20
48.7223846228
11
54.6735255296
21
36.8292964926
0
LINE
5
285
100
AcDbEntity
8
0
100
AcDbLine
62
7
6
CONTINUOUS
10
54.8400578063
20
207.7571150191
11
54.8400578063
21
203.0636570360
0
LINE
5
286
100
AcDbEntity
8
0
100
AcDbLine
62
7
6
CONTINUOUS
10
54.8400578063
20
191.1880240794
11
54.8400578063
21
185.1985782218
0
LINE
5
287
100
AcDbEntity
8
0
100
AcDbLine
62
7
6
CONTINUOUS
10
54.8400578063
20
56.3531028937
11
54.8400578063
21
48.7136570360
0
LINE
5
288
100
AcDbEntity
8
0
100
AcDbLine
62
7
6
CONTINUOUS
10
54.8400578063
20
36.8380240794
11
54.8400578063
21
31.7759928625
0
LINE
5
289
100
AcDbEntity
8
0
100
AcDbLine
62
7
6
CONTINUOUS
10
54.8400578063
20
107.1985782218
11
54.8400578063
21
134.3531028937
0
LINE
5
28A
100
AcDbEntity
8
0
100
AcDbLine
62
7
6
CONTINUOUS
10
54.9235557300
20
203.0592810953
11
54.9235557300
21
191.1924000201
0
LINE
5
28B
100
AcDbEntity
8
0
100
AcDbLine
62
7
6
CONTINUOUS
10
54.9235557300
20
48.7092810953
11
54.9235557300
21
36.8424000201
0
LINE
5
28C
100
AcDbEntity
8
0
100
AcDbLine
62
7
6
CONTINUOUS
10
55.0102473479
20
177.8372743563
11
55.0102473479
21
141.7144067591
0
LINE
5
28D
100
AcDbEntity
8
0
100
AcDbLine
62
7
6
CONTINUOUS
10
55.0102473479
20
99.8372743563
11
55.0102473479
21
63.7144067591
0
LINE
5
28E
100
AcDbEntity
8
0
100
AcDbLine
62
7
6
CONTINUOUS
10
55.0102473479
20
28.7758405577
11
55.0102473479
21
25.7758405577
0
LINE
5
28F
100
AcDbEntity
8
0
100
AcDbLine
62
9
6
CONTINUOUS
10
55.1676475651
20
24.7758405577
11
55.1676475651
21
37.7803946172
0
LINE
5
290
100
AcDbEntity
8
0
100
AcDbLine
62
7
6
CONTINUOUS
10
55.1935255296
20
37.7803946172
11
55.1935255296
21
207.5803946172
0
LINE
5
291
100
AcDbEntity
8
0
100
AcDbLine
62
7
6
CONTINUOUS
10
54.9840647505
20
139.1163305477
11
54.8400578063
21
134.3531028937
0
LINE
5
292
100
AcDbEntity
8
0
100
AcDbLine
62
7
6
CONTINUOUS
10
51.6535255296
20
133.7758405577
11
53.8226053999
21
133.7758405577
0
LINE
5
293
100
AcDbEntity
8
0
100
AcDbLine
62
7
6
CONTINUOUS
10
79.9964768755
20
95.2858405577
11
78.5531012026
21
97.7858405577
0
LINE
5
294
100
AcDbEntity
8
0
100
AcDbLine
62
9
6
CONTINUOUS
10
56.1674952603
20
24.7758405577
11
56.1674952603
21
37.7803946172
0
LINE
5
295
100
AcDbEntity
8
0
100
AcDbLine
62
7
6
CONTINUOUS
10
59.3372645187
20
24.7758405577
11
59.3372645187
21
24.5758405577
0
LINE
5
296
100
AcDbEntity
8
0
100
AcDbLine
62
7
6
CONTINUOUS
10
60.2485795254
20
24.7758405577
11
60.2485795254
21
24.5758405577
0
LINE
5
297
100
AcDbEntity
8
0
100
AcDbLine
62
9
6
CONTINUOUS
10
60.9653957605
20
24.7758405577
11
60.9653957605
21
24.5758405577
0
LINE
5
298
100
AcDbEntity
8
0
100
AcDbLine
62
9
6
CONTINUOUS
10
62.3416552987
20
24.7758405577
11
62.3416552987
21
24.5758405577
0
LINE
5
299
100
AcDbEntity
8
0
100
AcDbLine
62
7
6
CONTINUOUS
10
62.6873255801
20
24.7758405577
11
62.6873255801
21
24.5758405577
0
LINE
5
29A
100
AcDbEntity
8
0
100
AcDbLine
62
7
6
CONTINUOUS
10
63.2274946331
20
24.7758405577
11
63.2274946331
21
24.5758405577
0
LINE
5
29B
100
AcDbEntity
8
0
100
AcDbLine
62
9
6
CONTINUOUS
10
63.7752877689
20
24.7758405577
11
63.7752877689
21
24.5758405577
0
LINE
5
29C
100
AcDbEntity
8
0
100
AcDbLine
62
7
6
CONTINUOUS
10
63.8817418146
20
24.7758405577
11
63.8817418146
21
24.5758405577
0
LINE
5
29D
100
AcDbEntity
8
0
100
AcDbLine
62
7
6
CONTINUOUS
10
54.9840647505
20
61.1163305477
11
54.8400578063
21
56.3531028937
0
LINE
5
29E
100
AcDbEntity
8
0
100
AcDbLine
62
9
6
CONTINUOUS
10
51.6535255296
20
139.1163305477
11
54.9840647505
21
139.1163305477
0
LINE
5
29F
100
AcDbEntity
8
0
100
AcDbLine
62
9
6
CONTINUOUS
10
51.6535255296
20
141.7144067591
11
55.0102473479
21
141.7144067591
0
LINE
5
2A0
100
AcDbEntity
8
0
100
AcDbLine
62
7
6
CONTINUOUS
10
71.3247406759
20
32.0489449684
11
71.3346911429
21
31.8058405577
0
LINE
5
2A1
100
AcDbEntity
8
0
100
AcDbLine
62
7
6
CONTINUOUS
10
72.3223103833
20
30.5627361470
11
72.3123599163
21
30.8058405577
0
LINE
5
2A2
100
AcDbEntity
8
0
100
AcDbLine
62
7
6
CONTINUOUS
10
71.3735255296
20
32.4558405577
11
71.3330892446
21
33.5476202526
0
LINE
5
2A3
100
AcDbEntity
8
0
100
AcDbLine
62
7
6
CONTINUOUS
10
72.2735255296
20
30.1558405577
11
72.3139618146
21
29.0640608628
0
LINE
5
2A4
100
AcDbEntity
8
0
100
AcDbLine
62
7
6
CONTINUOUS
10
70.3360255296
20
31.7683405577
11
70.3360255296
21
30.8433405577
0
LINE
5
2A5
100
AcDbEntity
8
0
100
AcDbLine
62
7
6
CONTINUOUS
10
70.6735255296
20
31.7558405577
11
70.6735255296
21
30.8558405577
0
LINE
5
2A6
100
AcDbEntity
8
0
100
AcDbLine
62
7
6
CONTINUOUS
10
71.1135255296
20
155.0258405577
11
71.1135255296
21
99.0258405577
0
LINE
5
2A7
100
AcDbEntity
8
0
100
AcDbLine
62
7
6
CONTINUOUS
10
71.3610255296
20
30.8433405577
11
71.3610255296
21
30.8058405577
0
LINE
5
2A8
100
AcDbEntity
8
0
100
AcDbLine
62
7
6
CONTINUOUS
10
71.3610255296
20
31.7683405577
11
71.3610255296
21
31.8058405577
0
LINE
5
2A9
100
AcDbEntity
8
0
100
AcDbLine
62
7
6
CONTINUOUS
10
71.3735255296
20
32.4558405577
11
71.3735255296
21
31.7558405577
0
LINE
5
2AA
100
AcDbEntity
8
0
100
AcDbLine
62
7
6
CONTINUOUS
10
71.3735255296
20
30.8558405577
11
71.3735255296
21
30.1558405577
0
LINE
5
2AB
100
AcDbEntity
8
0
100
AcDbLine
62
7
6
CONTINUOUS
10
72.2735255296
20
30.1558405577
11
72.2735255296
21
30.8558405577
0
LINE
5
2AC
100
AcDbEntity
8
0
100
AcDbLine
62
7
6
CONTINUOUS
10
72.2735255296
20
31.7558405577
11
72.2735255296
21
32.4558405577
0
LINE
5
2AD
100
AcDbEntity
8
0
100
AcDbLine
62
7
6
CONTINUOUS
10
72.2860255296
20
30.8433405577
11
72.2860255296
21
30.8058405577
0
LINE
5
2AE
100
AcDbEntity
8
0
100
AcDbLine
62
7
6
CONTINUOUS
10
72.2860255296
20
31.7683405577
11
72.2860255296
21
31.8058405577
0
LINE
5
2AF
100
AcDbEntity
8
0
100
AcDbLine
62
7
6
CONTINUOUS
10
75.6663498566
20
161.2858405577
11
74.2229741837
21
158.7858405577
0
LINE
5
2B0
100
AcDbEntity
8
0
100
AcDbLine
62
9
6
CONTINUOUS
10
76.1410919009
20
99.6551288651
11
76.0969852637
21
99.9052700343
0
LINE
5
2B1
100
AcDbEntity
8
0
100
AcDbLine
62
9
6
CONTINUOUS
10
79.4059689359
20
100.4887331344
11
79.4500755730
21
100.2385919652
0
LINE
5
2B2
100
AcDbEntity
8
0
100
AcDbLine
62
7
6
CONTINUOUS
10
72.9735255296
20
30.8558405577
11
72.9735255296
21
31.7558405577
0
LINE
5
2B3
100
AcDbEntity
8
0
100
AcDbLine
62
7
6
CONTINUOUS
10
73.1600255296
20
151.9151405577
11
73.1600255296
21
102.1565405577
0
LINE
5
2B4
100
AcDbEntity
8
0
100
AcDbLine
62
7
6
CONTINUOUS
10
73.3110255296
20
30.8433405577
11
73.3110255296
21
31.7683405577
0
LINE
5
2B5
100
AcDbEntity
8
0
100
AcDbLine
62
9
6
CONTINUOUS
10
73.4140255296
20
102.1565405577
11
73.4140255296
21
151.9151405577
0
LINE
5
2B6
100
AcDbEntity
8
0
100
AcDbLine
62
7
6
CONTINUOUS
10
73.6535255296
20
24.7758405577
11
73.6535255296
21
24.5758405577
0
LINE
5
2B7
100
AcDbEntity
8
0
100
AcDbLine
62
7
6
CONTINUOUS
10
73.7337338653
20
24.7758405577
11
73.7337338653
21
24.5758405577
0
LINE
5
2B8
100
AcDbEntity
8
0
100
AcDbLine
62
7
6
CONTINUOUS
10
74.1135255296
20
158.7758405577
11
74.1135255296
21
157.0258405577
0
LINE
5
2B9
100
AcDbEntity
8
0
100
AcDbLine
62
7
6
CONTINUOUS
10
74.1135255296
20
97.0258405577
11
74.1135255296
21
95.2758405577
0
LINE
5
2BA
100
AcDbEntity
8
0
100
AcDbLine
62
7
6
CONTINUOUS
10
74.4957130296
20
24.7758405577
11
74.4957130296
21
24.5758405577
0
LINE
5
2BB
100
AcDbEntity
8
0
100
AcDbLine
62
7
6
CONTINUOUS
10
74.8165464012
20
24.7758405577
11
74.8165464012
21
24.5758405577
0
LINE
5
2BC
100
AcDbEntity
8
0
100
AcDbLine
62
7
6
CONTINUOUS
10
75.7790462864
20
24.7758405577
11
75.7790462864
21
24.5758405577
0
LINE
5
2BD
100
AcDbEntity
8
0
100
AcDbLine
62
7
6
CONTINUOUS
10
75.9795672728
20
24.7758405577
11
75.9795672728
21
24.5758405577
0
LINE
5
2BE
100
AcDbEntity
8
0
100
AcDbLine
62
7
6
CONTINUOUS
10
76.1399837864
20
24.7758405577
11
76.1399837864
21
24.5758405577
0
LINE
5
2BF
100
AcDbEntity
8
0
100
AcDbLine
62
7
6
CONTINUOUS
10
76.2602962864
20
24.7758405577
11
76.2602962864
21
24.5758405577
0
LINE
5
2C0
100
AcDbEntity
8
0
100
AcDbLine
62
7
6
CONTINUOUS
10
76.3004005296
20
24.7758405577
11
76.3004005296
21
24.5758405577
0
LINE
5
2C1
100
AcDbEntity
8
0
100
AcDbLine
62
7
6
CONTINUOUS
10
76.6212337864
20
24.7758405577
11
76.6212337864
21
24.5758405577
0
LINE
5
2C2
100
AcDbEntity
8
0
100
AcDbLine
62
7
6
CONTINUOUS
10
76.6613380296
20
24.7758405577
11
76.6613380296
21
24.5758405577
0
LINE
5
2C3
100
AcDbEntity
8
0
100
AcDbLine
62
9
6
CONTINUOUS
10
76.6986356692
20
29.6213396375
11
76.6986356692
21
24.7758405577
0
LINE
5
2C4
100
AcDbEntity
8
0
100
AcDbLine
62
7
6
CONTINUOUS
10
76.7415462864
20
24.7758405577
11
76.7415462864
21
24.5758405577
0
LINE
5
2C5
100
AcDbEntity
8
0
100
AcDbLine
62
7
6
CONTINUOUS
10
76.9019630296
20
24.7758405577
11
76.9019630296
21
24.5758405577
0
LINE
5
2C6
100
AcDbEntity
8
0
100
AcDbLine
62
7
6
CONTINUOUS
10
77.0623797728
20
24.7758405577
11
77.0623797728
21
24.5758405577
0
LINE
5
2C7
100
AcDbEntity
8
0
100
AcDbLine
62
7
6
CONTINUOUS
10
77.2629005296
20
24.7758405577
11
77.2629005296
21
24.5758405577
0
LINE
5
2C8
100
AcDbEntity
8
0
100
AcDbLine
62
7
6
CONTINUOUS
10
77.6238380296
20
24.7758405577
11
77.6238380296
21
24.5758405577
0
LINE
5
2C9
100
AcDbEntity
8
0
100
AcDbLine
62
9
6
CONTINUOUS
10
77.6984833644
20
29.6213396375
11
77.6984833644
21
24.7758405577
0
LINE
5
2CA
100
AcDbEntity
8
0
100
AcDbLine
62
7
6
CONTINUOUS
10
77.8243590159
20
24.7758405577
11
77.8243590159
21
24.5758405577
0
LINE
5
2CB
100
AcDbEntity
8
0
100
AcDbLine
62
7
6
CONTINUOUS
10
77.9847755296
20
24.7758405577
11
77.9847755296
21
24.5758405577
0
LINE
5
2CC
100
AcDbEntity
8
0
100
AcDbLine
62
7
6
CONTINUOUS
10
78.0435255296
20
215.0258405577
11
78.0435255296
21
210.7753836432
0
LINE
5
2CD
100
AcDbEntity
8
0
100
AcDbLine
62
7
6
CONTINUOUS
10
78.0635988543
20
215.0057672330
11
78.0635988543
21
210.7954569678
0
LINE
5
2CE
100
AcDbEntity
8
0
100
AcDbLine
62
7
6
CONTINUOUS
10
78.0635988543
20
24.7758405577
11
78.0635988543
21
29.2562241476
0
LINE
5
2CF
100
AcDbEntity
8
0
100
AcDbLine
62
7
6
CONTINUOUS
10
78.1451920433
20
24.7758405577
11
78.1451920433
21
24.5758405577
0
LINE
5
2D0
100
AcDbEntity
8
0
100
AcDbLine
62
7
6
CONTINUOUS
10
78.1852965159
20
24.7758405577
11
78.1852965159
21
24.5758405577
0
LINE
5
2D1
100
AcDbEntity
8
0
100
AcDbLine
62
7
6
CONTINUOUS
10
78.5061295433
20
24.7758405577
11
78.5061295433
21
24.5758405577
0
LINE
5
2D2
100
AcDbEntity
8
0
100
AcDbLine
62
7
6
CONTINUOUS
10
79.0675880296
20
24.7758405577
11
79.0675880296
21
24.5758405577
0
LINE
5
2D3
100
AcDbEntity
8
0
100
AcDbLine
62
7
6
CONTINUOUS
10
79.3884215159
20
24.7758405577
11
79.3884215159
21
24.5758405577
0
LINE
5
2D4
100
AcDbEntity
8
0
100
AcDbLine
62
7
6
CONTINUOUS
10
80.1135255296
20
95.2758405577
11
80.1135255296
21
97.0258405577
0
LINE
5
2D5
100
AcDbEntity
8
0
100
AcDbLine
62
7
6
CONTINUOUS
10
80.1135255296
20
157.0258405577
11
80.1135255296
21
158.7758405577
0
LINE
5
2D6
100
AcDbEntity
8
0
100
AcDbLine
62
9
6
CONTINUOUS
10
80.6980264499
20
33.6207304181
11
80.6980264499
21
32.6208827229
0
LINE
5
2D7
100
AcDbEntity
8
0
100
AcDbLine
62
9
6
CONTINUOUS
10
80.8054255296
20
151.9151405577
11
80.8054255296
21
102.1565405577
0
LINE
5
2D8
100
AcDbEntity
8
0
100
AcDbLine
62
7
6
CONTINUOUS
10
80.8321715159
20
24.7758405577
11
80.8321715159
21
24.5758405577
0
LINE
5
2D9
100
AcDbEntity
8
0
100
AcDbLine
62
7
6
CONTINUOUS
10
81.0594255296
20
102.1565405577
11
81.0594255296
21
151.9151405577
0
LINE
5
2DA
100
AcDbEntity
8
0
100
AcDbLine
62
7
6
CONTINUOUS
10
81.1530045433
20
24.7758405577
11
81.1530045433
21
24.5758405577
0
LINE
5
2DB
100
AcDbEntity
8
0
100
AcDbLine
62
7
6
CONTINUOUS
10
71.3735255296
20
30.1558405577
11
71.3330892446
21
29.0640608628
0
LINE
5
2DC
100
AcDbEntity
8
0
100
AcDbLine
62
7
6
CONTINUOUS
10
72.2735255296
20
32.4558405577
11
72.3139618146
21
33.5476202526
0
LINE
5
2DD
100
AcDbEntity
8
0
100
AcDbLine
62
7
6
CONTINUOUS
10
71.3247406759
20
30.5627361470
11
71.3346911429
21
30.8058405577
0
LINE
5
2DE
100
AcDbEntity
8
0
100
AcDbLine
62
7
6
CONTINUOUS
10
72.3223103833
20
32.0489449684
11
72.3123599163
21
31.8058405577
0
LINE
5
2DF
100
AcDbEntity
8
0
100
AcDbLine
62
9
6
CONTINUOUS
10
76.0969852637
20
154.1664110811
11
76.1410919009
21
154.4165522504
0
LINE
5
2E0
100
AcDbEntity
8
0
100
AcDbLine
62
9
6
CONTINUOUS
10
79.4500755730
20
153.8330891502
11
79.4059689359
21
153.5829479810
0
LINE
5
2E1
100
AcDbEntity
8
0
100
AcDbLine
62
7
6
CONTINUOUS
10
78.5531012026
20
156.2858405577
11
79.9964768755
21
158.7858405577
0
LINE
5
2E2
100
AcDbEntity
8
0
100
AcDbLine
62
7
6
CONTINUOUS
10
54.8400578063
20
134.3531028937
11
53.8226053999
21
133.7758405577
0
LINE
5
2E3
100
AcDbEntity
8
0
100
AcDbLine
62
9
6
CONTINUOUS
10
73.1600255296
20
151.9151405577
11
73.4140255296
21
151.9151405577
0
LINE
5
2E4
100
AcDbEntity
8
0
100
AcDbLine
62
9
6
CONTINUOUS
10
80.8054255296
20
151.9151405577
11
81.0594255296
21
151.9151405577
0
LINE
5
2E5
100
AcDbEntity
8
0
100
AcDbLine
62
7
6
CONTINUOUS
10
75.6663498566
20
156.2858405577
11
78.5531012026
21
156.2858405577
0
LINE
5
2E6
100
AcDbEntity
8
0
100
AcDbLine
62
7
6
CONTINUOUS
10
81.1135255296
20
157.0258405577
11
80.1135255296
21
157.0258405577
0
LINE
5
2E7
100
AcDbEntity
8
0
100
AcDbLine
62
7
6
CONTINUOUS
10
74.1135255296
20
157.0258405577
11
73.1135255296
21
157.0258405577
0
LINE
5
2E8
100
AcDbEntity
8
0
100
AcDbLine
62
9
6
CONTINUOUS
10
79.4059689359
20
153.5829479810
11
76.0969852637
21
154.1664110811
0
LINE
5
2E9
100
AcDbEntity
8
0
100
AcDbLine
62
7
6
CONTINUOUS
10
79.4500755730
20
153.8330891502
11
76.1410919009
21
154.4165522504
0
LINE
5
2EA
100
AcDbEntity
8
0
100
AcDbLine
62
7
6
CONTINUOUS
10
74.2229741837
20
158.7858405577
11
75.6663498566
21
156.2858405577
0
LINE
5
2EB
100
AcDbEntity
8
0
100
AcDbLine
62
7
6
CONTINUOUS
10
82.1155050022
20
24.7758405577
11
82.1155050022
21
24.5758405577
0
LINE
5
2EC
100
AcDbEntity
8
0
100
AcDbLine
62
7
6
CONTINUOUS
10
82.3160255296
20
24.7758405577
11
82.3160255296
21
24.5758405577
0
LINE
5
2ED
100
AcDbEntity
8
0
100
AcDbLine
62
7
6
CONTINUOUS
10
82.4764425022
20
24.7758405577
11
82.4764425022
21
24.5758405577
0
LINE
5
2EE
100
AcDbEntity
8
0
100
AcDbLine
62
7
6
CONTINUOUS
10
82.5967550022
20
24.7758405577
11
82.5967550022
21
24.5758405577
0
LINE
5
2EF
100
AcDbEntity
8
0
100
AcDbLine
62
7
6
CONTINUOUS
10
82.6368585570
20
24.7758405577
11
82.6368585570
21
24.5758405577
0
LINE
5
2F0
100
AcDbEntity
8
0
100
AcDbLine
62
7
6
CONTINUOUS
10
82.6769630296
20
24.7758405577
11
82.6769630296
21
24.5758405577
0
LINE
5
2F1
100
AcDbEntity
8
0
100
AcDbLine
62
7
6
CONTINUOUS
10
82.9977960570
20
24.7758405577
11
82.9977960570
21
24.5758405577
0
LINE
5
2F2
100
AcDbEntity
8
0
100
AcDbLine
62
7
6
CONTINUOUS
10
83.1135255296
20
99.0258405577
11
83.1135255296
21
155.0258405577
0
LINE
5
2F3
100
AcDbEntity
8
0
100
AcDbLine
62
7
6
CONTINUOUS
10
83.7597755296
20
24.7758405577
11
83.7597755296
21
24.5758405577
0
LINE
5
2F4
100
AcDbEntity
8
0
100
AcDbLine
62
7
6
CONTINUOUS
10
83.8399835570
20
24.7758405577
11
83.8399835570
21
24.5758405577
0
LINE
5
2F5
100
AcDbEntity
8
0
100
AcDbLine
62
7
6
CONTINUOUS
10
86.9935255296
20
215.0057672330
11
86.9935255296
21
207.7959138824
0
LINE
5
2F6
100
AcDbEntity
8
0
100
AcDbLine
62
7
6
CONTINUOUS
10
86.9935255296
20
24.7758405577
11
86.9935255296
21
32.2557672330
0
LINE
5
2F7
100
AcDbEntity
8
0
100
AcDbLine
62
7
6
CONTINUOUS
10
87.2235255296
20
274.7191159171
11
87.2235255296
21
220.9158405577
0
LINE
5
2F8
100
AcDbEntity
8
0
100
AcDbLine
62
7
6
CONTINUOUS
10
87.9935255296
20
214.9883121681
11
87.9935255296
21
207.8133689473
0
LINE
5
2F9
100
AcDbEntity
8
0
100
AcDbLine
62
7
6
CONTINUOUS
10
87.9935255296
20
24.7758405577
11
87.9935255296
21
32.2383121681
0
LINE
5
2FA
100
AcDbEntity
8
0
100
AcDbLine
62
7
6
CONTINUOUS
10
88.3935255296
20
214.9516565318
11
88.3935255296
21
207.8500245837
0
LINE
5
2FB
100
AcDbEntity
8
0
100
AcDbLine
62
7
6
CONTINUOUS
10
88.3935255296
20
24.7758405577
11
88.3935255296
21
32.2016565318
0
LINE
5
2FC
100
AcDbEntity
8
0
100
AcDbLine
62
7
6
CONTINUOUS
10
88.8868698933
20
207.8500245837
11
88.8868698933
21
208.6758405577
0
LINE
5
2FD
100
AcDbEntity
8
0
100
AcDbLine
62
7
6
CONTINUOUS
10
88.9235255296
20
207.8133689473
11
88.9235255296
21
208.6758405577
0
LINE
5
2FE
100
AcDbEntity
8
0
100
AcDbLine
62
7
6
CONTINUOUS
10
78.5531012026
20
161.2858405577
11
75.6663498566
21
161.2858405577
0
LINE
5
2FF
100
AcDbEntity
8
0
100
AcDbLine
62
7
6
CONTINUOUS
10
77.7991265550
20
161.6958405577
11
76.4279245042
21
161.6958405577
0
LINE
5
300
100
AcDbEntity
8
0
100
AcDbLine
62
7
6
CONTINUOUS
10
79.9964768755
20
158.7858405577
11
78.5531012026
21
161.2858405577
0
LINE
5
301
100
AcDbEntity
8
0
100
AcDbLine
62
7
6
CONTINUOUS
10
90.1935255296
20
207.5803946172
11
90.1935255296
21
37.7803946172
0
LINE
5
302
100
AcDbEntity
8
0
100
AcDbLine
62
7
6
CONTINUOUS
10
90.2022530621
20
37.7803946172
11
90.2022530621
21
33.6207304181
0
LINE
5
303
100
AcDbEntity
8
0
100
AcDbLine
62
7
6
CONTINUOUS
10
90.5644456593
20
32.2758405577
11
90.5644456593
21
207.7658405577
0
LINE
5
304
100
AcDbEntity
8
0
100
AcDbLine
62
7
6
CONTINUOUS
10
90.9235255296
20
207.8133689473
11
90.9235255296
21
208.6583854928
0
LINE
5
305
100
AcDbEntity
8
0
100
AcDbLine
62
7
6
CONTINUOUS
10
90.9412906865
20
208.6758405577
11
90.9412906865
21
208.6580754008
0
LINE
5
306
100
AcDbEntity
8
0
100
AcDbLine
62
7
6
CONTINUOUS
10
90.9601811660
20
207.8500245837
11
90.9601811660
21
208.6758405577
0
LINE
5
307
100
AcDbEntity
8
0
100
AcDbLine
62
7
6
CONTINUOUS
10
91.5935255296
20
214.9516565318
11
91.5935255296
21
207.8500245837
0
LINE
5
308
100
AcDbEntity
8
0
100
AcDbLine
62
7
6
CONTINUOUS
10
91.5935255296
20
24.7758405577
11
91.5935255296
21
32.2016565318
0
LINE
5
309
100
AcDbEntity
8
0
100
AcDbLine
62
7
6
CONTINUOUS
10
91.9671762019
20
274.7494912300
11
91.9671762019
21
216.1721898854
0
LINE
5
30A
100
AcDbEntity
8
0
100
AcDbLine
62
7
6
CONTINUOUS
10
91.9935255296
20
24.7758405577
11
91.9935255296
21
274.7758405577
0
LINE
5
30B
100
AcDbEntity
8
0
100
AcDbLine
62
7
6
CONTINUOUS
10
92.1485255296
20
62.8658405577
11
92.1485255296
21
80.3658405577
0
LINE
5
30C
100
AcDbEntity
8
0
100
AcDbLine
62
7
6
CONTINUOUS
10
92.1485255296
20
220.6158405577
11
92.1485255296
21
238.1158405577
0
LINE
5
30D
100
AcDbEntity
8
0
100
AcDbLine
62
7
6
CONTINUOUS
10
54.8400578063
20
185.1985782218
11
53.8226053999
21
185.7758405577
0
LINE
5
30E
100
AcDbEntity
8
0
100
AcDbLine
62
7
6
CONTINUOUS
10
75.6663498566
20
97.7858405577
11
74.2229741837
21
95.2858405577
0
LINE
5
30F
100
AcDbEntity
8
0
100
AcDbLine
62
7
6
CONTINUOUS
10
78.5531012026
20
92.7858405577
11
79.9964768755
21
95.2858405577
0
LINE
5
310
100
AcDbEntity
8
0
100
AcDbLine
62
9
6
CONTINUOUS
10
51.6535255296
20
177.8372743563
11
55.0102473479
21
177.8372743563
0
LINE
5
311
100
AcDbEntity
8
0
100
AcDbLine
62
9
6
CONTINUOUS
10
51.6535255296
20
180.4353505677
11
54.9840647505
21
180.4353505677
0
LINE
5
312
100
AcDbEntity
8
0
100
AcDbLine
62
7
6
CONTINUOUS
10
54.9235557300
20
191.1924000201
11
54.6735255296
21
191.1792964926
0
LINE
5
313
100
AcDbEntity
8
0
100
AcDbLine
62
7
6
CONTINUOUS
10
51.6535255296
20
185.7758405577
11
53.8226053999
21
185.7758405577
0
LINE
5
314
100
AcDbEntity
8
0
100
AcDbLine
62
7
6
CONTINUOUS
10
55.1935255296
20
207.5803946172
11
54.8400578063
21
207.7571150191
0
LINE
5
315
100
AcDbEntity
8
0
100
AcDbLine
62
7
6
CONTINUOUS
10
78.0435255296
20
215.0258405577
11
78.0635988543
21
215.0057672330
0
LINE
5
316
100
AcDbEntity
8
0
100
AcDbLine
62
7
6
CONTINUOUS
10
86.9935255296
20
207.7959138824
11
87.9935255296
21
207.8133689473
0
LINE
5
317
100
AcDbEntity
8
0
100
AcDbLine
62
7
6
CONTINUOUS
10
87.9935255296
20
207.8430425577
11
88.3935255296
21
207.8500245837
0
LINE
5
318
100
AcDbEntity
8
0
100
AcDbLine
62
7
6
CONTINUOUS
10
90.1935255296
20
207.5803946172
11
55.1935255296
21
207.5803946172
0
LINE
5
319
100
AcDbEntity
8
0
100
AcDbLine
62
7
6
CONTINUOUS
10
90.5644456593
20
207.7658405577
11
53.8226053999
21
207.7658405577
0
LINE
5
31A
100
AcDbEntity
8
0
100
AcDbLine
62
7
6
CONTINUOUS
10
91.9935255296
20
207.7758405577
11
81.0430686151
21
207.7758405577
0
LINE
5
31B
100
AcDbEntity
8
0
100
AcDbLine
62
7
6
CONTINUOUS
10
86.9935255296
20
207.7959138824
11
81.0631419397
21
207.7959138824
0
LINE
5
31C
100
AcDbEntity
8
0
100
AcDbLine
62
7
6
CONTINUOUS
10
91.5935255296
20
207.8500245837
11
90.9601811660
21
207.8500245837
0
LINE
5
31D
100
AcDbEntity
8
0
100
AcDbLine
62
7
6
CONTINUOUS
10
88.8868698933
20
207.8500245837
11
88.3935255296
21
207.8500245837
0
LINE
5
31E
100
AcDbEntity
8
0
100
AcDbLine
62
7
6
CONTINUOUS
10
88.8868698933
20
208.6758405577
11
90.9601811660
21
208.6758405577
0
LINE
5
31F
100
AcDbEntity
8
0
100
AcDbLine
62
7
6
CONTINUOUS
10
54.8400578063
20
207.7571150191
11
53.8226053999
21
207.7658405577
0
LINE
5
320
100
AcDbEntity
8
0
100
AcDbLine
62
7
6
CONTINUOUS
10
91.5935255296
20
207.8500245837
11
91.9935255296
21
207.8430425577
0
LINE
5
321
100
AcDbEntity
8
0
100
AcDbLine
62
7
6
CONTINUOUS
10
89.9235255296
20
208.6758405577
11
90.9412906865
21
208.6580754008
0
LINE
5
322
100
AcDbEntity
8
0
100
AcDbLine
62
7
6
CONTINUOUS
10
54.6735255296
20
203.0723846228
11
54.9235557300
21
203.0592810953
0
LINE
5
323
100
AcDbEntity
8
0
100
AcDbLine
62
7
6
CONTINUOUS
10
88.8868698933
20
207.8500245837
11
88.9235255296
21
207.8133689473
0
LINE
5
324
100
AcDbEntity
8
0
100
AcDbLine
62
7
6
CONTINUOUS
10
87.2235255296
20
220.9158405577
11
51.9150274122
21
216.1809084233
0
LINE
5
325
100
AcDbEntity
8
0
100
AcDbLine
62
7
6
CONTINUOUS
10
91.5935255296
20
214.9516565318
11
91.9935255296
21
214.9586385577
0
LINE
5
326
100
AcDbEntity
8
0
100
AcDbLine
62
7
6
CONTINUOUS
10
51.9150274122
20
216.1809084233
11
51.6884544247
21
216.1807694528
0
LINE
5
327
100
AcDbEntity
8
0
100
AcDbLine
62
7
6
CONTINUOUS
10
88.3935255296
20
214.9516565318
11
91.5935255296
21
214.9516565318
0
LINE
5
328
100
AcDbEntity
8
0
100
AcDbLine
62
7
6
CONTINUOUS
10
78.0635988543
20
215.0057672330
11
86.9935255296
21
215.0057672330
0
LINE
5
329
100
AcDbEntity
8
0
100
AcDbLine
62
7
6
CONTINUOUS
10
78.0435255296
20
215.0258405577
11
51.6535255296
21
215.0258405577
0
LINE
5
32A
100
AcDbEntity
8
0
100
AcDbLine
62
7
6
CONTINUOUS
10
91.9935255296
20
215.0363135967
11
51.6535255296
21
215.0363135967
0
LINE
5
32B
100
AcDbEntity
8
0
100
AcDbLine
62
7
6
CONTINUOUS
10
51.6535255296
20
216.1458405577
11
91.9935255296
21
216.1458405577
0
LINE
5
32C
100
AcDbEntity
8
0
100
AcDbLine
62
7
6
CONTINUOUS
10
91.9671762019
20
216.1721898854
11
51.9150274122
21
216.1809084233
0
LINE
5
32D
100
AcDbEntity
8
0
100
AcDbLine
62
7
6
CONTINUOUS
10
87.9935255296
20
214.9586385577
11
88.3935255296
21
214.9516565318
0
LINE
5
32E
100
AcDbEntity
8
0
100
AcDbLine
62
7
6
CONTINUOUS
10
86.9935255296
20
215.0057672330
11
87.9935255296
21
214.9883121681
0
LINE
5
32F
100
AcDbEntity
8
0
100
AcDbLine
62
7
6
CONTINUOUS
10
91.9935255296
20
216.1458405577
11
87.2235255296
21
220.9158405577
0
LINE
5
330
100
AcDbEntity
8
0
100
AcDbLine
62
7
6
CONTINUOUS
10
54.8400578063
20
56.3531028937
11
53.8226053999
21
55.7758405577
0
LINE
5
331
100
AcDbEntity
8
0
100
AcDbLine
62
7
6
CONTINUOUS
10
51.6535255296
20
220.6158405577
11
51.4985255296
21
220.6158405577
0
LINE
5
332
100
AcDbEntity
8
0
100
AcDbLine
62
7
6
CONTINUOUS
10
91.9935255296
20
220.6158405577
11
92.1485255296
21
220.6158405577
0
LINE
5
333
100
AcDbEntity
8
0
100
AcDbLine
62
7
6
CONTINUOUS
10
51.6884544247
20
274.7409116626
11
51.6535255296
21
274.7758405577
0
LINE
5
334
100
AcDbEntity
8
0
100
AcDbLine
62
7
6
CONTINUOUS
10
73.6009090491
20
33.0832240773
11
72.3235255296
21
31.8058405577
0
LINE
5
335
100
AcDbEntity
8
0
100
AcDbLine
62
7
6
CONTINUOUS
10
71.3235255296
20
30.8058405577
11
70.0461420101
21
29.5284570382
0
LINE
5
336
100
AcDbEntity
8
0
100
AcDbLine
62
7
6
CONTINUOUS
10
51.6535255296
20
238.1158405577
11
51.4985255296
21
238.1158405577
0
LINE
5
337
100
AcDbEntity
8
0
100
AcDbLine
62
7
6
CONTINUOUS
10
91.9935255296
20
238.1158405577
11
92.1485255296
21
238.1158405577
0
LINE
5
338
100
AcDbEntity
8
0
100
AcDbLine
62
7
6
CONTINUOUS
10
91.9671762019
20
274.7494912300
11
87.2235255296
21
274.7191159171
0
LINE
5
339
100
AcDbEntity
8
0
100
AcDbLine
62
7
6
CONTINUOUS
10
51.6535255296
20
274.7758405577
11
91.9935255296
21
274.7758405577
0
LINE
5
33A
100
AcDbEntity
8
0
100
AcDbLine
62
7
6
CONTINUOUS
10
87.2235255296
20
274.7191159171
11
51.6884544247
21
274.7409116626
0
LINE
5
33B
100
AcDbEntity
8
0
100
AcDbLine
62
7
6
CONTINUOUS
10
164.8397387058
20
26.9776129160
11
161.9352713219
21
26.9522660131
0
LINE
5
33C
100
AcDbEntity
8
0
100
AcDbLine
62
7
6
CONTINUOUS
10
159.8406906292
20
26.9339868843
11
156.9343190359
21
26.9086233637
0
LINE
5
33D
100
AcDbEntity
8
0
100
AcDbLine
62
7
6
CONTINUOUS
10
223.8877271801
20
24.5758405577
11
219.0191138323
21
24.5758405577
0
LINE
5
33E
100
AcDbEntity
8
0
100
AcDbLine
62
7
6
CONTINUOUS
10
150.9877815496
20
24.7758405577
11
156.8877815496
21
24.7758405577
0
LINE
5
33F
100
AcDbEntity
8
0
100
AcDbLine
62
7
6
CONTINUOUS
10
159.8877815496
20
24.7758405577
11
161.8877815496
21
24.7758405577
0
LINE
5
340
100
AcDbEntity
8
0
100
AcDbLine
62
7
6
CONTINUOUS
10
164.8877815496
20
24.7758405577
11
166.8877815496
21
24.7758405577
0
LINE
5
341
100
AcDbEntity
8
0
100
AcDbLine
62
7
6
CONTINUOUS
10
169.8877815496
20
24.7758405577
11
171.8877815496
21
24.7758405577
0
LINE
5
342
100
AcDbEntity
8
0
100
AcDbLine
62
7
6
CONTINUOUS
10
174.8877815496
20
24.7758405577
11
176.8877815496
21
24.7758405577
0
LINE
5
343
100
AcDbEntity
8
0
100
AcDbLine
62
7
6
CONTINUOUS
10
179.8877815496
20
24.7758405577
11
181.8877815496
21
24.7758405577
0
LINE
5
344
100
AcDbEntity
8
0
100
AcDbLine
62
7
6
CONTINUOUS
10
184.8877815496
20
24.7758405577
11
186.8877815496
21
24.7758405577
0
LINE
5
345
100
AcDbEntity
8
0
100
AcDbLine
62
7
6
CONTINUOUS
10
189.8877815496
20
24.7758405577
11
191.8877815496
21
24.7758405577
0
LINE
5
346
100
AcDbEntity
8
0
100
AcDbLine
62
7
6
CONTINUOUS
10
194.8877815496
20
24.7758405577
11
196.8877815496
21
24.7758405577
0
LINE
5
347
100
AcDbEntity
8
0
100
AcDbLine
62
7
6
CONTINUOUS
10
199.8877815496
20
24.7758405577
11
201.8877815496
21
24.7758405577
0
LINE
5
348
100
AcDbEntity
8
0
100
AcDbLine
62
7
6
CONTINUOUS
10
204.8877815496
20
24.7758405577
11
206.8877815496
21
24.7758405577
0
LINE
5
349
100
AcDbEntity
8
0
100
AcDbLine
62
7
6
CONTINUOUS
10
209.8877815496
20
24.7758405577
11
211.8877815496
21
24.7758405577
0
LINE
5
34A
100
AcDbEntity
8
0
100
AcDbLine
62
7
6
CONTINUOUS
10
214.8877815496
20
24.7758405577
11
252.4377815496
21
24.7758405577
0
LINE
5
34B
100
AcDbEntity
8
0
100
AcDbLine
62
7
6
CONTINUOUS
10
156.8943275729
20
25.0758405577
11
159.8812355263
21
25.0758405577
0
LINE
5
34C
100
AcDbEntity
8
0
100
AcDbLine
62
7
6
CONTINUOUS
10
161.8943275729
20
25.0758405577
11
164.8812355263
21
25.0758405577
0
LINE
5
34D
100
AcDbEntity
8
0
100
AcDbLine
62
7
6
CONTINUOUS
10
166.8943275729
20
25.0758405577
11
169.8812355263
21
25.0758405577
0
LINE
5
34E
100
AcDbEntity
8
0
100
AcDbLine
62
7
6
CONTINUOUS
10
171.8943275729
20
25.0758405577
11
174.8812355263
21
25.0758405577
0
LINE
5
34F
100
AcDbEntity
8
0
100
AcDbLine
62
7
6
CONTINUOUS
10
176.8943275729
20
25.0758405577
11
179.8812355263
21
25.0758405577
0
LINE
5
350
100
AcDbEntity
8
0
100
AcDbLine
62
7
6
CONTINUOUS
10
181.8943275729
20
25.0758405577
11
184.8812355263
21
25.0758405577
0
LINE
5
351
100
AcDbEntity
8
0
100
AcDbLine
62
7
6
CONTINUOUS
10
186.8943275729
20
25.0758405577
11
189.8812355263
21
25.0758405577
0
LINE
5
352
100
AcDbEntity
8
0
100
AcDbLine
62
7
6
CONTINUOUS
10
191.8943275729
20
25.0758405577
11
194.8812355263
21
25.0758405577
0
LINE
5
353
100
AcDbEntity
8
0
100
AcDbLine
62
7
6
CONTINUOUS
10
196.8943275729
20
25.0758405577
11
199.8812355263
21
25.0758405577
0
LINE
5
354
100
AcDbEntity
8
0
100
AcDbLine
62
7
6
CONTINUOUS
10
201.8943275729
20
25.0758405577
11
204.8812355263
21
25.0758405577
0
LINE
5
355
100
AcDbEntity
8
0
100
AcDbLine
62
7
6
CONTINUOUS
10
206.8943275729
20
25.0758405577
11
209.8812355263
21
25.0758405577
0
LINE
5
356
100
AcDbEntity
8
0
100
AcDbLine
62
7
6
CONTINUOUS
10
211.8943275729
20
25.0758405577
11
214.8812355263
21
25.0758405577
0
LINE
5
357
100
AcDbEntity
8
0
100
AcDbLine
62
7
6
CONTINUOUS
10
214.8768716602
20
25.2758337095
11
211.8986914390
21
25.2758337095
0
LINE
5
358
100
AcDbEntity
8
0
100
AcDbLine
62
7
6
CONTINUOUS
10
209.8768716602
20
25.2758337095
11
206.8986914390
21
25.2758337095
0
LINE
5
359
100
AcDbEntity
8
0
100
AcDbLine
62
7
6
CONTINUOUS
10
204.8768716602
20
25.2758337095
11
201.8986914390
21
25.2758337095
0
LINE
5
35A
100
AcDbEntity
8
0
100
AcDbLine
62
7
6
CONTINUOUS
10
199.8768716602
20
25.2758337095
11
196.8986914390
21
25.2758337095
0
LINE
5
35B
100
AcDbEntity
8
0
100
AcDbLine
62
7
6
CONTINUOUS
10
194.8768716602
20
25.2758337095
11
191.8986914390
21
25.2758337095
0
LINE
5
35C
100
AcDbEntity
8
0
100
AcDbLine
62
7
6
CONTINUOUS
10
189.8768716602
20
25.2758337095
11
186.8986914390
21
25.2758337095
0
LINE
5
35D
100
AcDbEntity
8
0
100
AcDbLine
62
7
6
CONTINUOUS
10
184.8768716602
20
25.2758337095
11
181.8986914390
21
25.2758337095
0
LINE
5
35E
100
AcDbEntity
8
0
100
AcDbLine
62
7
6
CONTINUOUS
10
179.8768716602
20
25.2758337095
11
176.8986914390
21
25.2758337095
0
LINE
5
35F
100
AcDbEntity
8
0
100
AcDbLine
62
7
6
CONTINUOUS
10
174.8768716602
20
25.2758337095
11
171.8986914390
21
25.2758337095
0
LINE
5
360
100
AcDbEntity
8
0
100
AcDbLine
62
7
6
CONTINUOUS
10
169.8768716602
20
25.2758337095
11
166.8986914390
21
25.2758337095
0
LINE
5
361
100
AcDbEntity
8
0
100
AcDbLine
62
7
6
CONTINUOUS
10
164.8768716602
20
25.2758337095
11
161.8986914390
21
25.2758337095
0
LINE
5
362
100
AcDbEntity
8
0
100
AcDbLine
62
7
6
CONTINUOUS
10
159.8768716602
20
25.2758337095
11
156.8986914390
21
25.2758337095
0
LINE
5
363
100
AcDbEntity
8
0
100
AcDbLine
62
7
6
CONTINUOUS
10
159.8659614719
20
25.7758405577
11
161.9096016272
21
25.7758405577
0
LINE
5
364
100
AcDbEntity
8
0
100
AcDbLine
62
7
6
CONTINUOUS
10
164.8659614719
20
25.7758405577
11
166.9096016272
21
25.7758405577
0
LINE
5
365
100
AcDbEntity
8
0
100
AcDbLine
62
7
6
CONTINUOUS
10
169.8659614719
20
25.7758405577
11
171.9096016272
21
25.7758405577
0
LINE
5
366
100
AcDbEntity
8
0
100
AcDbLine
62
7
6
CONTINUOUS
10
174.8659614719
20
25.7758405577
11
176.9096016272
21
25.7758405577
0
LINE
5
367
100
AcDbEntity
8
0
100
AcDbLine
62
7
6
CONTINUOUS
10
179.8659614719
20
25.7758405577
11
181.9096016272
21
25.7758405577
0
LINE
5
368
100
AcDbEntity
8
0
100
AcDbLine
62
7
6
CONTINUOUS
10
184.8659614719
20
25.7758405577
11
186.9096016272
21
25.7758405577
0
LINE
5
369
100
AcDbEntity
8
0
100
AcDbLine
62
7
6
CONTINUOUS
10
189.8659614719
20
25.7758405577
11
191.9096016272
21
25.7758405577
0
LINE
5
36A
100
AcDbEntity
8
0
100
AcDbLine
62
7
6
CONTINUOUS
10
194.8659614719
20
25.7758405577
11
196.9096016272
21
25.7758405577
0
LINE
5
36B
100
AcDbEntity
8
0
100
AcDbLine
62
7
6
CONTINUOUS
10
199.8659614719
20
25.7758405577
11
201.9096016272
21
25.7758405577
0
LINE
5
36C
100
AcDbEntity
8
0
100
AcDbLine
62
7
6
CONTINUOUS
10
204.8659614719
20
25.7758405577
11
206.9096016272
21
25.7758405577
0
LINE
5
36D
100
AcDbEntity
8
0
100
AcDbLine
62
7
6
CONTINUOUS
10
209.8659614719
20
25.7758405577
11
211.9096016272
21
25.7758405577
0
LINE
5
36E
100
AcDbEntity
8
0
100
AcDbLine
62
7
6
CONTINUOUS
10
150.9877815496
20
29.3058405577
11
147.4377815496
21
29.3058405577
0
LINE
5
36F
100
AcDbEntity
8
0
100
AcDbLine
62
7
6
CONTINUOUS
10
240.4377815496
20
31.7758405577
11
247.1877815496
21
31.7758405577
0
LINE
5
370
100
AcDbEntity
8
0
100
AcDbLine
62
9
6
CONTINUOUS
10
237.5180357435
20
29.4625385780
11
249.3377815496
21
29.2562241476
0
LINE
5
371
100
AcDbEntity
8
0
100
AcDbLine
62
7
6
CONTINUOUS
10
147.4377815496
20
29.3058405577
11
146.4377815496
21
30.3058405577
0
LINE
5
372
100
AcDbEntity
8
0
100
AcDbLine
62
7
6
CONTINUOUS
10
150.9877815496
20
33.3058405577
11
147.4377815496
21
33.3058405577
0
LINE
5
373
100
AcDbEntity
8
0
100
AcDbLine
62
7
6
CONTINUOUS
10
214.6695807733
20
34.7758405577
11
212.1059823258
21
34.7758405577
0
LINE
5
374
100
AcDbEntity
8
0
100
AcDbLine
62
7
6
CONTINUOUS
10
209.6695807733
20
34.7758405577
11
207.1059823258
21
34.7758405577
0
LINE
5
375
100
AcDbEntity
8
0
100
AcDbLine
62
7
6
CONTINUOUS
10
204.6695807733
20
34.7758405577
11
202.1059823258
21
34.7758405577
0
LINE
5
376
100
AcDbEntity
8
0
100
AcDbLine
62
7
6
CONTINUOUS
10
199.6695807733
20
34.7758405577
11
197.1059823258
21
34.7758405577
0
LINE
5
377
100
AcDbEntity
8
0
100
AcDbLine
62
7
6
CONTINUOUS
10
194.6695807733
20
34.7758405577
11
192.1059823258
21
34.7758405577
0
LINE
5
378
100
AcDbEntity
8
0
100
AcDbLine
62
7
6
CONTINUOUS
10
189.6695807733
20
34.7758405577
11
187.1059823258
21
34.7758405577
0
LINE
5
379
100
AcDbEntity
8
0
100
AcDbLine
62
7
6
CONTINUOUS
10
184.6695807733
20
34.7758405577
11
182.1059823258
21
34.7758405577
0
LINE
5
37A
100
AcDbEntity
8
0
100
AcDbLine
62
7
6
CONTINUOUS
10
179.6695807733
20
34.7758405577
11
177.1059823258
21
34.7758405577
0
LINE
5
37B
100
AcDbEntity
8
0
100
AcDbLine
62
7
6
CONTINUOUS
10
174.6695807733
20
34.7758405577
11
172.1059823258
21
34.7758405577
0
LINE
5
37C
100
AcDbEntity
8
0
100
AcDbLine
62
7
6
CONTINUOUS
10
169.6695807733
20
34.7758405577
11
167.1059823258
21
34.7758405577
0
LINE
5
37D
100
AcDbEntity
8
0
100
AcDbLine
62
7
6
CONTINUOUS
10
164.6695807733
20
34.7758405577
11
162.1059823258
21
34.7758405577
0
LINE
5
37E
100
AcDbEntity
8
0
100
AcDbLine
62
7
6
CONTINUOUS
10
159.6695807733
20
34.7758405577
11
157.1059823258
21
34.7758405577
0
LINE
5
37F
100
AcDbEntity
8
0
100
AcDbLine
62
7
6
CONTINUOUS
10
242.2329659910
20
36.6710249991
11
245.4425971081
21
36.6710249991
0
LINE
5
380
100
AcDbEntity
8
0
100
AcDbLine
62
7
6
CONTINUOUS
10
242.4043410120
20
36.8424000201
11
245.2843351915
21
36.8397654556
0
LINE
5
381
100
AcDbEntity
8
0
100
AcDbLine
62
7
6
CONTINUOUS
10
247.6963593559
20
32.2844183640
11
252.4377815496
21
32.2016565318
0
LINE
5
382
100
AcDbEntity
8
0
100
AcDbLine
62
7
6
CONTINUOUS
10
156.0677815496
20
249.0858405577
11
159.2877815496
21
252.3058405577
0
LINE
5
383
100
AcDbEntity
8
0
100
AcDbLine
62
7
6
CONTINUOUS
10
156.0677815496
20
249.0340016596
11
159.3029648113
21
252.2691849214
0
LINE
5
384
100
AcDbEntity
8
0
100
AcDbLine
62
7
6
CONTINUOUS
10
245.2843351915
20
48.7119156598
11
242.4043410120
21
48.7092810953
0
LINE
5
385
100
AcDbEntity
8
0
100
AcDbLine
62
7
6
CONTINUOUS
10
245.4425971081
20
48.8806561163
11
242.2329659910
21
48.8806561163
0
LINE
5
386
100
AcDbEntity
8
0
100
AcDbLine
62
7
6
CONTINUOUS
10
166.2843394293
20
238.4623984374
11
166.2085050065
21
238.3865640146
0
LINE
5
387
100
AcDbEntity
8
0
100
AcDbLine
62
7
6
CONTINUOUS
10
158.3381273869
20
62.6479174274
11
161.1331478478
21
62.6504742595
0
LINE
5
388
100
AcDbEntity
8
0
100
AcDbLine
62
7
6
CONTINUOUS
10
158.3266984275
20
62.5792826780
11
161.2043394293
21
62.5792826780
0
LINE
5
389
100
AcDbEntity
8
0
100
AcDbLine
62
7
6
CONTINUOUS
10
158.4877815496
20
62.8658405577
11
160.9877815496
21
62.8658405577
0
LINE
5
38A
100
AcDbEntity
8
0
100
AcDbLine
62
7
6
CONTINUOUS
10
161.2043394293
20
62.5792826780
11
161.1331478478
21
62.6504742595
0
LINE
5
38B
100
AcDbEntity
8
0
100
AcDbLine
62
7
6
CONTINUOUS
10
150.9877815496
20
195.5358405577
11
155.6234417213
21
200.1715007295
0
LINE
5
38C
100
AcDbEntity
8
0
100
AcDbLine
62
7
6
CONTINUOUS
10
155.6284417213
20
200.1665007295
11
150.9877815496
21
195.5258405577
0
LINE
5
38D
100
AcDbEntity
8
0
100
AcDbLine
62
7
6
CONTINUOUS
10
160.9877815496
20
80.3658405577
11
158.4877815496
21
80.3658405577
0
LINE
5
38E
100
AcDbEntity
8
0
100
AcDbLine
62
7
6
CONTINUOUS
10
161.2043394293
20
80.7123984374
11
158.3266984275
21
80.7123984374
0
LINE
5
38F
100
AcDbEntity
8
0
100
AcDbLine
62
7
6
CONTINUOUS
10
161.1331478478
20
80.6412068559
11
158.3381273869
21
80.6437636880
0
LINE
5
390
100
AcDbEntity
8
0
100
AcDbLine
62
7
6
CONTINUOUS
10
146.4377815496
20
30.3061850110
11
146.4377815496
21
32.3054961044
0
LINE
5
391
100
AcDbEntity
8
0
100
AcDbLine
62
7
6
CONTINUOUS
10
248.1877815496
20
55.7758405577
11
238.9377815496
21
61.1163305477
0
LINE
5
392
100
AcDbEntity
8
0
100
AcDbLine
62
7
6
CONTINUOUS
10
147.4377815496
20
29.3058405577
11
147.4377815496
21
33.3058405577
0
LINE
5
393
100
AcDbEntity
8
0
100
AcDbLine
62
7
6
CONTINUOUS
10
150.9877815496
20
24.7758405577
11
150.9877815496
21
195.5258405577
0
LINE
5
394
100
AcDbEntity
8
0
100
AcDbLine
62
7
6
CONTINUOUS
10
153.0177815496
20
158.7586002771
11
153.0177815496
21
158.3658405577
0
LINE
5
395
100
AcDbEntity
8
0
100
AcDbLine
62
7
6
CONTINUOUS
10
153.0177815496
20
135.3658405577
11
153.0177815496
21
135.0330808383
0
LINE
5
396
100
AcDbEntity
8
0
100
AcDbLine
62
7
6
CONTINUOUS
10
153.1777815496
20
158.7558074668
11
153.1777815496
21
158.3658405577
0
LINE
5
397
100
AcDbEntity
8
0
100
AcDbLine
62
7
6
CONTINUOUS
10
153.1777815496
20
135.3658405577
11
153.1777815496
21
135.0358736487
0
LINE
5
398
100
AcDbEntity
8
0
100
AcDbLine
62
7
6
CONTINUOUS
10
156.0677815496
20
201.2271609013
11
156.0677815496
21
274.7758405577
0
LINE
5
399
100
AcDbEntity
8
0
100
AcDbLine
62
7
6
CONTINUOUS
10
163.4066984275
20
220.3292826780
11
163.4189013313
21
220.4025652238
0
LINE
5
39A
100
AcDbEntity
8
0
100
AcDbLine
62
7
6
CONTINUOUS
10
245.4425971081
20
36.6710249991
11
245.2843256147
21
36.8292964926
0
LINE
5
39B
100
AcDbEntity
8
0
100
AcDbLine
62
7
6
CONTINUOUS
10
158.3266984275
20
80.7123984374
11
158.3381273869
21
80.6437636880
0
LINE
5
39C
100
AcDbEntity
8
0
100
AcDbLine
62
7
6
CONTINUOUS
10
159.8877815496
20
24.7758405577
11
159.6695807733
21
34.7758405577
0
LINE
5
39D
100
AcDbEntity
8
0
100
AcDbLine
62
7
6
CONTINUOUS
10
164.8877815496
20
24.7758405577
11
164.6695807733
21
34.7758405577
0
LINE
5
39E
100
AcDbEntity
8
0
100
AcDbLine
62
7
6
CONTINUOUS
10
158.3266984275
20
80.7123984374
11
158.3266984275
21
62.5792826780
0
LINE
5
39F
100
AcDbEntity
8
0
100
AcDbLine
62
7
6
CONTINUOUS
10
158.3381273869
20
80.6437636880
11
158.3381273869
21
62.6479174274
0
LINE
5
3A0
100
AcDbEntity
8
0
100
AcDbLine
62
7
6
CONTINUOUS
10
158.4877815496
20
80.3658405577
11
158.4877815496
21
62.8658405577
0
LINE
5
3A1
100
AcDbEntity
8
0
100
AcDbLine
62
7
6
CONTINUOUS
10
159.2377815496
20
135.3658405577
11
159.2377815496
21
158.3658405577
0
LINE
5
3A2
100
AcDbEntity
8
0
100
AcDbLine
62
7
6
CONTINUOUS
10
159.4777815496
20
158.6458405577
11
159.4777815496
21
135.1458405577
0
LINE
5
3A3
100
AcDbEntity
8
0
100
AcDbLine
62
7
6
CONTINUOUS
10
160.9877815496
20
62.8658405577
11
160.9877815496
21
80.3658405577
0
LINE
5
3A4
100
AcDbEntity
8
0
100
AcDbLine
62
7
6
CONTINUOUS
10
161.1331478478
20
62.6504742595
11
161.1331478478
21
80.6412068559
0
LINE
5
3A5
100
AcDbEntity
8
0
100
AcDbLine
62
7
6
CONTINUOUS
10
161.2043394293
20
62.5792826780
11
161.2043394293
21
80.7123984374
0
LINE
5
3A6
100
AcDbEntity
8
0
100
AcDbLine
62
7
6
CONTINUOUS
10
163.4066984275
20
238.4623984374
11
163.4066984275
21
220.3292826780
0
LINE
5
3A7
100
AcDbEntity
8
0
100
AcDbLine
62
7
6
CONTINUOUS
10
163.4189013313
20
238.3891158916
11
163.4189013313
21
220.4025652238
0
LINE
5
3A8
100
AcDbEntity
8
0
100
AcDbLine
62
7
6
CONTINUOUS
10
163.5677815496
20
238.1158405577
11
163.5677815496
21
220.6158405577
0
LINE
5
3A9
100
AcDbEntity
8
0
100
AcDbLine
62
7
6
CONTINUOUS
10
163.6877815496
20
252.3058405577
11
163.6877815496
21
255.4058405577
0
LINE
5
3AA
100
AcDbEntity
8
0
100
AcDbLine
62
7
6
CONTINUOUS
10
163.7244371859
20
252.2691849214
11
163.7244371859
21
255.3692262980
0
LINE
5
3AB
100
AcDbEntity
8
0
100
AcDbLine
62
7
6
CONTINUOUS
10
156.8877815496
20
24.7758405577
11
157.1059823258
21
34.7758405577
0
LINE
5
3AC
100
AcDbEntity
8
0
100
AcDbLine
62
7
6
CONTINUOUS
10
161.8877815496
20
24.7758405577
11
162.1059823258
21
34.7758405577
0
LINE
5
3AD
100
AcDbEntity
8
0
100
AcDbLine
62
7
6
CONTINUOUS
10
242.2329659910
20
48.8806561163
11
242.4043410120
21
48.7092810953
0
LINE
5
3AE
100
AcDbEntity
8
0
100
AcDbLine
62
7
6
CONTINUOUS
10
169.8877815496
20
24.7758405577
11
169.6695807733
21
34.7758405577
0
LINE
5
3AF
100
AcDbEntity
8
0
100
AcDbLine
62
7
6
CONTINUOUS
10
174.8877815496
20
24.7758405577
11
174.6695807733
21
34.7758405577
0
LINE
5
3B0
100
AcDbEntity
8
0
100
AcDbLine
62
7
6
CONTINUOUS
10
166.0677815496
20
220.6158405577
11
166.0677815496
21
238.1158405577
0
LINE
5
3B1
100
AcDbEntity
8
0
100
AcDbLine
62
7
6
CONTINUOUS
10
166.2843394293
20
220.3292826780
11
166.2843394293
21
238.4623984374
0
LINE
5
3B2
100
AcDbEntity
8
0
100
AcDbLine
62
7
6
CONTINUOUS
10
166.8877815496
20
24.7758405577
11
167.1059823258
21
34.7758405577
0
LINE
5
3B3
100
AcDbEntity
8
0
100
AcDbLine
62
7
6
CONTINUOUS
10
158.3266984275
20
62.5792826780
11
158.3381273869
21
62.6479174274
0
LINE
5
3B4
100
AcDbEntity
8
0
100
AcDbLine
62
7
6
CONTINUOUS
10
179.8877815496
20
24.7758405577
11
179.6695807733
21
34.7758405577
0
LINE
5
3B5
100
AcDbEntity
8
0
100
AcDbLine
62
7
6
CONTINUOUS
10
184.8877815496
20
24.7758405577
11
184.6695807733
21
34.7758405577
0
LINE
5
3B6
100
AcDbEntity
8
0
100
AcDbLine
62
7
6
CONTINUOUS
10
177.9877815496
20
274.7758405577
11
178.1623321988
21
264.7758405577
0
LINE
5
3B7
100
AcDbEntity
8
0
100
AcDbLine
62
7
6
CONTINUOUS
10
176.0877815496
20
261.1808705338
11
176.0877815496
21
274.7758405577
0
LINE
5
3B8
100
AcDbEntity
8
0
100
AcDbLine
62
7
6
CONTINUOUS
10
176.1244371859
20
274.7758405577
11
176.1244371859
21
261.1675177597
0
LINE
5
3B9
100
AcDbEntity
8
0
100
AcDbLine
62
7
6
CONTINUOUS
10
180.8132309003
20
264.7758405577
11
180.9877815496
21
274.7758405577
0
LINE
5
3BA
100
AcDbEntity
8
0
100
AcDbLine
62
7
6
CONTINUOUS
10
171.8877815496
20
24.7758405577
11
172.1059823258
21
34.7758405577
0
LINE
5
3BB
100
AcDbEntity
8
0
100
AcDbLine
62
7
6
CONTINUOUS
10
176.8877815496
20
24.7758405577
11
177.1059823258
21
34.7758405577
0
LINE
5
3BC
100
AcDbEntity
8
0
100
AcDbLine
62
7
6
CONTINUOUS
10
163.4066984275
20
238.4623984374
11
163.4189013313
21
238.3891158916
0
LINE
5
3BD
100
AcDbEntity
8
0
100
AcDbLine
62
7
6
CONTINUOUS
10
189.8877815496
20
24.7758405577
11
189.6695807733
21
34.7758405577
0
LINE
5
3BE
100
AcDbEntity
8
0
100
AcDbLine
62
7
6
CONTINUOUS
10
194.8877815496
20
24.7758405577
11
194.6695807733
21
34.7758405577
0
LINE
5
3BF
100
AcDbEntity
8
0
100
AcDbLine
62
7
6
CONTINUOUS
10
183.1623321988
20
264.7758405577
11
182.9877815496
21
274.7758405577
0
LINE
5
3C0
100
AcDbEntity
8
0
100
AcDbLine
62
7
6
CONTINUOUS
10
188.1623321988
20
264.7758405577
11
187.9877815496
21
274.7758405577
0
LINE
5
3C1
100
AcDbEntity
8
0
100
AcDbLine
62
7
6
CONTINUOUS
10
185.8132309003
20
264.7758405577
11
185.9877815496
21
274.7758405577
0
LINE
5
3C2
100
AcDbEntity
8
0
100
AcDbLine
62
7
6
CONTINUOUS
10
190.8132309003
20
264.7758405577
11
190.9877815496
21
274.7758405577
0
LINE
5
3C3
100
AcDbEntity
8
0
100
AcDbLine
62
7
6
CONTINUOUS
10
181.8877815496
20
24.7758405577
11
182.1059823258
21
34.7758405577
0
LINE
5
3C4
100
AcDbEntity
8
0
100
AcDbLine
62
7
6
CONTINUOUS
10
186.8877815496
20
24.7758405577
11
187.1059823258
21
34.7758405577
0
LINE
5
3C5
100
AcDbEntity
8
0
100
AcDbLine
62
7
6
CONTINUOUS
10
150.9877815496
20
134.9976470565
11
159.4777815496
21
135.1458405577
0
LINE
5
3C6
100
AcDbEntity
8
0
100
AcDbLine
62
7
6
CONTINUOUS
10
159.2377815496
20
135.3658405577
11
150.9877815496
21
135.3658405577
0
LINE
5
3C7
100
AcDbEntity
8
0
100
AcDbLine
62
7
6
CONTINUOUS
10
199.8877815496
20
24.7758405577
11
199.6695807733
21
34.7758405577
0
LINE
5
3C8
100
AcDbEntity
8
0
100
AcDbLine
62
7
6
CONTINUOUS
10
193.1623321988
20
264.7758405577
11
192.9877815496
21
274.7758405577
0
LINE
5
3C9
100
AcDbEntity
8
0
100
AcDbLine
62
7
6
CONTINUOUS
10
198.1623321988
20
264.7758405577
11
197.9877815496
21
274.7758405577
0
LINE
5
3CA
100
AcDbEntity
8
0
100
AcDbLine
62
7
6
CONTINUOUS
10
195.8132309003
20
264.7758405577
11
195.9877815496
21
274.7758405577
0
LINE
5
3CB
100
AcDbEntity
8
0
100
AcDbLine
62
7
6
CONTINUOUS
10
200.8132309003
20
264.7758405577
11
200.9877815496
21
274.7758405577
0
LINE
5
3CC
100
AcDbEntity
8
0
100
AcDbLine
62
7
6
CONTINUOUS
10
191.8877815496
20
24.7758405577
11
192.1059823258
21
34.7758405577
0
LINE
5
3CD
100
AcDbEntity
8
0
100
AcDbLine
62
7
6
CONTINUOUS
10
196.8877815496
20
24.7758405577
11
197.1059823258
21
34.7758405577
0
LINE
5
3CE
100
AcDbEntity
8
0
100
AcDbLine
62
7
6
CONTINUOUS
10
245.4425971081
20
203.2306561163
11
245.2843256147
21
203.0723846228
0
LINE
5
3CF
100
AcDbEntity
8
0
100
AcDbLine
62
7
6
CONTINUOUS
10
242.2329659910
20
191.0210249991
11
242.4043410120
21
191.1924000201
0
LINE
5
3D0
100
AcDbEntity
8
0
100
AcDbLine
62
7
6
CONTINUOUS
10
238.9377815496
20
180.4353505677
11
248.1877815496
21
185.7758405577
0
LINE
5
3D1
100
AcDbEntity
8
0
100
AcDbLine
62
7
6
CONTINUOUS
10
159.2877815496
20
252.3058405577
11
159.3029648113
21
252.2691849214
0
LINE
5
3D2
100
AcDbEntity
8
0
100
AcDbLine
62
7
6
CONTINUOUS
10
204.8877815496
20
24.7758405577
11
204.6695807733
21
34.7758405577
0
LINE
5
3D3
100
AcDbEntity
8
0
100
AcDbLine
62
7
6
CONTINUOUS
10
209.8877815496
20
24.7758405577
11
209.6695807733
21
34.7758405577
0
LINE
5
3D4
100
AcDbEntity
8
0
100
AcDbLine
62
7
6
CONTINUOUS
10
203.1623321988
20
264.7758405577
11
202.9877815496
21
274.7758405577
0
LINE
5
3D5
100
AcDbEntity
8
0
100
AcDbLine
62
7
6
CONTINUOUS
10
208.1623321988
20
264.7758405577
11
207.9877815496
21
274.7758405577
0
LINE
5
3D6
100
AcDbEntity
8
0
100
AcDbLine
62
7
6
CONTINUOUS
10
205.8132309003
20
264.7758405577
11
205.9877815496
21
274.7758405577
0
LINE
5
3D7
100
AcDbEntity
8
0
100
AcDbLine
62
7
6
CONTINUOUS
10
210.8132309003
20
264.7758405577
11
210.9877815496
21
274.7758405577
0
LINE
5
3D8
100
AcDbEntity
8
0
100
AcDbLine
62
7
6
CONTINUOUS
10
201.8877815496
20
24.7758405577
11
202.1059823258
21
34.7758405577
0
LINE
5
3D9
100
AcDbEntity
8
0
100
AcDbLine
62
7
6
CONTINUOUS
10
206.8877815496
20
24.7758405577
11
207.1059823258
21
34.7758405577
0
LINE
5
3DA
100
AcDbEntity
8
0
100
AcDbLine
62
7
6
CONTINUOUS
10
159.2377815496
20
158.3658405577
11
150.9877815496
21
158.3658405577
0
LINE
5
3DB
100
AcDbEntity
8
0
100
AcDbLine
62
7
6
CONTINUOUS
10
150.9877815496
20
158.7940340589
11
159.4777815496
21
158.6458405577
0
LINE
5
3DC
100
AcDbEntity
8
0
100
AcDbLine
62
7
6
CONTINUOUS
10
248.1877815496
20
133.7758405577
11
238.9377815496
21
139.1163305477
0
LINE
5
3DD
100
AcDbEntity
8
0
100
AcDbLine
62
7
6
CONTINUOUS
10
214.8877815496
20
24.7758405577
11
214.6695807733
21
34.7758405577
0
LINE
5
3DE
100
AcDbEntity
8
0
100
AcDbLine
62
7
6
CONTINUOUS
10
213.1623321988
20
264.7758405577
11
212.9877815496
21
274.7758405577
0
LINE
5
3DF
100
AcDbEntity
8
0
100
AcDbLine
62
7
6
CONTINUOUS
10
219.0191138323
20
24.7758405577
11
219.0191138323
21
24.5758405577
0
LINE
5
3E0
100
AcDbEntity
8
0
100
AcDbLine
62
7
6
CONTINUOUS
10
219.8154896421
20
24.7758405577
11
219.8154896421
21
24.5758405577
0
LINE
5
3E1
100
AcDbEntity
8
0
100
AcDbLine
62
7
6
CONTINUOUS
10
215.8132309003
20
264.7758405577
11
215.9877815496
21
274.7758405577
0
LINE
5
3E2
100
AcDbEntity
8
0
100
AcDbLine
62
7
6
CONTINUOUS
10
220.8132309003
20
264.7758405577
11
220.9877815496
21
274.7758405577
0
LINE
5
3E3
100
AcDbEntity
8
0
100
AcDbLine
62
7
6
CONTINUOUS
10
211.8877815496
20
24.7758405577
11
212.1059823258
21
34.7758405577
0
LINE
5
3E4
100
AcDbEntity
8
0
100
AcDbLine
62
7
6
CONTINUOUS
10
254.8531880184
20
220.9158405577
11
252.3715674029
21
216.1809084233
0
LINE
5
3E5
100
AcDbEntity
8
0
100
AcDbLine
62
7
6
CONTINUOUS
10
218.1623321988
20
264.7758405577
11
217.9877815496
21
274.7758405577
0
LINE
5
3E6
100
AcDbEntity
8
0
100
AcDbLine
62
7
6
CONTINUOUS
10
223.1623321988
20
264.7758405577
11
222.9877815496
21
274.7758405577
0
LINE
5
3E7
100
AcDbEntity
8
0
100
AcDbLine
62
9
6
CONTINUOUS
10
221.0073653645
20
24.7758405577
11
221.0073653645
21
24.5758405577
0
LINE
5
3E8
100
AcDbEntity
8
0
100
AcDbLine
62
7
6
CONTINUOUS
10
221.6060838544
20
24.7758405577
11
221.6060838544
21
24.5758405577
0
LINE
5
3E9
100
AcDbEntity
8
0
100
AcDbLine
62
7
6
CONTINUOUS
10
221.9179506026
20
24.7758405577
11
221.9179506026
21
24.5758405577
0
LINE
5
3EA
100
AcDbEntity
8
0
100
AcDbLine
62
7
6
CONTINUOUS
10
222.0066355958
20
24.7758405577
11
222.0066355958
21
24.5758405577
0
LINE
5
3EB
100
AcDbEntity
8
0
100
AcDbLine
62
7
6
CONTINUOUS
10
222.2489275033
20
24.7758405577
11
222.2489275033
21
24.5758405577
0
LINE
5
3EC
100
AcDbEntity
8
0
100
AcDbLine
62
9
6
CONTINUOUS
10
223.4904896421
20
24.7758405577
11
223.4904896421
21
24.5758405577
0
LINE
5
3ED
100
AcDbEntity
8
0
100
AcDbLine
62
7
6
CONTINUOUS
10
223.8877815496
20
24.7758405577
11
223.8877815496
21
24.5758405577
0
LINE
5
3EE
100
AcDbEntity
8
0
100
AcDbLine
62
7
6
CONTINUOUS
10
225.8132309003
20
264.7758405577
11
225.9877815496
21
274.7758405577
0
LINE
5
3EF
100
AcDbEntity
8
0
100
AcDbLine
62
7
6
CONTINUOUS
10
230.8132309003
20
264.7758405577
11
230.9877815496
21
274.7758405577
0
LINE
5
3F0
100
AcDbEntity
8
0
100
AcDbLine
62
7
6
CONTINUOUS
10
161.2043394293
20
80.7123984374
11
161.1331478478
21
80.6412068559
0
LINE
5
3F1
100
AcDbEntity
8
0
100
AcDbLine
62
7
6
CONTINUOUS
10
166.2843394293
20
220.3292826780
11
166.2085050065
21
220.4051171008
0
LINE
5
3F2
100
AcDbEntity
8
0
100
AcDbLine
62
7
6
CONTINUOUS
10
228.1623321988
20
264.7758405577
11
227.9877815496
21
274.7758405577
0
LINE
5
3F3
100
AcDbEntity
8
0
100
AcDbLine
62
7
6
CONTINUOUS
10
233.1623321988
20
264.7758405577
11
232.9877815496
21
274.7758405577
0
LINE
5
3F4
100
AcDbEntity
8
0
100
AcDbLine
62
7
6
CONTINUOUS
10
237.4377815496
20
25.7758405577
11
237.4377815496
21
28.7758405577
0
LINE
5
3F5
100
AcDbEntity
8
0
100
AcDbLine
62
7
6
CONTINUOUS
10
237.4377815496
20
63.7144067591
11
237.4377815496
21
99.8372743563
0
LINE
5
3F6
100
AcDbEntity
8
0
100
AcDbLine
62
7
6
CONTINUOUS
10
237.4377815496
20
141.7144067591
11
237.4377815496
21
177.8372743563
0
LINE
5
3F7
100
AcDbEntity
8
0
100
AcDbLine
62
7
6
CONTINUOUS
10
235.9877815496
20
274.7758405577
11
235.8132309003
21
264.7758405577
0
LINE
5
3F8
100
AcDbEntity
8
0
100
AcDbLine
62
7
6
CONTINUOUS
10
242.2329659910
20
203.2306561163
11
242.2329659910
21
191.0210249991
0
LINE
5
3F9
100
AcDbEntity
8
0
100
AcDbLine
62
7
6
CONTINUOUS
10
242.2329659910
20
48.8806561163
11
242.2329659910
21
36.6710249991
0
LINE
5
3FA
100
AcDbEntity
8
0
100
AcDbLine
62
7
6
CONTINUOUS
10
242.4043410120
20
203.0592810953
11
242.4043410120
21
191.1924000201
0
LINE
5
3FB
100
AcDbEntity
8
0
100
AcDbLine
62
7
6
CONTINUOUS
10
242.4043410120
20
48.7092810953
11
242.4043410120
21
36.8424000201
0
LINE
5
3FC
100
AcDbEntity
8
0
100
AcDbLine
62
7
6
CONTINUOUS
10
245.2843256147
20
203.0723846228
11
245.2843256147
21
191.1792964926
0
LINE
5
3FD
100
AcDbEntity
8
0
100
AcDbLine
62
7
6
CONTINUOUS
10
245.2843256147
20
48.7223846228
11
245.2843256147
21
36.8292964926
0
LINE
5
3FE
100
AcDbEntity
8
0
100
AcDbLine
62
7
6
CONTINUOUS
10
245.4425971081
20
36.6710249991
11
245.4425971081
21
48.8806561163
0
LINE
5
3FF
100
AcDbEntity
8
0
100
AcDbLine
62
7
6
CONTINUOUS
10
245.4425971081
20
191.0210249991
11
245.4425971081
21
203.2306561163
0
LINE
5
400
100
AcDbEntity
8
0
100
AcDbLine
62
7
6
CONTINUOUS
10
147.4377815496
20
33.3058405577
11
146.4377815496
21
32.3058405577
0
LINE
5
401
100
AcDbEntity
8
0
100
AcDbLine
62
7
6
CONTINUOUS
10
242.2329659910
20
191.0210249991
11
245.4425971081
21
191.0210249991
0
LINE
5
402
100
AcDbEntity
8
0
100
AcDbLine
62
7
6
CONTINUOUS
10
242.4043410120
20
191.1924000201
11
245.2843351915
21
191.1897654556
0
LINE
5
403
100
AcDbEntity
8
0
100
AcDbLine
62
7
6
CONTINUOUS
10
163.6877815496
20
252.3058405577
11
163.7244371859
21
252.2691849214
0
LINE
5
404
100
AcDbEntity
8
0
100
AcDbLine
62
7
6
CONTINUOUS
10
247.5877815496
20
215.0363135967
11
247.5877815496
21
274.7758405577
0
LINE
5
405
100
AcDbEntity
8
0
100
AcDbLine
62
7
6
CONTINUOUS
10
248.1877815496
20
32.2758405577
11
248.1877815496
21
215.0258405577
0
LINE
5
406
100
AcDbEntity
8
0
100
AcDbLine
62
7
6
CONTINUOUS
10
248.3531880184
20
274.7758405577
11
248.3531880184
21
216.1458405577
0
LINE
5
407
100
AcDbEntity
8
0
100
AcDbLine
62
7
6
CONTINUOUS
10
249.3377815496
20
215.0057672330
11
249.3377815496
21
207.7959138824
0
LINE
5
408
100
AcDbEntity
8
0
100
AcDbLine
62
7
6
CONTINUOUS
10
249.3377815496
20
24.7758405577
11
249.3377815496
21
32.2557672330
0
LINE
5
409
100
AcDbEntity
8
0
100
AcDbLine
62
7
6
CONTINUOUS
10
250.3377815496
20
214.9883121681
11
250.3377815496
21
207.8133689473
0
LINE
5
40A
100
AcDbEntity
8
0
100
AcDbLine
62
7
6
CONTINUOUS
10
250.3377815496
20
24.7758405577
11
250.3377815496
21
32.2383121681
0
LINE
5
40B
100
AcDbEntity
8
0
100
AcDbLine
62
7
6
CONTINUOUS
10
252.0377815496
20
214.9586385577
11
252.0377815496
21
207.8430425577
0
LINE
5
40C
100
AcDbEntity
8
0
100
AcDbLine
62
7
6
CONTINUOUS
10
252.0377815496
20
24.7758405577
11
252.0377815496
21
32.2086385577
0
LINE
5
40D
100
AcDbEntity
8
0
100
AcDbLine
62
7
6
CONTINUOUS
10
252.3556429590
20
274.7409116626
11
252.3556429590
21
216.1807694528
0
LINE
5
40E
100
AcDbEntity
8
0
100
AcDbLine
62
7
6
CONTINUOUS
10
252.4377815496
20
214.9516565318
11
252.4377815496
21
207.8500245837
0
LINE
5
40F
100
AcDbEntity
8
0
100
AcDbLine
62
7
6
CONTINUOUS
10
252.4377815496
20
24.7758405577
11
252.4377815496
21
32.2016565318
0
LINE
5
410
100
AcDbEntity
8
0
100
AcDbLine
62
7
6
CONTINUOUS
10
254.8531880184
20
274.7191159171
11
254.8531880184
21
220.9158405577
0
LINE
5
411
100
AcDbEntity
8
0
100
AcDbLine
62
7
6
CONTINUOUS
10
245.2843351915
20
203.0619156598
11
242.4043410120
21
203.0592810953
0
LINE
5
412
100
AcDbEntity
8
0
100
AcDbLine
62
7
6
CONTINUOUS
10
245.4425971081
20
203.2306561163
11
242.2329659910
21
203.2306561163
0
LINE
5
413
100
AcDbEntity
8
0
100
AcDbLine
62
7
6
CONTINUOUS
10
238.9377815496
20
102.4353505677
11
248.1877815496
21
107.7758405577
0
LINE
5
414
100
AcDbEntity
8
0
100
AcDbLine
62
7
6
CONTINUOUS
10
248.1877815496
20
207.7758405577
11
252.4377815496
21
207.8500245837
0
LINE
5
415
100
AcDbEntity
8
0
100
AcDbLine
62
9
6
CONTINUOUS
10
249.3377815496
20
210.7954569678
11
248.1877815496
21
210.7753836432
0
LINE
5
416
100
AcDbEntity
8
0
100
AcDbLine
62
7
6
CONTINUOUS
10
245.4425971081
20
191.0210249991
11
245.2843256147
21
191.1792964926
0
LINE
5
417
100
AcDbEntity
8
0
100
AcDbLine
62
7
6
CONTINUOUS
10
252.3556429590
20
216.1807694528
11
248.3531880184
21
216.1458405577
0
LINE
5
418
100
AcDbEntity
8
0
100
AcDbLine
62
7
6
CONTINUOUS
10
163.4189013313
20
220.4025652238
11
166.2085050065
21
220.4051171008
0
LINE
5
419
100
AcDbEntity
8
0
100
AcDbLine
62
7
6
CONTINUOUS
10
163.4066984275
20
220.3292826780
11
166.2843394293
21
220.3292826780
0
LINE
5
41A
100
AcDbEntity
8
0
100
AcDbLine
62
7
6
CONTINUOUS
10
163.5677815496
20
220.6158405577
11
166.0677815496
21
220.6158405577
0
LINE
5
41B
100
AcDbEntity
8
0
100
AcDbLine
62
7
6
CONTINUOUS
10
248.3531880184
20
217.0108405577
11
247.5877815496
21
217.0175201588
0
LINE
5
41C
100
AcDbEntity
8
0
100
AcDbLine
62
7
6
CONTINUOUS
10
247.5877815496
20
215.0363135967
11
252.4377815496
21
214.9516565318
0
LINE
5
41D
100
AcDbEntity
8
0
100
AcDbLine
62
7
6
CONTINUOUS
10
242.2329659910
20
203.2306561163
11
242.4043410120
21
203.0592810953
0
LINE
5
41E
100
AcDbEntity
8
0
100
AcDbLine
62
7
6
CONTINUOUS
10
166.0677815496
20
238.1158405577
11
163.5677815496
21
238.1158405577
0
LINE
5
41F
100
AcDbEntity
8
0
100
AcDbLine
62
7
6
CONTINUOUS
10
166.2843394293
20
238.4623984374
11
163.4066984275
21
238.4623984374
0
LINE
5
420
100
AcDbEntity
8
0
100
AcDbLine
62
7
6
CONTINUOUS
10
166.2085050065
20
238.3865640146
11
163.4189013313
21
238.3891158916
0
LINE
5
421
100
AcDbEntity
8
0
100
AcDbLine
62
7
6
CONTINUOUS
10
176.0877815496
20
261.1808705338
11
176.1244371859
21
261.1675177597
0
LINE
5
422
100
AcDbEntity
8
0
100
AcDbLine
62
7
6
CONTINUOUS
10
245.4425971081
20
48.8806561163
11
245.2843256147
21
48.7223846228
0
LINE
5
423
100
AcDbEntity
8
0
100
AcDbLine
62
7
6
CONTINUOUS
10
242.2329659910
20
36.6710249991
11
242.4043410120
21
36.8424000201
0
LINE
5
424
100
AcDbEntity
8
0
100
AcDbLine
62
7
6
CONTINUOUS
10
159.3029648113
20
252.2691849214
11
163.7244371859
21
252.2691849214
0
LINE
5
425
100
AcDbEntity
8
0
100
AcDbLine
62
7
6
CONTINUOUS
10
159.2877815496
20
252.3058405577
11
163.6877815496
21
252.3058405577
0
LINE
5
426
100
AcDbEntity
8
0
100
AcDbLine
62
7
6
CONTINUOUS
10
236.4377815496
20
24.7758405577
11
237.4377815496
21
25.7758405577
0
LINE
5
427
100
AcDbEntity
8
0
100
AcDbLine
62
7
6
CONTINUOUS
10
247.1877815496
20
31.7758405577
11
248.1877815496
21
32.7758405577
0
LINE
5
428
100
AcDbEntity
8
0
100
AcDbLine
62
7
6
CONTINUOUS
10
178.1623321988
20
264.7758405577
11
180.8132309003
21
264.7758405577
0
LINE
5
429
100
AcDbEntity
8
0
100
AcDbLine
62
7
6
CONTINUOUS
10
183.1623321988
20
264.7758405577
11
185.8132309003
21
264.7758405577
0
LINE
5
42A
100
AcDbEntity
8
0
100
AcDbLine
62
7
6
CONTINUOUS
10
188.1623321988
20
264.7758405577
11
190.8132309003
21
264.7758405577
0
LINE
5
42B
100
AcDbEntity
8
0
100
AcDbLine
62
7
6
CONTINUOUS
10
193.1623321988
20
264.7758405577
11
195.8132309003
21
264.7758405577
0
LINE
5
42C
100
AcDbEntity
8
0
100
AcDbLine
62
7
6
CONTINUOUS
10
198.1623321988
20
264.7758405577
11
200.8132309003
21
264.7758405577
0
LINE
5
42D
100
AcDbEntity
8
0
100
AcDbLine
62
7
6
CONTINUOUS
10
203.1623321988
20
264.7758405577
11
205.8132309003
21
264.7758405577
0
LINE
5
42E
100
AcDbEntity
8
0
100
AcDbLine
62
7
6
CONTINUOUS
10
208.1623321988
20
264.7758405577
11
210.8132309003
21
264.7758405577
0
LINE
5
42F
100
AcDbEntity
8
0
100
AcDbLine
62
7
6
CONTINUOUS
10
213.1623321988
20
264.7758405577
11
215.8132309003
21
264.7758405577
0
LINE
5
430
100
AcDbEntity
8
0
100
AcDbLine
62
7
6
CONTINUOUS
10
218.1623321988
20
264.7758405577
11
220.8132309003
21
264.7758405577
0
LINE
5
431
100
AcDbEntity
8
0
100
AcDbLine
62
7
6
CONTINUOUS
10
223.1623321988
20
264.7758405577
11
225.8132309003
21
264.7758405577
0
LINE
5
432
100
AcDbEntity
8
0
100
AcDbLine
62
7
6
CONTINUOUS
10
228.1623321988
20
264.7758405577
11
230.8132309003
21
264.7758405577
0
LINE
5
433
100
AcDbEntity
8
0
100
AcDbLine
62
7
6
CONTINUOUS
10
233.1623321988
20
264.7758405577
11
235.8132309003
21
264.7758405577
0
LINE
5
434
100
AcDbEntity
8
0
100
AcDbLine
62
7
6
CONTINUOUS
10
248.3531880184
20
273.9108405577
11
247.5877815496
21
273.9041609566
0
LINE
5
435
100
AcDbEntity
8
0
100
AcDbLine
62
7
6
CONTINUOUS
10
161.7919880691
20
273.7025069418
11
165.5835750301
21
273.7025069418
0
LINE
5
436
100
AcDbEntity
8
0
100
AcDbLine
62
7
6
CONTINUOUS
10
233.0052366145
20
273.7758405577
11
230.9703264846
21
273.7758405577
0
LINE
5
437
100
AcDbEntity
8
0
100
AcDbLine
62
7
6
CONTINUOUS
10
228.0052366145
20
273.7758405577
11
225.9703264846
21
273.7758405577
0
LINE
5
438
100
AcDbEntity
8
0
100
AcDbLine
62
7
6
CONTINUOUS
10
223.0052366145
20
273.7758405577
11
220.9703264846
21
273.7758405577
0
LINE
5
439
100
AcDbEntity
8
0
100
AcDbLine
62
7
6
CONTINUOUS
10
218.0052366145
20
273.7758405577
11
215.9703264846
21
273.7758405577
0
LINE
5
43A
100
AcDbEntity
8
0
100
AcDbLine
62
7
6
CONTINUOUS
10
213.0052366145
20
273.7758405577
11
210.9703264846
21
273.7758405577
0
LINE
5
43B
100
AcDbEntity
8
0
100
AcDbLine
62
7
6
CONTINUOUS
10
208.0052366145
20
273.7758405577
11
205.9703264846
21
273.7758405577
0
LINE
5
43C
100
AcDbEntity
8
0
100
AcDbLine
62
7
6
CONTINUOUS
10
203.0052366145
20
273.7758405577
11
200.9703264846
21
273.7758405577
0
LINE
5
43D
100
AcDbEntity
8
0
100
AcDbLine
62
7
6
CONTINUOUS
10
198.0052366145
20
273.7758405577
11
195.9703264846
21
273.7758405577
0
LINE
5
43E
100
AcDbEntity
8
0
100
AcDbLine
62
7
6
CONTINUOUS
10
193.0052366145
20
273.7758405577
11
190.9703264846
21
273.7758405577
0
LINE
5
43F
100
AcDbEntity
8
0
100
AcDbLine
62
7
6
CONTINUOUS
10
188.0052366145
20
273.7758405577
11
185.9703264846
21
273.7758405577
0
LINE
5
440
100
AcDbEntity
8
0
100
AcDbLine
62
7
6
CONTINUOUS
10
183.0052366145
20
273.7758405577
11
180.9703264846
21
273.7758405577
0
LINE
5
441
100
AcDbEntity
8
0
100
AcDbLine
62
7
6
CONTINUOUS
10
161.7639572333
20
273.7758405577
11
165.6116058659
21
273.7758405577
0
LINE
5
442
100
AcDbEntity
8
0
100
AcDbLine
62
7
6
CONTINUOUS
10
177.9965093479
20
274.2758253262
11
180.9790537512
21
274.2758253262
0
LINE
5
443
100
AcDbEntity
8
0
100
AcDbLine
62
7
6
CONTINUOUS
10
182.9965093479
20
274.2758253262
11
185.9790537512
21
274.2758253262
0
LINE
5
444
100
AcDbEntity
8
0
100
AcDbLine
62
7
6
CONTINUOUS
10
187.9965093479
20
274.2758253262
11
190.9790537512
21
274.2758253262
0
LINE
5
445
100
AcDbEntity
8
0
100
AcDbLine
62
7
6
CONTINUOUS
10
192.9965093479
20
274.2758253262
11
195.9790537512
21
274.2758253262
0
LINE
5
446
100
AcDbEntity
8
0
100
AcDbLine
62
7
6
CONTINUOUS
10
197.9965093479
20
274.2758253262
11
200.9790537512
21
274.2758253262
0
LINE
5
447
100
AcDbEntity
8
0
100
AcDbLine
62
7
6
CONTINUOUS
10
202.9965093479
20
274.2758253262
11
205.9790537512
21
274.2758253262
0
LINE
5
448
100
AcDbEntity
8
0
100
AcDbLine
62
7
6
CONTINUOUS
10
207.9965093479
20
274.2758253262
11
210.9790537512
21
274.2758253262
0
LINE
5
449
100
AcDbEntity
8
0
100
AcDbLine
62
7
6
CONTINUOUS
10
212.9965093479
20
274.2758253262
11
215.9790537512
21
274.2758253262
0
LINE
5
44A
100
AcDbEntity
8
0
100
AcDbLine
62
7
6
CONTINUOUS
10
217.9965093479
20
274.2758253262
11
220.9790537512
21
274.2758253262
0
LINE
5
44B
100
AcDbEntity
8
0
100
AcDbLine
62
7
6
CONTINUOUS
10
222.9965093479
20
274.2758253262
11
225.9790537512
21
274.2758253262
0
LINE
5
44C
100
AcDbEntity
8
0
100
AcDbLine
62
7
6
CONTINUOUS
10
227.9965093479
20
274.2758253262
11
230.9790537512
21
274.2758253262
0
LINE
5
44D
100
AcDbEntity
8
0
100
AcDbLine
62
7
6
CONTINUOUS
10
232.9965093479
20
274.2758253262
11
235.9790537512
21
274.2758253262
0
LINE
5
44E
100
AcDbEntity
8
0
100
AcDbLine
62
7
6
CONTINUOUS
10
235.9825450301
20
274.4758405577
11
232.9930180690
21
274.4758405577
0
LINE
5
44F
100
AcDbEntity
8
0
100
AcDbLine
62
7
6
CONTINUOUS
10
230.9825450301
20
274.4758405577
11
227.9930180690
21
274.4758405577
0
LINE
5
450
100
AcDbEntity
8
0
100
AcDbLine
62
7
6
CONTINUOUS
10
225.9825450301
20
274.4758405577
11
222.9930180690
21
274.4758405577
0
LINE
5
451
100
AcDbEntity
8
0
100
AcDbLine
62
7
6
CONTINUOUS
10
220.9825450301
20
274.4758405577
11
217.9930180690
21
274.4758405577
0
LINE
5
452
100
AcDbEntity
8
0
100
AcDbLine
62
7
6
CONTINUOUS
10
215.9825450301
20
274.4758405577
11
212.9930180690
21
274.4758405577
0
LINE
5
453
100
AcDbEntity
8
0
100
AcDbLine
62
7
6
CONTINUOUS
10
210.9825450301
20
274.4758405577
11
207.9930180690
21
274.4758405577
0
LINE
5
454
100
AcDbEntity
8
0
100
AcDbLine
62
7
6
CONTINUOUS
10
205.9825450301
20
274.4758405577
11
202.9930180690
21
274.4758405577
0
LINE
5
455
100
AcDbEntity
8
0
100
AcDbLine
62
7
6
CONTINUOUS
10
200.9825450301
20
274.4758405577
11
197.9930180690
21
274.4758405577
0
LINE
5
456
100
AcDbEntity
8
0
100
AcDbLine
62
7
6
CONTINUOUS
10
195.9825450301
20
274.4758405577
11
192.9930180690
21
274.4758405577
0
LINE
5
457
100
AcDbEntity
8
0
100
AcDbLine
62
7
6
CONTINUOUS
10
190.9825450301
20
274.4758405577
11
187.9930180690
21
274.4758405577
0
LINE
5
458
100
AcDbEntity
8
0
100
AcDbLine
62
7
6
CONTINUOUS
10
185.9825450301
20
274.4758405577
11
182.9930180690
21
274.4758405577
0
LINE
5
459
100
AcDbEntity
8
0
100
AcDbLine
62
7
6
CONTINUOUS
10
180.9825450301
20
274.4758405577
11
177.9930180690
21
274.4758405577
0
LINE
5
45A
100
AcDbEntity
8
0
100
AcDbLine
62
7
6
CONTINUOUS
10
247.5877815496
20
274.7758405577
11
235.9877815496
21
274.7758405577
0
LINE
5
45B
100
AcDbEntity
8
0
100
AcDbLine
62
7
6
CONTINUOUS
10
232.9877815496
20
274.7758405577
11
230.9877815496
21
274.7758405577
0
LINE
5
45C
100
AcDbEntity
8
0
100
AcDbLine
62
7
6
CONTINUOUS
10
227.9877815496
20
274.7758405577
11
225.9877815496
21
274.7758405577
0
LINE
5
45D
100
AcDbEntity
8
0
100
AcDbLine
62
7
6
CONTINUOUS
10
222.9877815496
20
274.7758405577
11
220.9877815496
21
274.7758405577
0
LINE
5
45E
100
AcDbEntity
8
0
100
AcDbLine
62
7
6
CONTINUOUS
10
217.9877815496
20
274.7758405577
11
215.9877815496
21
274.7758405577
0
LINE
5
45F
100
AcDbEntity
8
0
100
AcDbLine
62
7
6
CONTINUOUS
10
212.9877815496
20
274.7758405577
11
210.9877815496
21
274.7758405577
0
LINE
5
460
100
AcDbEntity
8
0
100
AcDbLine
62
7
6
CONTINUOUS
10
207.9877815496
20
274.7758405577
11
205.9877815496
21
274.7758405577
0
LINE
5
461
100
AcDbEntity
8
0
100
AcDbLine
62
7
6
CONTINUOUS
10
202.9877815496
20
274.7758405577
11
200.9877815496
21
274.7758405577
0
LINE
5
462
100
AcDbEntity
8
0
100
AcDbLine
62
7
6
CONTINUOUS
10
197.9877815496
20
274.7758405577
11
195.9877815496
21
274.7758405577
0
LINE
5
463
100
AcDbEntity
8
0
100
AcDbLine
62
7
6
CONTINUOUS
10
192.9877815496
20
274.7758405577
11
190.9877815496
21
274.7758405577
0
LINE
5
464
100
AcDbEntity
8
0
100
AcDbLine
62
7
6
CONTINUOUS
10
187.9877815496
20
274.7758405577
11
185.9877815496
21
274.7758405577
0
LINE
5
465
100
AcDbEntity
8
0
100
AcDbLine
62
7
6
CONTINUOUS
10
182.9877815496
20
274.7758405577
11
180.9877815496
21
274.7758405577
0
LINE
5
466
100
AcDbEntity
8
0
100
AcDbLine
62
7
6
CONTINUOUS
10
156.0677815496
20
274.7758405577
11
177.9877815496
21
274.7758405577
0
LINE
5
467
100
AcDbEntity
8
0
100
AcDbLine
62
7
6
CONTINUOUS
10
254.8531880184
20
274.7191159171
11
248.3531880184
21
274.7758405577
0
CIRCLE
5
468
100
AcDbEntity
8
0
100
AcDbCircle
62
7
6
CONTINUOUS
10
77.1097255296
20
95.2858405577
40
1.2000000000
0
CIRCLE
5
469
100
AcDbEntity
8
0
100
AcDbCircle
62
7
6
CONTINUOUS
10
77.1097255296
20
95.2858405577
40
2.5000000000
0
CIRCLE
5
46A
100
AcDbEntity
8
0
100
AcDbCircle
62
7
6
CONTINUOUS
10
77.1097255296
20
158.7858405577
40
1.2000000000
0
CIRCLE
5
46B
100
AcDbEntity
8
0
100
AcDbCircle
62
7
6
CONTINUOUS
10
77.1097255296
20
158.7858405577
40
2.5000000000
0
CIRCLE
5
46C
100
AcDbEntity
8
0
100
AcDbCircle
62
7
6
CONTINUOUS
10
71.8235255296
20
31.3058405577
40
4.2500000000
0
ARC
5
46D
100
AcDbEntity
8
0
100
AcDbCircle
62
7
6
CONTINUOUS
10
79.1118894885
20
151.9151405577
40
1.9475360411
100
AcDbArc
50
0.0000000002
51
80.0000000000
0
ARC
5
46E
100
AcDbEntity
8
0
100
AcDbCircle
62
7
6
CONTINUOUS
10
75.7000255296
20
151.9151405577
40
2.5400000000
100
AcDbArc
50
80.0000000000
51
180.0000000000
0
ARC
5
46F
100
AcDbEntity
8
0
100
AcDbCircle
62
7
6
CONTINUOUS
10
75.7000255296
20
102.1565405577
40
2.5400000000
100
AcDbArc
50
180.0000000000
51
280.0000000000
0
ARC
5
470
100
AcDbEntity
8
0
100
AcDbCircle
62
7
6
CONTINUOUS
10
79.1118894885
20
102.1565405577
40
1.9475360411
100
AcDbArc
50
279.9999999999
51
359.9999999999
0
CIRCLE
5
471
100
AcDbEntity
8
0
100
AcDbCircle
62
7
6
CONTINUOUS
10
78.5321255296
20
128.4328405577
40
0.7112000000
0
CIRCLE
5
472
100
AcDbEntity
8
0
100
AcDbCircle
62
7
6
CONTINUOUS
10
75.6873255296
20
129.8044405577
40
0.7112000000
0
CIRCLE
5
473
100
AcDbEntity
8
0
100
AcDbCircle
62
7
6
CONTINUOUS
10
78.5321255296
20
125.6388405577
40
0.7112000000
0
CIRCLE
5
474
100
AcDbEntity
8
0
100
AcDbCircle
62
7
6
CONTINUOUS
10
75.6873255296
20
124.2672405577
40
0.7112000000
0
CIRCLE
5
475
100
AcDbEntity
8
0
100
AcDbCircle
62
7
6
CONTINUOUS
10
75.6873255296
20
127.0358405577
40
0.7112000000
0
CIRCLE
5
476
100
AcDbEntity
8
0
100
AcDbCircle
62
7
6
CONTINUOUS
10
75.6873255296
20
121.4732405577
40
0.7112000000
0
CIRCLE
5
477
100
AcDbEntity
8
0
100
AcDbCircle
62
7
6
CONTINUOUS
10
75.6873255296
20
118.6792405577
40
0.7112000000
0
CIRCLE
5
478
100
AcDbEntity
8
0
100
AcDbCircle
62
7
6
CONTINUOUS
10
75.6873255296
20
115.8852405577
40
0.7112000000
0
CIRCLE
5
479
100
AcDbEntity
8
0
100
AcDbCircle
62
7
6
CONTINUOUS
10
75.6873255296
20
113.0912405577
40
0.7112000000
0
CIRCLE
5
47A
100
AcDbEntity
8
0
100
AcDbCircle
62
7
6
CONTINUOUS
10
75.6873255296
20
110.2972405577
40
0.7112000000
0
CIRCLE
5
47B
100
AcDbEntity
8
0
100
AcDbCircle
62
7
6
CONTINUOUS
10
75.6873255296
20
107.5032405577
40
0.7112000000
0
CIRCLE
5
47C
100
AcDbEntity
8
0
100
AcDbCircle
62
7
6
CONTINUOUS
10
75.6873255296
20
104.7092405577
40
0.7112000000
0
CIRCLE
5
47D
100
AcDbEntity
8
0
100
AcDbCircle
62
7
6
CONTINUOUS
10
75.6873255296
20
101.9152405577
40
0.7112000000
0
CIRCLE
5
47E
100
AcDbEntity
8
0
100
AcDbCircle
62
7
6
CONTINUOUS
10
78.5321255296
20
122.8448405577
40
0.7112000000
0
CIRCLE
5
47F
100
AcDbEntity
8
0
100
AcDbCircle
62
7
6
CONTINUOUS
10
78.5321255296
20
120.0508405577
40
0.7112000000
0
CIRCLE
5
480
100
AcDbEntity
8
0
100
AcDbCircle
62
7
6
CONTINUOUS
10
78.5321255296
20
117.2568405577
40
0.7112000000
0
CIRCLE
5
481
100
AcDbEntity
8
0
100
AcDbCircle
62
7
6
CONTINUOUS
10
78.5321255296
20
114.4628405577
40
0.7112000000
0
CIRCLE
5
482
100
AcDbEntity
8
0
100
AcDbCircle
62
7
6
CONTINUOUS
10
78.5321255296
20
111.6688405577
40
0.7112000000
0
CIRCLE
5
483
100
AcDbEntity
8
0
100
AcDbCircle
62
7
6
CONTINUOUS
10
78.5321255296
20
150.7848405577
40
0.7112000000
0
CIRCLE
5
484
100
AcDbEntity
8
0
100
AcDbCircle
62
7
6
CONTINUOUS
10
78.5321255296
20
147.9908405577
40
0.7112000000
0
CIRCLE
5
485
100
AcDbEntity
8
0
100
AcDbCircle
62
7
6
CONTINUOUS
10
78.5321255296
20
145.1968405577
40
0.7112000000
0
CIRCLE
5
486
100
AcDbEntity
8
0
100
AcDbCircle
62
7
6
CONTINUOUS
10
78.5321255296
20
142.4028405577
40
0.7112000000
0
CIRCLE
5
487
100
AcDbEntity
8
0
100
AcDbCircle
62
7
6
CONTINUOUS
10
78.5321255296
20
139.6088405577
40
0.7112000000
0
CIRCLE
5
488
100
AcDbEntity
8
0
100
AcDbCircle
62
7
6
CONTINUOUS
10
78.5321255296
20
136.8148405577
40
0.7112000000
0
CIRCLE
5
489
100
AcDbEntity
8
0
100
AcDbCircle
62
7
6
CONTINUOUS
10
78.5321255296
20
134.0208405577
40
0.7112000000
0
CIRCLE
5
48A
100
AcDbEntity
8
0
100
AcDbCircle
62
7
6
CONTINUOUS
10
78.5321255296
20
131.2268405577
40
0.7112000000
0
CIRCLE
5
48B
100
AcDbEntity
8
0
100
AcDbCircle
62
7
6
CONTINUOUS
10
75.6873255296
20
152.1564405577
40
0.7112000000
0
CIRCLE
5
48C
100
AcDbEntity
8
0
100
AcDbCircle
62
7
6
CONTINUOUS
10
75.6873255296
20
149.3624405577
40
0.7112000000
0
CIRCLE
5
48D
100
AcDbEntity
8
0
100
AcDbCircle
62
7
6
CONTINUOUS
10
75.6873255296
20
146.5684405577
40
0.7112000000
0
CIRCLE
5
48E
100
AcDbEntity
8
0
100
AcDbCircle
62
7
6
CONTINUOUS
10
75.6873255296
20
143.7744405577
40
0.7112000000
0
CIRCLE
5
48F
100
AcDbEntity
8
0
100
AcDbCircle
62
7
6
CONTINUOUS
10
75.6873255296
20
140.9804405577
40
0.7112000000
0
CIRCLE
5
490
100
AcDbEntity
8
0
100
AcDbCircle
62
7
6
CONTINUOUS
10
75.6873255296
20
138.1864405577
40
0.7112000000
0
CIRCLE
5
491
100
AcDbEntity
8
0
100
AcDbCircle
62
7
6
CONTINUOUS
10
75.6873255296
20
135.3924405577
40
0.7112000000
0
CIRCLE
5
492
100
AcDbEntity
8
0
100
AcDbCircle
62
7
6
CONTINUOUS
10
75.6873255296
20
132.5984405577
40
0.7112000000
0
CIRCLE
5
493
100
AcDbEntity
8
0
100
AcDbCircle
62
7
6
CONTINUOUS
10
78.5321255296
20
103.2868405577
40
0.7112000000
0
CIRCLE
5
494
100
AcDbEntity
8
0
100
AcDbCircle
62
7
6
CONTINUOUS
10
78.5321255296
20
106.0808405577
40
0.7112000000
0
CIRCLE
5
495
100
AcDbEntity
8
0
100
AcDbCircle
62
7
6
CONTINUOUS
10
78.5321255296
20
108.8748405577
40
0.7112000000
0
ARC
5
496
100
AcDbEntity
8
0
100
AcDbCircle
62
9
6
CONTINUOUS
10
79.1118894885
20
102.1565405577
40
1.6935360411
100
AcDbArc
50
279.9999999999
51
359.9999999999
0
ARC
5
497
100
AcDbEntity
8
0
100
AcDbCircle
62
9
6
CONTINUOUS
10
75.7000255296
20
102.1565405577
40
2.2860000000
100
AcDbArc
50
180.0000000000
51
280.0000000001
0
ARC
5
498
100
AcDbEntity
8
0
100
AcDbCircle
62
9
6
CONTINUOUS
10
75.7000255296
20
151.9151405577
40
2.2860000000
100
AcDbArc
50
79.9999999999
51
180.0000000001
0
ARC
5
499
100
AcDbEntity
8
0
100
AcDbCircle
62
9
6
CONTINUOUS
10
79.1118894885
20
151.9151405577
40
1.6935360411
100
AcDbArc
50
0.0000000000
51
80.0000000001
0
ARC
5
49A
100
AcDbEntity
8
0
100
AcDbCircle
62
7
6
CONTINUOUS
10
77.1135255296
20
95.2758405577
40
3.0000000000
100
AcDbArc
50
180.0000000000
51
360.0000000000
0
ARC
5
49B
100
AcDbEntity
8
0
100
AcDbCircle
62
7
6
CONTINUOUS
10
81.1135255296
20
99.0258405577
40
2.0000000000
100
AcDbArc
50
270.0000000000
51
360.0000000000
0
ARC
5
49C
100
AcDbEntity
8
0
100
AcDbCircle
62
7
6
CONTINUOUS
10
81.1135255296
20
155.0258405577
40
2.0000000000
100
AcDbArc
50
0.0000000000
51
90.0000000000
0
ARC
5
49D
100
AcDbEntity
8
0
100
AcDbCircle
62
7
6
CONTINUOUS
10
77.1135255296
20
158.7758405577
40
3.0000000000
100
AcDbArc
50
0.0000000000
51
180.0000000000
0
ARC
5
49E
100
AcDbEntity
8
0
100
AcDbCircle
62
7
6
CONTINUOUS
10
73.1135255296
20
155.0258405577
40
2.0000000000
100
AcDbArc
50
90.0000000000
51
180.0000000000
0
ARC
5
49F
100
AcDbEntity
8
0
100
AcDbCircle
62
7
6
CONTINUOUS
10
73.1135255296
20
99.0258405577
40
2.0000000000
100
AcDbArc
50
180.0000000000
51
270.0000000000
0
CIRCLE
5
4A0
100
AcDbEntity
8
0
100
AcDbCircle
62
7
6
CONTINUOUS
10
71.8235255296
20
31.3058405577
40
4.4000000000
0
CIRCLE
5
4A1
100
AcDbEntity
8
0
100
AcDbCircle
62
7
6
CONTINUOUS
10
71.8235255296
20
31.3058405577
40
4.6096311171
0
ARC
5
4A2
100
AcDbEntity
8
0
100
AcDbCircle
62
7
6
CONTINUOUS
10
240.4377815496
20
177.8372743563
40
3.0000000000
100
AcDbArc
50
120.0000000000
51
180.0000000000
0
ARC
5
4A3
100
AcDbEntity
8
0
100
AcDbCircle
62
7
6
CONTINUOUS
10
240.4377815496
20
141.7144067591
40
3.0000000000
100
AcDbArc
50
180.0000000000
51
240.0000000000
0
ARC
5
4A4
100
AcDbEntity
8
0
100
AcDbCircle
62
7
6
CONTINUOUS
10
240.4377815496
20
99.8372743563
40
3.0000000000
100
AcDbArc
50
120.0000000000
51
180.0000000000
0
ARC
5
4A5
100
AcDbEntity
8
0
100
AcDbCircle
62
7
6
CONTINUOUS
10
240.4377815496
20
63.7144067591
40
3.0000000000
100
AcDbArc
50
180.0000000000
51
240.0000000000
0
ARC
5
4A6
100
AcDbEntity
8
0
100
AcDbCircle
62
7
6
CONTINUOUS
10
240.4377815496
20
28.7758405577
40
3.0000000000
100
AcDbArc
50
90.0000000000
51
180.0000000000
0
ARC
5
4A7
100
AcDbEntity
8
0
100
AcDbCircle
62
7
6
CONTINUOUS
10
154.5677815496
20
201.2271609013
40
1.5000000000
100
AcDbArc
50
315.0000000000
51
360.0000000000
0
ARC
5
4A8
100
AcDbEntity
8
0
100
AcDbCircle
62
7
6
CONTINUOUS
10
163.6877815496
20
271.6058405577
40
16.2366556363
100
AcDbArc
50
270.1293502239
51
319.9926212045
0
ARC
5
4A9
100
AcDbEntity
8
0
100
AcDbCircle
62
7
6
CONTINUOUS
10
163.6877815496
20
271.6058405577
40
16.2000000000
100
AcDbArc
50
270.0000000000
51
319.9454487635
0
ARC
5
4AA
100
AcDbEntity
8
0
100
AcDbCircle
62
7
6
CONTINUOUS
10
163.6877815496
20
271.6058405577
40
2.8266663841
100
AcDbArc
50
132.1197023263
51
47.8802976737
0
ARC
5
4AB
100
AcDbEntity
8
0
100
AcDbCircle
62
7
6
CONTINUOUS
10
163.6877815496
20
271.6058405577
40
2.9000000000
100
AcDbArc
50
131.5587523445
51
48.4412476555
0
SPLINE
5
4AC
100
AcDbEntity
8
0
100
AcDbSpline
62
7
6
CONTINUOUS
70
0
71
3
72
14
73
10
74
8
42
0.0000001000
43
0.0000001000
44
0.0000000001
12
0.0131325916
22
-1.4986433366
32
0.0000000000
13
0.0038473285
23
-1.4986959376
33
0.0000000000
40
0.0000000000
40
0.0000000000
40
0.0000000000
40
0.0000000000
40
0.1530820895
40
0.2966986830
40
0.4349631331
40
0.5722298290
40
0.7118808956
40
0.8549409705
40
1.0000000000
40
1.0000000000
40
1.0000000000
40
1.0000000000
10
72.3139618146
20
33.5476202526
30
0.0000000000
10
72.3146319361
20
33.4711484348
30
0.0000000000
10
72.3158530543
20
33.3229325749
30
0.0000000000
10
72.3174305758
20
33.1056450625
30
0.0000000000
10
72.3187619768
20
32.8962569069
30
0.0000000000
10
72.3199027914
20
32.6888487047
30
0.0000000000
10
72.3208800481
20
32.4790439047
30
0.0000000000
10
72.3216956760
20
32.2653455938
30
0.0000000000
10
72.3221243534
20
32.1214114278
30
0.0000000000
10
72.3223103833
20
32.0489449684
30
0.0000000000
11
72.3139618146
21
33.5476202526
31
0.0000000000
11
72.3158533973
21
33.3182037891
31
0.0000000000
11
72.3174170344
21
33.1029711545
31
0.0000000000
11
72.3187354016
21
32.8957582959
31
0.0000000000
11
72.3198676062
21
32.6900396941
31
0.0000000000
11
72.3208431267
21
32.4807467918
31
0.0000000000
11
72.3216621122
21
32.2663440964
31
0.0000000000
11
72.3223103833
21
32.0489449684
31
0.0000000000
0
SPLINE
5
4AD
100
AcDbEntity
8
0
100
AcDbSpline
62
7
6
CONTINUOUS
70
0
71
3
72
10
73
6
74
4
42
0.0000001000
43
0.0000001000
44
0.0000000001
12
0.9802660700
22
0.0410954637
32
0.0000000000
13
0.9802660700
23
-0.0410954637
33
0.0000000000
40
0.0000000000
40
0.0000000000
40
0.0000000000
40
0.0000000000
40
0.3330275928
40
0.6669124769
40
1.0000000000
40
1.0000000000
40
1.0000000000
40
1.0000000000
10
71.3330892446
20
33.5476202526
30
0.0000000000
10
71.4419077945
20
33.5521822271
30
0.0000000000
10
71.6599656909
20
33.5582630400
30
0.0000000000
10
71.9870461623
20
33.5582638583
30
0.0000000000
10
72.2051236822
20
33.5521830481
30
0.0000000000
10
72.3139618146
20
33.5476202526
30
0.0000000000
11
71.3330892446
21
33.5476202526
31
0.0000000000
11
71.6597043743
21
33.5567390620
31
0.0000000000
11
71.9872878856
21
33.5567398826
31
0.0000000000
11
72.3139618146
21
33.5476202526
31
0.0000000000
0
SPLINE
5
4AE
100
AcDbEntity
8
0
100
AcDbSpline
62
7
6
CONTINUOUS
70
0
71
3
72
18
73
14
74
12
42
0.0000001000
43
0.0000001000
44
0.0000000001
12
0.0038473286
22
1.4986959633
32
0.0000000000
13
0.0131325918
23
1.4986433623
33
0.0000000000
40
0.0000000000
40
0.0000000000
40
0.0000000000
40
0.0000000000
40
0.1381055468
40
0.2640800588
40
0.3789055465
40
0.4835542043
40
0.5790305547
40
0.6663180500
40
0.7460362144
40
0.8182545540
40
0.8833039928
40
0.9430608541
40
1.0000000000
40
1.0000000000
40
1.0000000000
40
1.0000000000
10
71.3247406759
20
32.0489449684
30
0.0000000000
10
71.3249177884
20
32.1179377102
30
0.0000000000
10
71.3253080964
20
32.2498628235
30
0.0000000000
10
71.3260134100
20
32.4391502205
30
0.0000000000
10
71.3267796352
20
32.6117232714
30
0.0000000000
10
71.3275824388
20
32.7690600979
30
0.0000000000
10
71.3284032832
20
32.9126395527
30
0.0000000000
10
71.3292277696
20
33.0437643089
30
0.0000000000
10
71.3300425725
20
33.1632699442
30
0.0000000000
10
71.3308347833
20
33.2716660627
30
0.0000000000
10
71.3315984079
20
33.3700901052
30
0.0000000000
10
71.3323405222
20
33.4608810958
30
0.0000000000
10
71.3328399918
20
33.5191764283
30
0.0000000000
10
71.3330892446
20
33.5476202526
30
0.0000000000
11
71.3247406759
21
32.0489449684
31
0.0000000000
11
71.3253537212
21
32.2559229680
31
0.0000000000
11
71.3260576651
21
32.4447197704
31
0.0000000000
11
71.3268220884
21
32.6168071345
31
0.0000000000
11
71.3276226185
21
32.7736421293
31
0.0000000000
11
71.3284408922
21
32.9167302820
31
0.0000000000
11
71.3292636314
21
33.0475455427
31
0.0000000000
11
71.3300783626
21
33.1670164496
31
0.0000000000
11
71.3308694983
21
33.2752472487
31
0.0000000000
11
71.3316259552
21
33.3727339665
31
0.0000000000
11
71.3323580506
21
33.4622886360
31
0.0000000000
11
71.3330892446
21
33.5476202526
31
0.0000000000
0
SPLINE
5
4AF
100
AcDbEntity
8
0
100
AcDbSpline
62
7
6
CONTINUOUS
70
0
71
3
72
14
73
10
74
8
42
0.0000001000
43
0.0000001000
44
0.0000000001
12
1.3383013227
22
-0.9572768240
32
0.0000000000
13
1.2199841230
23
-1.1041141642
33
0.0000000000
40
0.0000000000
40
0.0000000000
40
0.0000000000
40
0.0000000000
40
0.1433810805
40
0.2899162980
40
0.4379225687
40
0.5849273690
40
0.7286571994
40
0.8674787569
40
1.0000000000
40
1.0000000000
40
1.0000000000
40
1.0000000000
10
70.0461420101
20
33.0832240773
30
0.0000000000
10
70.1101043733
20
33.0374722821
30
0.0000000000
10
70.2385856727
20
32.9437672384
30
0.0000000000
10
70.4300943751
20
32.7987799863
30
0.0000000000
10
70.6206023747
20
32.6492389984
30
0.0000000000
10
70.8073546916
20
32.4974633238
30
0.0000000000
10
70.9877609701
20
32.3459174581
30
0.0000000000
10
71.1598061594
20
32.1968135323
30
0.0000000000
10
71.2708494051
20
32.0977178289
30
0.0000000000
10
71.3247406759
20
32.0489449684
30
0.0000000000
11
70.0461420101
21
33.0832240773
31
0.0000000000
11
70.2367726762
21
32.9442289511
31
0.0000000000
11
70.4290242029
21
32.7987132592
31
0.0000000000
11
70.6206036917
21
32.6483608152
31
0.0000000000
11
70.8083270845
21
32.4958203629
31
0.0000000000
11
70.9894210583
21
32.3437159143
31
0.0000000000
11
71.1620441552
21
32.1941255151
31
0.0000000000
11
71.3247406759
21
32.0489449684
31
0.0000000000
0
SPLINE
5
4B0
100
AcDbEntity
8
0
100
AcDbSpline
62
7
6
CONTINUOUS
70
0
71
3
72
15
73
11
74
9
42
0.0000001000
43
0.0000001000
44
0.0000000001
12
-1.1028891663
22
1.2188876166
32
0.0000000000
13
-0.9563256238
23
1.3369715167
33
0.0000000000
40
0.0000000000
40
0.0000000000
40
0.0000000000
40
0.0000000000
40
0.1194424261
40
0.2375457393
40
0.3533933347
40
0.4684955676
40
0.5870126046
40
0.7131379735
40
0.8504645545
40
1.0000000000
40
1.0000000000
40
1.0000000000
40
1.0000000000
10
71.0793214990
20
31.8058405577
30
0.0000000000
10
71.0354109131
20
31.8543695224
30
0.0000000000
10
70.9486876514
20
31.9514334293
30
0.0000000000
10
70.8215127281
20
32.0974573448
30
0.0000000000
10
70.6977393272
20
32.2432699880
30
0.0000000000
10
70.5756903646
20
32.3908234311
30
0.0000000000
10
70.4520613977
20
32.5443570725
30
0.0000000000
10
70.3231075632
20
32.7092130451
30
0.0000000000
10
70.1864855235
20
32.8896159943
30
0.0000000000
10
70.0938102028
20
33.0165825335
30
0.0000000000
10
70.0461420101
20
33.0832240773
30
0.0000000000
11
71.0793214990
21
31.8058405577
31
0.0000000000
11
70.9485118104
21
31.9522564894
31
0.0000000000
11
70.8210151902
21
32.0986596570
31
0.0000000000
11
70.6977861647
21
32.2438420825
31
0.0000000000
11
70.5771997287
21
32.3896402516
31
0.0000000000
11
70.4550236911
21
32.5413861251
31
0.0000000000
11
70.3272990438
21
32.7046944007
31
0.0000000000
11
70.1910337638
21
32.8846628844
31
0.0000000000
11
70.0461420101
21
33.0832240773
31
0.0000000000
0
SPLINE
5
4B1
100
AcDbEntity
8
0
100
AcDbSpline
62
7
6
CONTINUOUS
70
0
71
3
72
15
73
11
74
9
42
0.0000001000
43
0.0000001000
44
0.0000000001
12
0.9563256647
22
1.3369715739
32
0.0000000000
13
1.1028892135
23
1.2188876688
33
0.0000000000
40
0.0000000000
40
0.0000000000
40
0.0000000000
40
0.0000000000
40
0.1483044396
40
0.2844129961
40
0.4100069847
40
0.5287168676
40
0.6446515949
40
0.7616197665
40
0.8805204504
40
1.0000000000
40
1.0000000000
40
1.0000000000
40
1.0000000000
10
70.0461420101
20
29.5284570382
30
0.0000000000
10
70.0934177907
20
29.5945499782
30
0.0000000000
10
70.1852918681
20
29.7204396871
30
0.0000000000
10
70.3208878148
20
29.8995709093
30
0.0000000000
10
70.4492638964
20
30.0637958823
30
0.0000000000
10
70.5730121124
20
30.2175810378
30
0.0000000000
10
70.6957713926
20
30.3660730145
30
0.0000000000
10
70.8204978228
20
30.5130536705
30
0.0000000000
10
70.9483695332
20
30.6598914447
30
0.0000000000
10
71.0353972636
20
30.7572965078
30
0.0000000000
10
71.0793214990
20
30.8058405577
30
0.0000000000
11
70.0461420101
21
29.5284570382
31
0.0000000000
11
70.1898258582
21
29.7253946860
31
0.0000000000
11
70.3248429287
21
29.9037969182
31
0.0000000000
11
70.4519777910
21
30.0664575649
31
0.0000000000
11
70.5743026252
21
30.2184906091
31
0.0000000000
11
70.6957223494
21
30.3653754372
31
0.0000000000
11
70.8201209514
21
30.5119812105
31
0.0000000000
11
70.9484714371
21
30.6593788546
31
0.0000000000
11
71.0793214990
21
30.8058405577
31
0.0000000000
0
SPLINE
5
4B2
100
AcDbEntity
8
0
100
AcDbSpline
62
7
6
CONTINUOUS
70
0
71
3
72
14
73
10
74
8
42
0.0000001000
43
0.0000001000
44
0.0000000001
12
-1.2199837722
22
-1.1041138467
32
0.0000000000
13
-1.3383009378
23
-0.9572765487
33
0.0000000000
40
0.0000000000
40
0.0000000000
40
0.0000000000
40
0.0000000000
40
0.1288756862
40
0.2633323329
40
0.4013542681
40
0.5415574752
40
0.6856222347
40
0.8373044806
40
1.0000000000
40
1.0000000000
40
1.0000000000
40
1.0000000000
10
71.3247406759
20
30.5627361470
30
0.0000000000
10
71.2723319273
20
30.5153050038
30
0.0000000000
10
71.1645855715
20
30.4191143049
30
0.0000000000
10
70.9983174098
20
30.2748344439
30
0.0000000000
10
70.8251726279
20
30.1290355695
30
0.0000000000
10
70.6457057411
20
29.9826051532
30
0.0000000000
10
70.4579994027
20
29.8344687710
30
0.0000000000
10
70.2579188505
20
29.6821579406
30
0.0000000000
10
70.1187205321
20
29.5803719066
30
0.0000000000
10
70.0461420101
20
29.5284570382
30
0.0000000000
11
71.3247406759
21
30.5627361470
31
0.0000000000
11
71.1665472539
21
30.4215187483
31
0.0000000000
11
70.9994432640
21
30.2765265653
31
0.0000000000
11
70.8257163527
21
30.1302541908
31
0.0000000000
11
70.6469607643
21
29.9844248958
31
0.0000000000
11
70.4608675136
21
29.8375881443
31
0.0000000000
11
70.2622615440
21
29.6864364858
31
0.0000000000
11
70.0461420101
21
29.5284570382
31
0.0000000000
0
SPLINE
5
4B3
100
AcDbEntity
8
0
100
AcDbSpline
62
7
6
CONTINUOUS
70
0
71
3
72
14
73
10
74
8
42
0.0000001000
43
0.0000001000
44
0.0000000001
12
-0.0131325916
22
1.4986433366
32
0.0000000000
13
-0.0038473285
23
1.4986959376
33
0.0000000000
40
0.0000000000
40
0.0000000000
40
0.0000000000
40
0.0000000000
40
0.1530820895
40
0.2966986830
40
0.4349631331
40
0.5722298290
40
0.7118808956
40
0.8549409705
40
1.0000000000
40
1.0000000000
40
1.0000000000
40
1.0000000000
10
71.3330892446
20
29.0640608628
30
0.0000000000
10
71.3324191231
20
29.1405326806
30
0.0000000000
10
71.3311980049
20
29.2887485405
30
0.0000000000
10
71.3296204834
20
29.5060360529
30
0.0000000000
10
71.3282890824
20
29.7154242085
30
0.0000000000
10
71.3271482678
20
29.9228324107
30
0.0000000000
10
71.3261710112
20
30.1326372107
30
0.0000000000
10
71.3253553832
20
30.3463355216
30
0.0000000000
10
71.3249267058
20
30.4902696876
30
0.0000000000
10
71.3247406759
20
30.5627361470
30
0.0000000000
11
71.3330892446
21
29.0640608628
31
0.0000000000
11
71.3311976619
21
29.2934773263
31
0.0000000000
11
71.3296340248
21
29.5087099609
31
0.0000000000
11
71.3283156576
21
29.7159228195
31
0.0000000000
11
71.3271834531
21
29.9216414213
31
0.0000000000
11
71.3262079325
21
30.1309343236
31
0.0000000000
11
71.3253889470
21
30.3453370190
31
0.0000000000
11
71.3247406759
21
30.5627361470
31
0.0000000000
0
SPLINE
5
4B4
100
AcDbEntity
8
0
100
AcDbSpline
62
7
6
CONTINUOUS
70
0
71
3
72
10
73
6
74
4
42
0.0000001000
43
0.0000001000
44
0.0000000001
12
-0.9802660700
22
-0.0410954637
32
0.0000000000
13
-0.9802660700
23
0.0410954637
33
0.0000000000
40
0.0000000000
40
0.0000000000
40
0.0000000000
40
0.0000000000
40
0.3330275928
40
0.6669124769
40
1.0000000000
40
1.0000000000
40
1.0000000000
40
1.0000000000
10
72.3139618146
20
29.0640608628
30
0.0000000000
10
72.2051432647
20
29.0594988883
30
0.0000000000
10
71.9870853683
20
29.0534180755
30
0.0000000000
10
71.6600048969
20
29.0534172571
30
0.0000000000
10
71.4419273770
20
29.0594980674
30
0.0000000000
10
71.3330892446
20
29.0640608628
30
0.0000000000
11
72.3139618146
21
29.0640608628
31
0.0000000000
11
71.9873466849
21
29.0549420534
31
0.0000000000
11
71.6597631736
21
29.0549412328
31
0.0000000000
11
71.3330892446
21
29.0640608628
31
0.0000000000
0
SPLINE
5
4B5
100
AcDbEntity
8
0
100
AcDbSpline
62
7
6
CONTINUOUS
70
0
71
3
72
18
73
14
74
12
42
0.0000001000
43
0.0000001000
44
0.0000000001
12
-0.0038473286
22
-1.4986959633
32
0.0000000000
13
-0.0131325918
23
-1.4986433623
33
0.0000000000
40
0.0000000000
40
0.0000000000
40
0.0000000000
40
0.0000000000
40
0.1381055468
40
0.2640800588
40
0.3789055465
40
0.4835542043
40
0.5790305547
40
0.6663180500
40
0.7460362144
40
0.8182545540
40
0.8833039928
40
0.9430608541
40
1.0000000000
40
1.0000000000
40
1.0000000000
40
1.0000000000
10
72.3223103833
20
30.5627361470
30
0.0000000000
10
72.3221332708
20
30.4937434052
30
0.0000000000
10
72.3217429628
20
30.3618182919
30
0.0000000000
10
72.3210376492
20
30.1725308950
30
0.0000000000
10
72.3202714240
20
29.9999578440
30
0.0000000000
10
72.3194686204
20
29.8426210175
30
0.0000000000
10
72.3186477760
20
29.6990415627
30
0.0000000000
10
72.3178232896
20
29.5679168065
30
0.0000000000
10
72.3170084867
20
29.4484111712
30
0.0000000000
10
72.3162162759
20
29.3400150527
30
0.0000000000
10
72.3154526513
20
29.2415910102
30
0.0000000000
10
72.3147105370
20
29.1508000196
30
0.0000000000
10
72.3142110675
20
29.0925046871
30
0.0000000000
10
72.3139618146
20
29.0640608628
30
0.0000000000
11
72.3223103833
21
30.5627361470
31
0.0000000000
11
72.3216973380
21
30.3557581474
31
0.0000000000
11
72.3209933941
21
30.1669613451
31
0.0000000000
11
72.3202289708
21
29.9948739809
31
0.0000000000
11
72.3194284407
21
29.8380389861
31
0.0000000000
11
72.3186101670
21
29.6949508335
31
0.0000000000
11
72.3177874278
21
29.5641355727
31
0.0000000000
11
72.3169726966
21
29.4446646658
31
0.0000000000
11
72.3161815609
21
29.3364338667
31
0.0000000000
11
72.3154251040
21
29.2389471489
31
0.0000000000
11
72.3146930086
21
29.1493924794
31
0.0000000000
11
72.3139618146
21
29.0640608628
31
0.0000000000
0
SPLINE
5
4B6
100
AcDbEntity
8
0
100
AcDbSpline
62
7
6
CONTINUOUS
70
0
71
3
72
14
73
10
74
8
42
0.0000001000
43
0.0000001000
44
0.0000000001
12
-1.3383009797
22
0.9572765787
32
0.0000000000
13
-1.2199838104
23
1.1041138813
33
0.0000000000
40
0.0000000000
40
0.0000000000
40
0.0000000000
40
0.0000000000
40
0.1617220844
40
0.3127198204
40
0.4564733647
40
0.5968437746
40
0.7354071069
40
0.8706533216
40
1.0000000000
40
1.0000000000
40
1.0000000000
40
1.0000000000
10
73.6009090491
20
29.5284570382
30
0.0000000000
10
73.5287647745
20
29.5800612927
30
0.0000000000
10
73.3902943560
20
29.6813017807
30
0.0000000000
10
73.1910491834
20
29.8329266559
30
0.0000000000
10
73.0036684326
20
29.9807419726
30
0.0000000000
10
72.8240014777
20
30.1272720166
30
0.0000000000
10
72.6502034428
20
30.2735709966
30
0.0000000000
10
72.4831752279
20
30.4184831582
30
0.0000000000
10
72.3749106678
20
30.5151316593
30
0.0000000000
10
72.3223103833
20
30.5627361470
30
0.0000000000
11
73.6009090491
21
29.5284570382
31
0.0000000000
11
73.3860730607
21
29.6854782380
31
0.0000000000
11
73.1883395631
21
29.8359165231
31
0.0000000000
11
73.0026174457
21
29.9823969471
31
0.0000000000
11
72.8236175874
21
30.1283620476
31
0.0000000000
11
72.6491844293
21
30.2751787383
31
0.0000000000
11
72.4810855003
21
30.4210066269
31
0.0000000000
11
72.3223103833
21
30.5627361470
31
0.0000000000
0
SPLINE
5
4B7
100
AcDbEntity
8
0
100
AcDbSpline
62
7
6
CONTINUOUS
70
0
71
3
72
15
73
11
74
9
42
0.0000001000
43
0.0000001000
44
0.0000000001
12
1.1028891655
22
-1.2188876157
32
0.0000000000
13
0.9563256231
23
-1.3369715157
33
0.0000000000
40
0.0000000000
40
0.0000000000
40
0.0000000000
40
0.0000000000
40
0.1194251453
40
0.2375394086
40
0.3534637214
40
0.4685169918
40
0.5869625331
40
0.7129878486
40
0.8505067841
40
1.0000000000
40
1.0000000000
40
1.0000000000
40
1.0000000000
10
72.5677295602
20
30.8058405577
30
0.0000000000
10
72.6116337931
20
30.7573186142
30
0.0000000000
10
72.6983548310
20
30.6602573739
30
0.0000000000
10
72.8255552704
20
30.5142045361
30
0.0000000000
10
72.9493418960
20
30.3683752892
30
0.0000000000
10
73.0713748197
20
30.2208396912
30
0.0000000000
10
73.1949282457
20
30.0674003612
30
0.0000000000
10
73.3238910092
20
29.9025369215
30
0.0000000000
10
73.4605308473
20
29.7221129894
30
0.0000000000
10
73.5532543182
20
29.5950797620
30
0.0000000000
10
73.6009090491
20
29.5284570382
30
0.0000000000
11
72.5677295602
21
30.8058405577
31
0.0000000000
11
72.6985204577
21
30.6594459295
31
0.0000000000
11
72.8260290845
21
30.5130293499
31
0.0000000000
11
72.9493392046
21
30.3677503470
31
0.0000000000
11
73.0698736003
21
30.2220135819
31
0.0000000000
11
73.1919761848
21
30.0703594512
31
0.0000000000
11
73.3196014265
21
29.9071822245
31
0.0000000000
11
73.4560587369
21
29.7269625380
31
0.0000000000
11
73.6009090491
21
29.5284570382
31
0.0000000000
0
SPLINE
5
4B8
100
AcDbEntity
8
0
100
AcDbSpline
62
7
6
CONTINUOUS
70
0
71
3
72
15
73
11
74
9
42
0.0000001000
43
0.0000001000
44
0.0000000001
12
-0.9563256641
22
-1.3369715729
32
0.0000000000
13
-1.1028892128
23
-1.2188876679
33
0.0000000000
40
0.0000000000
40
0.0000000000
40
0.0000000000
40
0.0000000000
40
0.1482629495
40
0.2845619549
40
0.4100552272
40
0.5286972488
40
0.6445746117
40
0.7616455415
40
0.8805404114
40
1.0000000000
40
1.0000000000
40
1.0000000000
40
1.0000000000
10
73.6009090491
20
33.0832240773
30
0.0000000000
10
73.5536464946
20
33.0171496277
30
0.0000000000
10
73.4617246399
20
32.8911937490
30
0.0000000000
10
73.3261115182
20
32.7120423297
30
0.0000000000
10
73.1977261858
20
32.5478093989
30
0.0000000000
10
73.0740553442
20
32.3941208979
30
0.0000000000
10
72.9513047174
20
32.2456377499
30
0.0000000000
10
72.8265646516
20
32.0986402060
30
0.0000000000
10
72.6986648792
20
31.9517709363
30
0.0000000000
10
72.6116464574
20
31.8543764975
30
0.0000000000
10
72.5677295602
20
31.8058405577
30
0.0000000000
11
73.6009090491
21
33.0832240773
31
0.0000000000
11
73.4572659085
21
32.8863411533
31
0.0000000000
11
73.3220587678
21
32.7076901625
31
0.0000000000
11
73.1950239760
21
32.5451614274
31
0.0000000000
11
73.0727688194
21
32.3932154956
31
0.0000000000
11
72.9514099631
21
32.2464026932
31
0.0000000000
11
72.8269024891
21
32.0996677738
31
0.0000000000
11
72.6985579167
21
31.9522776532
31
0.0000000000
11
72.5677295602
21
31.8058405577
31
0.0000000000
0
SPLINE
5
4B9
100
AcDbEntity
8
0
100
AcDbSpline
62
7
6
CONTINUOUS
70
0
71
3
72
14
73
10
74
8
42
0.0000001000
43
0.0000001000
44
0.0000000001
12
1.2199837027
22
1.1041137839
32
0.0000000000
13
1.3383008616
23
0.9572764942
33
0.0000000000
40
0.0000000000
40
0.0000000000
40
0.0000000000
40
0.0000000000
40
0.1273304181
40
0.2604678137
40
0.3976870803
40
0.5380471765
40
0.6830375410
40
0.8360155538
40
1.0000000000
40
1.0000000000
40
1.0000000000
40
1.0000000000
10
72.3223103833
20
32.0489449684
30
0.0000000000
10
72.3740907283
20
32.0958073916
30
0.0000000000
10
72.4806571807
20
32.1909603131
30
0.0000000000
10
72.6453721041
20
32.3339608591
30
0.0000000000
10
72.8176402401
20
32.4791272610
30
0.0000000000
10
72.9971667223
20
32.6257273822
30
0.0000000000
10
73.1858443399
20
32.7747388776
30
0.0000000000
10
73.3874211086
20
32.9282633025
30
0.0000000000
10
73.5277555406
20
33.0308979253
30
0.0000000000
10
73.6009090491
20
33.0832240773
30
0.0000000000
11
72.3223103833
21
32.0489449684
31
0.0000000000
11
72.4785955244
21
32.1884819607
31
0.0000000000
11
72.6440257208
21
32.3320909260
31
0.0000000000
11
72.8166899662
21
32.4775747897
31
0.0000000000
11
72.9955864413
21
32.6236397155
31
0.0000000000
11
73.1828230270
21
32.7714861181
31
0.0000000000
11
73.3830901488
21
32.9239755779
31
0.0000000000
11
73.6009090491
21
33.0832240773
31
0.0000000000
0
SPLINE
5
4BA
100
AcDbEntity
8
0
100
AcDbSpline
62
7
6
CONTINUOUS
70
0
71
3
72
22
73
18
74
16
42
0.0000001000
43
0.0000001000
44
0.0000000001
12
0.0000000000
22
-2.0009745890
32
0.0000000000
13
0.0000000000
23
2.0009745890
33
0.0000000000
40
0.0000000000
40
0.0000000000
40
0.0000000000
40
0.0000000000
40
0.0110656459
40
0.0434496414
40
0.0956218761
40
0.1657209095
40
0.2500100330
40
0.3457508292
40
0.4475916730
40
0.5524083270
40
0.6542491708
40
0.7499899670
40
0.8342790905
40
0.9043781239
40
0.9565503586
40
0.9889343541
40
1.0000000000
40
1.0000000000
40
1.0000000000
40
1.0000000000
10
90.9235255296
20
32.2383121681
30
0.0000000000
10
90.9235255296
20
32.2309314760
30
0.0000000000
10
90.8775423372
20
32.2403090338
30
0.0000000000
10
90.8299207437
20
32.2261973114
30
0.0000000000
10
90.7179942734
20
32.2294500353
30
0.0000000000
10
90.5839117940
20
32.2243431621
30
0.0000000000
10
90.4157788757
20
32.2232070958
30
0.0000000000
10
90.2282052034
20
32.2214891052
30
0.0000000000
10
90.0263732885
20
32.2208390678
30
0.0000000000
10
89.8206777707
20
32.2208390678
30
0.0000000000
10
89.6188458558
20
32.2214891052
30
0.0000000000
10
89.4312721835
20
32.2232070958
30
0.0000000000
10
89.2631392652
20
32.2243431621
30
0.0000000000
10
89.1290567858
20
32.2294500353
30
0.0000000000
10
89.0171303155
20
32.2261973114
30
0.0000000000
10
88.9695087220
20
32.2403090338
30
0.0000000000
10
88.9235255296
20
32.2309314760
30
0.0000000000
10
88.9235255296
20
32.2383121681
30
0.0000000000
11
90.9235255296
21
32.2383121681
31
0.0000000000
11
90.9016827545
21
32.2346838465
31
0.0000000000
11
90.8369764463
21
32.2312088483
31
0.0000000000
11
90.7326287988
21
32.2280544114
31
0.0000000000
11
90.5923887523
21
32.2253363261
31
0.0000000000
11
90.4237419161
21
32.2231978198
31
0.0000000000
11
90.2321727985
21
32.2217093194
31
0.0000000000
11
90.0283932602
21
32.2209533473
31
0.0000000000
11
89.8186577990
21
32.2209533473
31
0.0000000000
11
89.6148782607
21
32.2217093194
31
0.0000000000
11
89.4233091431
21
32.2231978198
31
0.0000000000
11
89.2546623069
21
32.2253363261
31
0.0000000000
11
89.1144222604
21
32.2280544114
31
0.0000000000
11
89.0100746129
21
32.2312088483
31
0.0000000000
11
88.9453683047
21
32.2346838465
31
0.0000000000
11
88.9235255296
21
32.2383121681
31
0.0000000000
0
SPLINE
5
4BB
100
AcDbEntity
8
0
100
AcDbSpline
62
9
6
CONTINUOUS
70
0
71
3
72
18
73
14
74
12
42
0.0000001000
43
0.0000001000
44
0.0000000001
12
-6.2769760862
22
-0.0003188875
32
0.0000000000
13
-0.0002407516
23
-6.2769760897
33
0.0000000000
40
0.0000000000
40
0.0000000000
40
0.0000000000
40
0.0000000000
40
0.0896248987
40
0.1805651100
40
0.2720418825
40
0.3634338707
40
0.4544779991
40
0.5453847151
40
0.6363981543
40
0.7277533279
40
0.8192345408
40
0.9102502840
40
1.0000000000
40
1.0000000000
40
1.0000000000
40
1.0000000000
10
80.6980264499
20
33.6207304181
30
0.0000000000
10
80.5105020012
20
33.6207208913
30
0.0000000000
10
80.1321657889
20
33.5940871638
30
0.0000000000
10
79.5739231783
20
33.4738101396
30
0.0000000000
10
79.0349537045
20
33.2737674535
30
0.0000000000
10
78.5300143825
20
32.9985291231
30
0.0000000000
10
78.0705210148
20
32.6547271424
30
0.0000000000
10
77.6652527170
20
32.2495461529
30
0.0000000000
10
77.3214270548
20
31.7902492704
30
0.0000000000
10
77.0461042579
20
31.2855087406
30
0.0000000000
10
76.8458597721
20
30.7465172667
30
0.0000000000
10
76.7253474040
20
30.1878829538
30
0.0000000000
10
76.6986428717
20
29.8091252446
30
0.0000000000
10
76.6986356692
20
29.6213396375
30
0.0000000000
11
80.6980264499
21
33.6207304181
31
0.0000000000
11
80.1368454637
21
33.5811744917
31
0.0000000000
11
79.5788158133
21
33.4609694016
31
0.0000000000
11
79.0405060266
21
33.2611560907
31
0.0000000000
11
78.5368090132
21
32.9865996772
31
0.0000000000
11
78.0792337261
21
32.6442309809
31
0.0000000000
11
77.6757015742
21
32.2407856081
31
0.0000000000
11
77.3333389647
21
31.7834463762
31
0.0000000000
11
77.0587455309
21
31.2800327546
31
0.0000000000
11
76.8587517667
21
30.7417602503
31
0.0000000000
11
76.7383025529
21
30.1832982188
31
0.0000000000
11
76.6986356692
21
29.6213396375
31
0.0000000000
0
SPLINE
5
4BC
100
AcDbEntity
8
0
100
AcDbSpline
62
7
6
CONTINUOUS
70
0
71
3
72
17
73
13
74
11
42
0.0000001000
43
0.0000001000
44
0.0000000001
12
-4.7068930184
22
0.0000000000
32
0.0000000000
13
-0.0000000000
23
4.7068930184
33
0.0000000000
40
0.0000000000
40
0.0000000000
40
0.0000000000
40
0.0000000000
40
0.0993904611
40
0.1997837495
40
0.2997680069
40
0.3991342784
40
0.4996388340
40
0.6001410793
40
0.6995070431
40
0.7996096919
40
0.9002685967
40
1.0000000000
40
1.0000000000
40
1.0000000000
40
1.0000000000
10
81.0430686151
20
207.7758405577
30
0.0000000000
10
80.8871285260
20
207.7758405577
30
0.0000000000
10
80.5731284989
20
207.8003752177
30
0.0000000000
10
80.1139118964
20
207.9103068734
30
0.0000000000
10
79.6775352788
20
208.0908458267
30
0.0000000000
10
79.2745568074
20
208.3372959562
30
0.0000000000
10
78.9143983952
20
208.6442866839
30
0.0000000000
10
78.6069979962
20
209.0040948448
30
0.0000000000
10
78.3599929973
20
209.4069470152
30
0.0000000000
10
78.1787632153
20
209.8436968577
30
0.0000000000
10
78.0682198179
20
210.3039513308
30
0.0000000000
10
78.0435255296
20
210.6189086278
30
0.0000000000
10
78.0435255296
20
210.7753836432
30
0.0000000000
11
81.0430686151
21
207.7758405577
31
0.0000000000
11
80.5766722329
21
207.8123126995
31
0.0000000000
11
80.1171117902
21
207.9223067616
31
0.0000000000
11
79.6822481179
21
208.1022296785
31
0.0000000000
11
79.2832433522
21
208.3462470603
31
0.0000000000
11
78.9232220654
21
208.6531255408
31
0.0000000000
11
78.6159407930
21
209.0127888001
31
0.0000000000
11
78.3714690692
21
209.4115136516
31
0.0000000000
11
78.1908769485
21
209.8467032328
31
0.0000000000
11
78.0802483296
21
210.3073972013
31
0.0000000000
11
78.0435255296
21
210.7753836432
31
0.0000000000
0
SPLINE
5
4BD
100
AcDbEntity
8
0
100
AcDbSpline
62
9
6
CONTINUOUS
70
0
71
3
72
18
73
14
74
12
42
0.0000001000
43
0.0000001000
44
0.0000000001
12
-4.7079057514
22
0.0003519286
32
0.0000000000
13
0.0003826907
23
-4.7079057490
33
0.0000000000
40
0.0000000000
40
0.0000000000
40
0.0000000000
40
0.0000000000
40
0.0897543848
40
0.1806727155
40
0.2721188630
40
0.3634726674
40
0.4544735633
40
0.5453406584
40
0.6363193567
40
0.7276451118
40
0.8191039597
40
0.9101050762
40
1.0000000000
40
1.0000000000
40
1.0000000000
40
1.0000000000
10
80.6980264499
20
32.6208827229
30
0.0000000000
10
80.5571747218
20
32.6208932520
30
0.0000000000
10
80.2732396691
20
32.6008993214
30
0.0000000000
10
79.8544313035
20
32.5106348484
30
0.0000000000
10
79.4503331493
20
32.3606203024
30
0.0000000000
10
79.0717754131
20
32.1542597295
30
0.0000000000
10
78.7272941146
20
31.8965154694
30
0.0000000000
10
78.4234514338
20
31.5927616080
30
0.0000000000
10
78.1656483009
20
31.2484241026
30
0.0000000000
10
77.9591842889
20
30.8699912825
30
0.0000000000
10
77.8089863747
20
30.4658474513
30
0.0000000000
10
77.7185235308
20
30.0466993227
30
0.0000000000
10
77.6984718971
20
29.7624119136
30
0.0000000000
10
77.6984833644
20
29.6213396375
30
0.0000000000
11
80.6980264499
21
32.6208827229
31
0.0000000000
11
80.2765170615
21
32.5911721150
31
0.0000000000
11
79.8580872912
21
32.5010032096
31
0.0000000000
11
79.4544844350
21
32.3511630566
31
0.0000000000
11
79.0768612629
21
32.1453137544
31
0.0000000000
11
78.7338284521
21
31.8886518990
31
0.0000000000
11
78.4312883866
21
31.5862002888
31
0.0000000000
11
78.1745828772
21
31.2433306846
31
0.0000000000
11
77.9686648920
21
30.8658953821
31
0.0000000000
11
77.8186580455
21
30.4622906619
31
0.0000000000
11
77.7282871595
21
30.0435057409
31
0.0000000000
11
77.6984833644
21
29.6213396375
31
0.0000000000
0
SPLINE
5
4BE
100
AcDbEntity
8
0
100
AcDbSpline
62
7
6
CONTINUOUS
70
0
71
3
72
14
73
10
74
8
42
0.0000001000
43
0.0000001000
44
0.0000000001
12
0.0785180852
22
-2.5970936133
32
0.0000000000
13
0.0000000000
23
-2.5982802632
33
0.0000000000
40
0.0000000000
40
0.0000000000
40
0.0000000000
40
0.0000000000
40
0.0966820686
40
0.2147012127
40
0.3500873225
40
0.4985984278
40
0.6596804131
40
0.8288443356
40
1.0000000000
40
1.0000000000
40
1.0000000000
40
1.0000000000
10
54.9840647505
20
180.4353505677
30
0.0000000000
10
54.9865951808
20
180.3516531068
30
0.0000000000
10
54.9911959961
20
180.1657561589
30
0.0000000000
10
54.9967732113
20
179.8625980720
30
0.0000000000
10
55.0015279148
20
179.5145322948
30
0.0000000000
10
55.0053555879
20
179.1291570578
30
0.0000000000
10
55.0081614448
20
178.7145176163
30
0.0000000000
10
55.0098680987
20
178.2802598547
30
0.0000000000
10
55.0102473479
20
177.9855111513
30
0.0000000000
10
55.0102473479
20
177.8372743563
30
0.0000000000
11
54.9840647505
21
180.4353505677
31
0.0000000000
11
54.9904994000
21
180.1842258822
31
0.0000000000
11
54.9962711350
21
179.8776333921
31
0.0000000000
11
55.0011642232
21
179.5258963680
31
0.0000000000
11
55.0050521697
21
179.1400424816
31
0.0000000000
11
55.0079210368
21
178.7215161710
31
0.0000000000
11
55.0096688127
21
178.2819843648
31
0.0000000000
11
55.0102473479
21
177.8372743563
31
0.0000000000
0
SPLINE
5
4BF
100
AcDbEntity
8
0
100
AcDbSpline
62
7
6
CONTINUOUS
70
0
71
3
72
14
73
10
74
8
42
0.0000001000
43
0.0000001000
44
0.0000000001
12
0.0000000000
22
-2.5982802635
32
0.0000000000
13
-0.0785180852
23
-2.5970936136
33
0.0000000000
40
0.0000000000
40
0.0000000000
40
0.0000000000
40
0.0000000000
40
0.1711762377
40
0.3403778579
40
0.5014996558
40
0.6500027010
40
0.7853435507
40
0.9033309339
40
1.0000000000
40
1.0000000000
40
1.0000000000
40
1.0000000000
10
55.0102473479
20
141.7144067591
30
0.0000000000
10
55.0102473479
20
141.5661521457
30
0.0000000000
10
55.0098679886
20
141.2713529742
30
0.0000000000
10
55.0081607308
20
140.8370102644
30
0.0000000000
10
55.0053538823
20
140.4223106772
30
0.0000000000
10
55.0015255003
20
140.0369471464
30
0.0000000000
10
54.9967710494
20
139.6889550613
30
0.0000000000
10
54.9911948212
20
139.3858749387
30
0.0000000000
10
54.9865948405
20
139.2000167524
30
0.0000000000
10
54.9840647505
20
139.1163305477
30
0.0000000000
11
55.0102473479
21
141.7144067591
31
0.0000000000
11
55.0096686729
21
141.2696432955
31
0.0000000000
11
55.0079202216
21
140.8300135421
31
0.0000000000
11
55.0050500250
21
140.4113837938
31
0.0000000000
11
55.0011614427
21
140.0255508572
31
0.0000000000
11
54.9962692517
21
139.6739314302
31
0.0000000000
11
54.9904986595
21
139.3674214570
31
0.0000000000
11
54.9840647505
21
139.1163305477
31
0.0000000000
0
SPLINE
5
4C0
100
AcDbEntity
8
0
100
AcDbSpline
62
7
6
CONTINUOUS
70
0
71
3
72
14
73
10
74
8
42
0.0000001000
43
0.0000001000
44
0.0000000001
12
0.0785180852
22
-2.5970936133
32
0.0000000000
13
0.0000000000
23
-2.5982802632
33
0.0000000000
40
0.0000000000
40
0.0000000000
40
0.0000000000
40
0.0000000000
40
0.0966820686
40
0.2147012127
40
0.3500873225
40
0.4985984278
40
0.6596804131
40
0.8288443356
40
1.0000000000
40
1.0000000000
40
1.0000000000
40
1.0000000000
10
54.9840647505
20
102.4353505677
30
0.0000000000
10
54.9865951808
20
102.3516531068
30
0.0000000000
10
54.9911959961
20
102.1657561589
30
0.0000000000
10
54.9967732113
20
101.8625980720
30
0.0000000000
10
55.0015279148
20
101.5145322948
30
0.0000000000
10
55.0053555878
20
101.1291570578
30
0.0000000000
10
55.0081614448
20
100.7145176163
30
0.0000000000
10
55.0098680987
20
100.2802598547
30
0.0000000000
10
55.0102473479
20
99.9855111513
30
0.0000000000
10
55.0102473479
20
99.8372743563
30
0.0000000000
11
54.9840647505
21
102.4353505677
31
0.0000000000
11
54.9904994000
21
102.1842258822
31
0.0000000000
11
54.9962711350
21
101.8776333921
31
0.0000000000
11
55.0011642232
21
101.5258963680
31
0.0000000000
11
55.0050521697
21
101.1400424816
31
0.0000000000
11
55.0079210368
21
100.7215161710
31
0.0000000000
11
55.0096688127
21
100.2819843648
31
0.0000000000
11
55.0102473479
21
99.8372743563
31
0.0000000000
0
SPLINE
5
4C1
100
AcDbEntity
8
0
100
AcDbSpline
62
7
6
CONTINUOUS
70
0
71
3
72
14
73
10
74
8
42
0.0000001000
43
0.0000001000
44
0.0000000001
12
0.0000000000
22
-2.5982802635
32
0.0000000000
13
-0.0785180852
23
-2.5970936136
33
0.0000000000
40
0.0000000000
40
0.0000000000
40
0.0000000000
40
0.0000000000
40
0.1711762377
40
0.3403778579
40
0.5014996558
40
0.6500027010
40
0.7853435507
40
0.9033309339
40
1.0000000000
40
1.0000000000
40
1.0000000000
40
1.0000000000
10
55.0102473479
20
63.7144067591
30
0.0000000000
10
55.0102473479
20
63.5661521457
30
0.0000000000
10
55.0098679886
20
63.2713529742
30
0.0000000000
10
55.0081607308
20
62.8370102644
30
0.0000000000
10
55.0053538823
20
62.4223106772
30
0.0000000000
10
55.0015255003
20
62.0369471464
30
0.0000000000
10
54.9967710494
20
61.6889550613
30
0.0000000000
10
54.9911948212
20
61.3858749387
30
0.0000000000
10
54.9865948405
20
61.2000167524
30
0.0000000000
10
54.9840647505
20
61.1163305477
30
0.0000000000
11
55.0102473479
21
63.7144067591
31
0.0000000000
11
55.0096686729
21
63.2696432955
31
0.0000000000
11
55.0079202216
21
62.8300135421
31
0.0000000000
11
55.0050500250
21
62.4113837938
31
0.0000000000
11
55.0011614427
21
62.0255508572
31
0.0000000000
11
54.9962692517
21
61.6739314302
31
0.0000000000
11
54.9904986595
21
61.3674214570
31
0.0000000000
11
54.9840647505
21
61.1163305477
31
0.0000000000
0
SPLINE
5
4C2
100
AcDbEntity
8
0
100
AcDbSpline
62
7
6
CONTINUOUS
70
0
71
3
72
17
73
13
74
11
42
0.0000001000
43
0.0000001000
44
0.0000000001
12
3.0015917217
22
0.0000000000
32
0.0000000000
13
0.0000000000
23
-3.0015917217
33
0.0000000000
40
0.0000000000
40
0.0000000000
40
0.0000000000
40
0.0000000000
40
0.0124724426
40
0.0492892148
40
0.1094067753
40
0.1908729987
40
0.2932944076
40
0.4133159238
40
0.5463417251
40
0.6913199485
40
0.8445273039
40
1.0000000000
40
1.0000000000
40
1.0000000000
40
1.0000000000
10
54.9578821531
20
31.7758405577
30
0.0000000000
10
54.9703612132
20
31.7758405577
30
0.0000000000
10
54.9590636059
20
31.6985607091
30
0.0000000000
10
54.9820535731
20
31.6161473465
30
0.0000000000
10
54.9800248828
20
31.4228817296
30
0.0000000000
10
54.9905372127
20
31.1851802589
30
0.0000000000
10
54.9951403927
20
30.8787866901
30
0.0000000000
10
55.0008175146
20
30.5239773407
30
0.0000000000
10
55.0048471905
20
30.1255051208
30
0.0000000000
10
55.0079682793
20
29.6941533170
30
0.0000000000
10
55.0098273535
20
29.2402344355
30
0.0000000000
10
55.0102473479
20
28.9313957436
30
0.0000000000
10
55.0102473479
20
28.7758405577
30
0.0000000000
11
54.9578821531
21
31.7758405577
31
0.0000000000
11
54.9660301959
21
31.7393008276
31
0.0000000000
11
54.9740599169
21
31.6290840199
31
0.0000000000
11
54.9816576621
21
31.4487956698
31
0.0000000000
11
54.9886261720
21
31.2043666417
31
0.0000000000
11
54.9949126817
21
30.8970036711
31
0.0000000000
11
55.0002769953
21
30.5367880218
31
0.0000000000
11
55.0045424656
21
30.1375216617
31
0.0000000000
11
55.0076873834
21
29.7023675908
31
0.0000000000
11
55.0096099182
21
29.2425056799
31
0.0000000000
11
55.0102473479
21
28.7758405577
31
0.0000000000
0
SPLINE
5
4C3
100
AcDbEntity
8
0
100
AcDbSpline
62
7
6
CONTINUOUS
70
0
71
3
72
17
73
13
74
11
42
0.0000001000
43
0.0000001000
44
0.0000000001
12
0.0000000000
22
-4.7068930201
32
0.0000000000
13
4.7068930201
23
-0.0000000000
33
0.0000000000
40
0.0000000000
40
0.0000000000
40
0.0000000000
40
0.0000000000
40
0.0993979100
40
0.1998098071
40
0.2998130709
40
0.3991672083
40
0.4996599136
40
0.6001640184
40
0.6995318531
40
0.7996123088
40
0.9002618896
40
1.0000000000
40
1.0000000000
40
1.0000000000
40
1.0000000000
10
78.0635988543
20
210.7954569678
30
0.0000000000
10
78.0635988543
20
210.6395051916
30
0.0000000000
10
78.0881385611
20
210.3254641579
30
0.0000000000
10
78.1980990060
20
209.8661807138
30
0.0000000000
10
78.3786780826
20
209.4297763405
30
0.0000000000
10
78.6251485919
20
209.0268201867
30
0.0000000000
10
78.9321316911
20
208.6667017054
30
0.0000000000
10
79.2919408337
20
208.3593220098
30
0.0000000000
10
79.6947776361
20
208.1123472991
30
0.0000000000
10
80.1314873518
20
207.9311452337
30
0.0000000000
10
80.5917031034
20
207.8206095306
30
0.0000000000
10
80.9066564012
20
207.7959138824
30
0.0000000000
10
81.0631419397
20
207.7959138824
30
0.0000000000
11
78.0635988543
21
210.7954569678
31
0.0000000000
11
78.1000764633
21
210.3290258445
31
0.0000000000
11
78.2101030338
21
209.8693831196
31
0.0000000000
11
78.3900844992
21
209.4344468565
31
0.0000000000
11
78.6340965747
21
209.0355057941
31
0.0000000000
11
78.9409541757
21
208.6755400021
31
0.0000000000
11
79.3006347370
21
208.3682655069
31
0.0000000000
11
79.6993762841
21
208.1238041664
31
0.0000000000
11
80.1344732800
21
207.9432614759
31
0.0000000000
11
80.5951242188
21
207.8326416220
31
0.0000000000
11
81.0631419397
21
207.7959138824
31
0.0000000000
0
SPLINE
5
4C4
100
AcDbEntity
8
0
100
AcDbSpline
62
7
6
CONTINUOUS
70
0
71
3
72
22
73
18
74
16
42
0.0000001000
43
0.0000001000
44
0.0000000001
12
0.0000000000
22
-2.0009745873
32
0.0000000000
13
0.0000000000
23
2.0009745873
33
0.0000000000
40
0.0000000000
40
0.0000000000
40
0.0000000000
40
0.0000000000
40
0.0110657594
40
0.0434505288
40
0.0956227231
40
0.1657228232
40
0.2500114844
40
0.3457519115
40
0.4475924071
40
0.5524075929
40
0.6542480885
40
0.7499885156
40
0.8342771768
40
0.9043772769
40
0.9565494712
40
0.9889342406
40
1.0000000000
40
1.0000000000
40
1.0000000000
40
1.0000000000
10
88.9235255296
20
207.8133689473
30
0.0000000000
10
88.9235255296
20
207.8059881795
30
0.0000000000
10
88.9695096393
20
207.8153659514
30
0.0000000000
10
89.0171315436
20
207.8012540392
30
0.0000000000
10
89.1290592497
20
207.8045067806
30
0.0000000000
10
89.2631420808
20
207.7993999028
30
0.0000000000
10
89.4312751462
20
207.7982638451
30
0.0000000000
10
89.6188480367
20
207.7965458741
30
0.0000000000
10
89.8206784919
20
207.7958958475
30
0.0000000000
10
90.0263725673
20
207.7958958475
30
0.0000000000
10
90.2282030225
20
207.7965458741
30
0.0000000000
10
90.4157759130
20
207.7982638451
30
0.0000000000
10
90.5839089784
20
207.7993999028
30
0.0000000000
10
90.7179918095
20
207.8045067806
30
0.0000000000
10
90.8299195156
20
207.8012540392
30
0.0000000000
10
90.8775414199
20
207.8153659514
30
0.0000000000
10
90.9235255296
20
207.8059881795
30
0.0000000000
10
90.9235255296
20
207.8133689473
30
0.0000000000
11
88.9235255296
21
207.8133689473
31
0.0000000000
11
88.9453685317
21
207.8097406070
31
0.0000000000
11
89.0100763882
21
207.8062655579
31
0.0000000000
11
89.1144239553
21
207.8031111499
31
0.0000000000
11
89.2546661362
21
207.8003930451
31
0.0000000000
11
89.4233120477
21
207.7982545697
31
0.0000000000
11
89.6148804265
21
207.7967660863
31
0.0000000000
11
89.8186592680
21
207.7960101238
31
0.0000000000
11
90.0283917912
21
207.7960101238
31
0.0000000000
11
90.2321706327
21
207.7967660863
31
0.0000000000
11
90.4237390115
21
207.7982545697
31
0.0000000000
11
90.5923849230
21
207.8003930451
31
0.0000000000
11
90.7326271039
21
207.8031111499
31
0.0000000000
11
90.8369746710
21
207.8062655579
31
0.0000000000
11
90.9016825275
21
207.8097406070
31
0.0000000000
11
90.9235255296
21
207.8133689473
31
0.0000000000
0
SPLINE
5
4C5
100
AcDbEntity
8
0
100
AcDbSpline
62
7
6
CONTINUOUS
70
0
71
3
72
17
73
13
74
11
42
0.0000001000
43
0.0000001000
44
0.0000000001
12
-4.7068930201
22
0.0000000000
32
0.0000000000
13
-0.0000000000
23
-4.7068930201
33
0.0000000000
40
0.0000000000
40
0.0000000000
40
0.0000000000
40
0.0000000000
40
0.0994574002
40
0.1999183585
40
0.2999683225
40
0.3994029375
40
0.4999769818
40
0.6005443326
40
0.6999718588
40
0.8000455982
40
0.9005301889
40
1.0000000000
40
1.0000000000
40
1.0000000000
40
1.0000000000
10
81.0631419397
20
32.2557672330
30
0.0000000000
10
80.9070968255
20
32.2557672330
30
0.0000000000
10
80.5928844986
20
32.2311993748
30
0.0000000000
10
80.1333760224
20
32.1211207431
30
0.0000000000
10
79.6967509861
20
31.9403442217
30
0.0000000000
10
79.2935877868
20
31.6935765927
30
0.0000000000
10
78.9333307226
20
31.3862045514
30
0.0000000000
10
78.6259381176
20
31.0259800766
30
0.0000000000
10
78.3791267205
20
30.6228256451
30
0.0000000000
10
78.1982925343
20
30.1861546192
30
0.0000000000
10
78.0881742257
20
29.7265578167
30
0.0000000000
10
78.0635988543
20
29.4122887342
30
0.0000000000
10
78.0635988543
20
29.2562241476
30
0.0000000000
11
81.0631419397
21
32.2557672330
31
0.0000000000
11
80.5964333641
21
32.2192459458
31
0.0000000000
11
80.1365806188
21
32.1091048051
31
0.0000000000
11
79.7014786409
21
31.9289489493
31
0.0000000000
11
79.3022896061
21
31.6846163642
31
0.0000000000
11
78.9421661208
21
31.3773536636
31
0.0000000000
11
78.6348958747
21
31.0172780327
31
0.0000000000
11
78.3905453481
21
30.6181391013
31
0.0000000000
11
78.2103138462
21
30.1829473252
31
0.0000000000
11
78.1001292570
21
29.7229906056
31
0.0000000000
11
78.0635988543
21
29.2562241476
31
0.0000000000
0
SPLINE
5
4C6
100
AcDbEntity
8
0
100
AcDbSpline
62
7
6
CONTINUOUS
70
0
71
3
72
22
73
18
74
16
42
0.0000001000
43
0.0000001000
44
0.0000000001
12
0.0000000000
22
2.0009745890
32
0.0000000000
13
0.0000000000
23
-2.0009745890
33
0.0000000000
40
0.0000000000
40
0.0000000000
40
0.0000000000
40
0.0000000000
40
0.0110656459
40
0.0434496414
40
0.0956218761
40
0.1657209095
40
0.2500100330
40
0.3457508292
40
0.4475916730
40
0.5524083270
40
0.6542491708
40
0.7499899670
40
0.8342790905
40
0.9043781239
40
0.9565503586
40
0.9889343541
40
1.0000000000
40
1.0000000000
40
1.0000000000
40
1.0000000000
10
88.9235255296
20
32.2383121681
30
0.0000000000
10
88.9235255296
20
32.2456928602
30
0.0000000000
10
88.9695087220
20
32.2363153025
30
0.0000000000
10
89.0171303155
20
32.2504270248
30
0.0000000000
10
89.1290567858
20
32.2471743009
30
0.0000000000
10
89.2631392652
20
32.2522811741
30
0.0000000000
10
89.4312721835
20
32.2534172405
30
0.0000000000
10
89.6188458558
20
32.2551352310
30
0.0000000000
10
89.8206777707
20
32.2557852685
30
0.0000000000
10
90.0263732885
20
32.2557852685
30
0.0000000000
10
90.2282052034
20
32.2551352310
30
0.0000000000
10
90.4157788757
20
32.2534172405
30
0.0000000000
10
90.5839117940
20
32.2522811741
30
0.0000000000
10
90.7179942734
20
32.2471743009
30
0.0000000000
10
90.8299207437
20
32.2504270248
30
0.0000000000
10
90.8775423372
20
32.2363153025
30
0.0000000000
10
90.9235255296
20
32.2456928602
30
0.0000000000
10
90.9235255296
20
32.2383121681
30
0.0000000000
11
88.9235255296
21
32.2383121681
31
0.0000000000
11
88.9453683047
21
32.2419404897
31
0.0000000000
11
89.0100746129
21
32.2454154879
31
0.0000000000
11
89.1144222604
21
32.2485699248
31
0.0000000000
11
89.2546623069
21
32.2512880101
31
0.0000000000
11
89.4233091431
21
32.2534265165
31
0.0000000000
11
89.6148782607
21
32.2549150169
31
0.0000000000
11
89.8186577990
21
32.2556709889
31
0.0000000000
11
90.0283932602
21
32.2556709889
31
0.0000000000
11
90.2321727985
21
32.2549150169
31
0.0000000000
11
90.4237419161
21
32.2534265165
31
0.0000000000
11
90.5923887523
21
32.2512880101
31
0.0000000000
11
90.7326287988
21
32.2485699248
31
0.0000000000
11
90.8369764463
21
32.2454154879
31
0.0000000000
11
90.9016827545
21
32.2419404897
31
0.0000000000
11
90.9235255296
21
32.2383121681
31
0.0000000000
0
SPLINE
5
4C7
100
AcDbEntity
8
0
100
AcDbSpline
62
7
6
CONTINUOUS
70
0
71
3
72
15
73
11
74
9
42
0.0000001000
43
0.0000001000
44
0.0000000001
12
0.0000000000
22
-1.0002889746
32
0.0000000000
13
0.7073111171
23
-0.7073111171
33
0.0000000000
40
0.0000000000
40
0.0000000000
40
0.0000000000
40
0.0000000000
40
0.1921294358
40
0.3777722256
40
0.5489492646
40
0.7007121547
40
0.8257641511
40
0.9188892882
40
0.9777640363
40
1.0000000000
40
1.0000000000
40
1.0000000000
40
1.0000000000
10
90.2022530621
20
33.6207304181
30
0.0000000000
10
90.2022530621
20
33.5566687660
30
0.0000000000
10
90.2024741375
20
33.4307155689
30
0.0000000000
10
90.2033600557
20
33.2476501841
30
0.0000000000
10
90.2050436836
20
33.0781818525
30
0.0000000000
10
90.2065857969
20
32.9285074868
30
0.0000000000
10
90.2104389799
20
32.8060551859
30
0.0000000000
10
90.2098320950
20
32.7116156167
30
0.0000000000
10
90.2188303850
20
32.6575198460
30
0.0000000000
10
90.2141609127
20
32.6261253044
30
0.0000000000
10
90.2194034941
20
32.6208827229
30
0.0000000000
11
90.2022530621
21
33.6207304181
31
0.0000000000
11
90.2025784458
21
33.4285457372
31
0.0000000000
11
90.2035472651
21
33.2428518286
31
0.0000000000
11
90.2051199159
21
33.0716325461
31
0.0000000000
11
90.2072579561
21
32.9198408571
31
0.0000000000
11
90.2098679615
21
32.7947799561
31
0.0000000000
11
90.2128285927
21
32.7016749687
31
0.0000000000
11
90.2160553746
21
32.6428716742
31
0.0000000000
11
90.2194034941
21
32.6208827229
31
0.0000000000
0
SPLINE
5
4C8
100
AcDbEntity
8
0
100
AcDbSpline
62
7
6
CONTINUOUS
70
0
71
3
72
10
73
6
74
4
42
0.0000001000
43
0.0000001000
44
0.0000000001
12
0.0366349556
22
-0.0366349556
32
0.0000000000
13
0.0366762855
23
-0.0365935790
33
0.0000000000
40
0.0000000000
40
0.0000000000
40
0.0000000000
40
0.0000000000
40
0.3331675637
40
0.6665008332
40
1.0000000000
40
1.0000000000
40
1.0000000000
40
1.0000000000
10
163.6877815496
20
255.4058405577
30
0.0000000000
10
163.6918500759
20
255.4017720314
30
0.0000000000
10
163.6999906852
20
255.3936344882
30
0.0000000000
10
163.7122092317
20
255.3814297345
30
0.0000000000
10
163.7203600157
20
255.3732942741
30
0.0000000000
10
163.7244371859
20
255.3692262980
30
0.0000000000
11
163.6877815496
21
255.4058405577
31
0.0000000000
11
163.6999894264
21
255.3936372772
31
0.0000000000
11
163.7122079695
21
255.3814325251
31
0.0000000000
11
163.7244371859
21
255.3692262980
31
0.0000000000
0
SPLINE
5
4C9
100
AcDbEntity
8
0
100
AcDbSpline
62
7
6
CONTINUOUS
70
0
71
3
72
10
73
6
74
4
42
0.0000001000
43
0.0000001000
44
0.0000000001
12
0.0278524353
22
-0.0734016333
32
0.0000000000
13
0.0282114167
23
-0.0732644108
33
0.0000000000
40
0.0000000000
40
0.0000000000
40
0.0000000000
40
0.0000000000
40
0.3338872812
40
0.6672203120
40
1.0000000000
40
1.0000000000
40
1.0000000000
40
1.0000000000
10
161.7639572333
20
273.7758405577
30
0.0000000000
10
161.7670570912
20
273.7676712671
30
0.0000000000
10
161.7732647499
20
273.7513512097
30
0.0000000000
10
161.7826081848
20
273.7269065673
30
0.0000000000
10
161.7888586736
20
273.7106339110
30
0.0000000000
10
161.7919880691
20
273.7025069418
30
0.0000000000
11
161.7639572333
21
273.7758405577
31
0.0000000000
11
161.7732765352
21
273.7513401809
31
0.0000000000
11
161.7826200430
21
273.7268956030
31
0.0000000000
11
161.7919880691
21
273.7025069418
31
0.0000000000
0
SPLINE
5
4CA
100
AcDbEntity
8
0
100
AcDbSpline
62
7
6
CONTINUOUS
70
0
71
3
72
10
73
6
74
4
42
0.0000001000
43
0.0000001000
44
0.0000000001
12
-0.0278524353
22
-0.0734016333
32
0.0000000000
13
-0.0282114167
23
-0.0732644108
33
0.0000000000
40
0.0000000000
40
0.0000000000
40
0.0000000000
40
0.0000000000
40
0.3338872812
40
0.6672203120
40
1.0000000000
40
1.0000000000
40
1.0000000000
40
1.0000000000
10
165.6116058659
20
273.7758405577
30
0.0000000000
10
165.6085060079
20
273.7676712671
30
0.0000000000
10
165.6022983492
20
273.7513512097
30
0.0000000000
10
165.5929549144
20
273.7269065673
30
0.0000000000
10
165.5867044256
20
273.7106339110
30
0.0000000000
10
165.5835750301
20
273.7025069418
30
0.0000000000
11
165.6116058659
21
273.7758405577
31
0.0000000000
11
165.6022865639
21
273.7513401809
31
0.0000000000
11
165.5929430561
21
273.7268956030
31
0.0000000000
11
165.5835750301
21
273.7025069418
31
0.0000000000
0
ENDSEC
0
SECTION
2
OBJECTS
0
DICTIONARY
5
4CB
100
AcDbDictionary
3
ACAD_GROUP
350
4CC
3
ACAD_MLINESTYLE
350
4CD
0
DICTIONARY
5
4CC
102
{ACAD_REACTORS
330
4CB
102
}
100
AcDbDictionary
0
DICTIONARY
5
4CD
102
{ACAD_REACTORS
330
4CB
102
}
100
AcDbDictionary
3
STANDARD
350
4CE
0
MLINESTYLE
5
4CE
102
{ACAD_REACTORS
330
4CD
102
}
100
AcDbMlineStyle
2
STANDARD
70
0
3

62
256
51
90.0
52
90.0
71
2
49
0.5
62
256
6
BYLAYER
49
-0.5
62
256
6
BYLAYER
0
ENDSEC
0
EOF
