  0
SECTION
  2
HEADER
  9
$ACADVER
  1
AC1009
  9
$DWGCODEPAGE
  3
ansi_1250
  9
$INSBASE
 10
0.0
 20
0.0
 30
0.0
  9
$EXTMIN
 10
-1.02
 20
-0.810001
 30
0.0
  9
$EXTMAX
 10
1.807087
 20
0.809999
 30
0.0
  9
$LIMMIN
 10
0.0
 20
0.0
  9
$LIMMAX
 10
0.0
 20
0.0
  9
$ORTHOMODE
 70
     0
  9
$REGENMODE
 70
     1
  9
$FILLMODE
 70
     1
  9
$QTEXTMODE
 70
     0
  9
$MIRRTEXT
 70
     1
  9
$DRAGMODE
 70
     2
  9
$LTSCALE
 40
1.0
  9
$OSMODE
 70
     0
  9
$ATTMODE
 70
     1
  9
$TEXTSIZE
 40
0.2
  9
$TRACEWID
 40
0.05
  9
$TEXTSTYLE
  7
STANDARD
  9
$CLAYER
  8
0
  9
$CELTYPE
  6
CONTINUOUS
  9
$CECOLOR
 62
   256
  9
$DIMSCALE
 40
1.0
  9
$DIMASZ
 40
0.18
  9
$DIMEXO
 40
0.0625
  9
$DIMDLI
 40
0.38
  9
$DIMRND
 40
0.0
  9
$DIMDLE
 40
0.0
  9
$DIMEXE
 40
0.18
  9
$DIMTP
 40
0.0
  9
$DIMTM
 40
0.0
  9
$DIMTXT
 40
0.18
  9
$DIMCEN
 40
0.09
  9
$DIMTSZ
 40
0.0
  9
$DIMTOL
 70
     0
  9
$DIMLIM
 70
     0
  9
$DIMTIH
 70
     1
  9
$DIMTOH
 70
     1
  9
$DIMSE1
 70
     0
  9
$DIMSE2
 70
     0
  9
$DIMTAD
 70
     0
  9
$DIMZIN
 70
     0
  9
$DIMBLK
  1

  9
$DIMASO
 70
     1
  9
$DIMSHO
 70
     1
  9
$DIMPOST
  1

  9
$DIMAPOST
  1

  9
$DIMALT
 70
     0
  9
$DIMALTD
 70
     2
  9
$DIMALTF
 40
25.4
  9
$DIMLFAC
 40
1.0
  9
$DIMTOFL
 70
     0
  9
$DIMTVP
 40
0.0
  9
$DIMTIX
 70
     0
  9
$DIMSOXD
 70
     0
  9
$DIMSAH
 70
     0
  9
$DIMBLK1
  1

  9
$DIMBLK2
  1

  9
$DIMSTYLE
  2
STANDARD
  9
$DIMCLRD
 70
     0
  9
$DIMCLRE
 70
     0
  9
$DIMCLRT
 70
     0
  9
$DIMTFAC
 40
1.0
  9
$DIMGAP
 40
0.09
  9
$LUNITS
 70
     2
  9
$LUPREC
 70
     4
  9
$AXISMODE
 70
     0
  9
$AXISUNIT
 10
0.0
 20
0.0
  9
$SKETCHINC
 40
0.1
  9
$FILLETRAD
 40
0.0
  9
$AUNITS
 70
     0
  9
$AUPREC
 70
     0
  9
$MENU
  1
acad
  9
$ELEVATION
 40
0.0
  9
$PELEVATION
 40
0.0
  9
$THICKNESS
 40
0.0
  9
$LIMCHECK
 70
     0
  9
$BLIPMODE
 70
     1
  9
$CHAMFERA
 40
0.0
  9
$CHAMFERB
 40
0.0
  9
$SKPOLY
 70
     0
  9
$TDCREATE
 40
0.000000000
  9
$TDUPDATE
 40
0.000000000
  9
$TDINDWG
 40
0.0000000000
  9
$TDUSRTIMER
 40
0.0000000000
  9
$USRTIMER
 70
     1
  9
$ANGBASE
 50
0.0
  9
$ANGDIR
 70
     0
  9
$PDMODE
 70
     0
  9
$PDSIZE
 40
0.0
  9
$PLINEWID
 40
0.0
  9
$COORDS
 70
     0
  9
$SPLFRAME
 70
     0
  9
$SPLINETYPE
 70
     6
  9
$SPLINESEGS
 70
     8
  9
$ATTDIA
 70
     0
  9
$ATTREQ
 70
     1
  9
$HANDLING
 70
     1
  9
$HANDSEED
  5
22A
  9
$SURFTAB1
 70
     6
  9
$SURFTAB2
 70
     6
  9
$SURFTYPE
 70
     6
  9
$SURFU
 70
     6
  9
$SURFV
 70
     6
  9
$UCSNAME
  2

  9
$UCSORG
 10
0.0
 20
0.0
 30
0.0
  9
$UCSXDIR
 10
1.0
 20
0.0
 30
0.0
  9
$UCSYDIR
 10
0.0
 20
1.0
 30
0.0
  9
$PUCSNAME
  2

  9
$PUCSORG
 10
0.0
 20
0.0
 30
0.0
  9
$PUCSXDIR
 10
1.0
 20
0.0
 30
0.0
  9
$PUCSYDIR
 10
0.0
 20
1.0
 30
0.0
  9
$USERI1
 70
     0
  9
$USERI2
 70
     0
  9
$USERI3
 70
     0
  9
$USERI4
 70
     0
  9
$USERI5
 70
     0
  9
$USERR1
 40
0.0
  9
$USERR2
 40
0.0
  9
$USERR3
 40
0.0
  9
$USERR4
 40
0.0
  9
$USERR5
 40
0.0
  9
$WORLDVIEW
 70
     1
  9
$SHADEDGE
 70
     3
  9
$SHADEDIF
 70
    70
  9
$TILEMODE
 70
     1
  9
$MAXACTVP
 70
    16
  9
$PINSBASE
 10
0.0
 20
0.0
 30
0.0
  9
$PLIMCHECK
 70
     0
  9
$PEXTMIN
 10
1.000000E+20
 20
1.000000E+20
 30
1.000000E+20
  9
$PEXTMAX
 10
-1.000000E+20
 20
-1.000000E+20
 30
-1.000000E+20
  9
$PLIMMIN
 10
0.0
 20
0.0
  9
$PLIMMAX
 10
12.0
 20
9.0
  9
$UNITMODE
 70
     0
  9
$VISRETAIN
 70
     0
  9
$PLINEGEN
 70
     1
  9
$PSLTSCALE
 70
     0
  9
$TREEDEPTH
 70
  3020
  0
ENDSEC
  0
SECTION
  2
TABLES
  0
TABLE
  2
VPORT
 70
     1
  0
VPORT
  2
*ACTIVE
 70
     0
 10
0.0
 20
0.0
 11
1.0
 21
1.0
 12
6.591288
 22
4.579184
 13
0.0
 23
0.0
 14
1.0
 24
1.0
 15
0.0
 25
0.0
 16
0.0
 26
0.0
 36
1.0
 17
0.0
 27
0.0
 37
0.0
 40
9.158369
 41
0.688564
 42
50.0
 43
0.0
 44
0.0
 50
0.0
 51
0.0
 71
     0
 72
   100
 73
     1
 74
     1
 75
     0
 76
     0
 77
     0
 78
     0
  0
ENDTAB
  0
TABLE
  2
LTYPE
 70
     5
  0
LTYPE
  2
CONTINUOUS
 70
    64
  3
Solid line
 72
    65
 73
     0
 40
0.0
  0
LTYPE
  2
CENTER
 70
    64
  3
Center ____ _ ____ _ ____ _ ____ _ ____ _ ____
 72
    65
 73
     4
 40
50.8
 49
31.75
 49
-6.35
 49
6.35
 49
-6.35
  0
LTYPE
  2
HIDDEN
 70
    64
  3
Hidden __ __ __ __ __ __ __ __ __ __ __ __ __ __
 72
    65
 73
     2
 40
9.525
 49
6.35
 49
-3.175
  0
LTYPE
  2
CENTER2
 70
    64
  3
Center (.5x) ___ _ ___ _ ___ _ ___ _ ___ _ ___
 72
    65
 73
     4
 40
28.575
 49
19.05
 49
-3.175
 49
3.175
 49
-3.175
  0
LTYPE
  2
HIDDEN2
 70
    64
  3
Hidden (.5x) _ _ _ _ _ _ _ _ _ _ _ _ _ _ _ _ _
 72
    65
 73
     2
 40
4.7625
 49
3.175
 49
-1.5875
  0
ENDTAB
  0
TABLE
  2
LAYER
 70
     1
  0
LAYER
  2
0
 70
     0
 62
     7
  6
CONTINUOUS
  0
ENDTAB
  0
TABLE
  2
STYLE
 70
     1
  0
STYLE
  2
STANDARD
 70
     0
 40
0.0
 41
1.0
 50
0.0
 71
     0
 42
0.0
  3
txt
  4

  0
ENDTAB
  0
TABLE
  2
VIEW
 70
     0
  0
ENDTAB
  0
TABLE
  2
UCS
 70
     0
  0
ENDTAB
  0
TABLE
  2
APPID
 70
     1
  0
APPID
  2
ACAD
 70
     0
  0
ENDTAB
  0
TABLE
  2
DIMSTYLE
 70
     1
  0
DIMSTYLE
  2
STANDARD
 70
     0
  3

  4

  5

  6

  7

 40
1.0
 41
0.18
 42
0.0625
 43
0.38
 44
0.18
 45
0.0
 46
0.0
 47
0.0
 48
0.0
 71
     0
 72
     0
 73
     1
 74
     1
 75
     0
 76
     0
 77
     0
 78
     0
140
0.18
141
0.09
142
0.0
143
25.4
144
1.0
145
0.0
146
1.0
147
0.09
170
     0
171
     2
172
     0
173
     0
174
     0
175
     0
176
     0
177
     0
178
     0
  0
ENDTAB
  0
ENDSEC
  0
SECTION
  2
BLOCKS
  0
ENDSEC
  0
SECTION
  2
ENTITIES
  0
LINE
  8
0
  6
CONTINUOUS
 62
     7
  5
140
 10
0.3125
 20
0.78125
 30
0.0
 11
0.3125
 21
0.0
 31
0.0
  0
LINE
  8
0
  6
CONTINUOUS
 62
     7
  5
141
 10
0.3125
 20
0.0
 30
0.0
 11
0.3125
 21
-0.78125
 31
0.0
  0
LINE
  8
0
  6
CONTINUOUS
 62
     7
  5
142
 10
0.25
 20
0.78125
 30
0.0
 11
0.25
 21
0.0
 31
0.0
  0
LINE
  8
0
  6
CONTINUOUS
 62
     7
  5
143
 10
0.25
 20
0.0
 30
0.0
 11
0.25
 21
-0.78125
 31
0.0
  0
LINE
  8
0
  6
CONTINUOUS
 62
     7
  5
144
 10
0.491087
 20
0.796866
 30
0.0
 11
0.491087
 21
0.799
 31
0.0
  0
LINE
  8
0
  6
CONTINUOUS
 62
     7
  5
145
 10
0.491087
 20
0.519
 30
0.0
 11
0.491087
 21
0.669002
 31
0.0
  0
LINE
  8
0
  6
CONTINUOUS
 62
     7
  5
146
 10
0.441087
 20
0.766
 30
0.0
 11
0.441087
 21
0.722349
 31
0.0
  0
LINE
  8
0
  6
CONTINUOUS
 62
     7
  5
147
 10
0.441087
 20
0.796998
 30
0.0
 11
0.441087
 21
0.766
 31
0.0
  0
LINE
  8
0
  6
CONTINUOUS
 62
     7
  5
148
 10
0.441087
 20
-0.198
 30
0.0
 11
0.441087
 21
-0.26
 31
0.0
  0
LINE
  8
0
  6
CONTINUOUS
 62
     7
  5
149
 10
0.441087
 20
-0.766
 30
0.0
 11
0.441087
 21
-0.796998
 31
0.0
  0
LINE
  8
0
  6
CONTINUOUS
 62
     7
  5
14A
 10
0.441087
 20
-0.722349
 30
0.0
 11
0.441087
 21
-0.766
 31
0.0
  0
ARC
  8
0
  6
CONTINUOUS
 62
     7
  5
14B
 10
0.752087
 20
-0.690001
 30
0.0
 40
0.12
 50
246.442818
 51
270.0
  0
LINE
  8
0
  6
CONTINUOUS
 62
     7
  5
14C
 10
0.752087
 20
-0.810001
 30
0.0
 11
0.967087
 21
-0.810001
 31
0.0
  0
ARC
  8
0
  6
CONTINUOUS
 62
     7
  5
14D
 10
0.967087
 20
-0.760001
 30
0.0
 40
0.05
 50
270.0
 51
306.871045
  0
LINE
  8
0
  6
CONTINUOUS
 62
     7
  5
14E
 10
1.067659
 20
-0.8
 30
0.0
 11
1.073378
 21
-0.803302
 31
0.0
  0
ARC
  8
0
  6
CONTINUOUS
 62
     7
  5
14F
 10
1.098378
 20
-0.760001
 30
0.0
 40
0.05
 50
240.0
 51
306.871045
  0
ARC
  8
0
  6
CONTINUOUS
 62
     7
  5
150
 10
1.098378
 20
0.759999
 30
0.0
 40
0.05
 50
53.131249
 51
120.0
  0
LINE
  8
0
  6
CONTINUOUS
 62
     7
  5
151
 10
1.073378
 20
0.803301
 30
0.0
 11
1.067661
 21
0.8
 31
0.0
  0
ARC
  8
0
  6
CONTINUOUS
 62
     7
  5
152
 10
0.967087
 20
0.759999
 30
0.0
 40
0.05
 50
53.131249
 51
90.0
  0
LINE
  8
0
  6
CONTINUOUS
 62
     7
  5
153
 10
0.967087
 20
0.809999
 30
0.0
 11
0.752087
 21
0.809999
 31
0.0
  0
ARC
  8
0
  6
CONTINUOUS
 62
     7
  5
154
 10
0.752087
 20
0.689999
 30
0.0
 40
0.12
 50
90.0
 51
113.555747
  0
LINE
  8
0
  6
CONTINUOUS
 62
     7
  5
155
 10
0.491087
 20
0.519
 30
0.0
 11
0.531087
 21
0.519
 31
0.0
  0
LINE
  8
0
  6
CONTINUOUS
 62
     7
  5
156
 10
0.531087
 20
-0.419
 30
0.0
 11
0.531087
 21
-0.519
 31
0.0
  0
LINE
  8
0
  6
CONTINUOUS
 62
     7
  5
157
 10
0.531087
 20
0.519
 30
0.0
 11
0.531087
 21
0.419
 31
0.0
  0
LINE
  8
0
  6
CONTINUOUS
 62
     7
  5
158
 10
0.531087
 20
-0.519
 30
0.0
 11
0.491087
 21
-0.519
 31
0.0
  0
LINE
  8
0
  6
CONTINUOUS
 62
     7
  5
159
 10
0.500087
 20
-0.188
 30
0.0
 11
0.500087
 21
0.188
 31
0.0
  0
LINE
  8
0
  6
CONTINUOUS
 62
     7
  5
15A
 10
0.571087
 20
-0.02735
 30
0.0
 11
0.511087
 21
-0.02735
 31
0.0
  0
LINE
  8
0
  6
CONTINUOUS
 62
     7
  5
15B
 10
0.511087
 20
0.02735
 30
0.0
 11
0.571087
 21
0.02735
 31
0.0
  0
LINE
  8
0
  6
CONTINUOUS
 62
     7
  5
15C
 10
0.491087
 20
-0.669002
 30
0.0
 11
0.491087
 21
-0.519
 31
0.0
  0
LINE
  8
0
  6
CONTINUOUS
 62
     7
  5
15D
 10
0.491087
 20
-0.799
 30
0.0
 11
0.491087
 21
-0.796866
 31
0.0
  0
LINE
  8
0
  6
CONTINUOUS
 62
     7
  5
15E
 10
0.571087
 20
-0.615
 30
0.0
 11
0.571087
 21
-0.8
 31
0.0
  0
LINE
  8
0
  6
CONTINUOUS
 62
     7
  5
15F
 10
0.571087
 20
0.615
 30
0.0
 11
0.571087
 21
-0.615
 31
0.0
  0
LINE
  8
0
  6
CONTINUOUS
 62
     7
  5
160
 10
0.571087
 20
0.8
 30
0.0
 11
0.571087
 21
0.615
 31
0.0
  0
LINE
  8
0
  6
CONTINUOUS
 62
     7
  5
161
 10
0.511087
 20
-0.218052
 30
0.0
 11
0.511087
 21
-0.02735
 31
0.0
  0
LINE
  8
0
  6
CONTINUOUS
 62
     7
  5
162
 10
0.511087
 20
-0.218052
 30
0.0
 11
0.571087
 21
-0.218052
 31
0.0
  0
LINE
  8
0
  6
CONTINUOUS
 62
     7
  5
163
 10
0.511087
 20
-0.198
 30
0.0
 11
0.441087
 21
-0.198
 31
0.0
  0
LINE
  8
0
  6
CONTINUOUS
 62
     7
  5
164
 10
0.571087
 20
-0.26
 30
0.0
 11
0.441087
 21
-0.26
 31
0.0
  0
LINE
  8
0
  6
CONTINUOUS
 62
     7
  5
165
 10
0.511087
 20
0.198
 30
0.0
 11
0.441087
 21
0.198
 31
0.0
  0
LINE
  8
0
  6
CONTINUOUS
 62
     7
  5
166
 10
0.571087
 20
0.218052
 30
0.0
 11
0.511087
 21
0.218052
 31
0.0
  0
LINE
  8
0
  6
CONTINUOUS
 62
     7
  5
167
 10
0.571087
 20
0.26
 30
0.0
 11
0.441087
 21
0.26
 31
0.0
  0
LINE
  8
0
  6
CONTINUOUS
 62
     7
  5
168
 10
0.441087
 20
0.26
 30
0.0
 11
0.441087
 21
0.198
 31
0.0
  0
LINE
  8
0
  6
CONTINUOUS
 62
     7
  5
169
 10
0.511087
 20
0.02735
 30
0.0
 11
0.511087
 21
0.218052
 31
0.0
  0
LINE
  8
0
  6
CONTINUOUS
 62
     7
  5
16A
 10
1.807087
 20
0.719
 30
0.0
 11
1.807087
 21
0.499
 31
0.0
  0
LINE
  8
0
  6
CONTINUOUS
 62
     7
  5
16B
 10
1.807087
 20
-0.499
 30
0.0
 11
1.807087
 21
-0.719
 31
0.0
  0
LINE
  8
0
  6
CONTINUOUS
 62
     7
  5
16C
 10
0.571087
 20
0.8
 30
0.0
 11
1.707087
 21
0.8
 31
0.0
  0
LINE
  8
0
  6
CONTINUOUS
 62
     7
  5
16D
 10
0.571087
 20
-0.8
 30
0.0
 11
1.707087
 21
-0.8
 31
0.0
  0
LINE
  8
0
  6
CONTINUOUS
 62
     7
  5
16E
 10
1.707087
 20
-0.8
 30
0.0
 11
1.707087
 21
-0.615
 31
0.0
  0
LINE
  8
0
  6
CONTINUOUS
 62
     7
  5
16F
 10
1.707087
 20
-0.615
 30
0.0
 11
1.707087
 21
0.615
 31
0.0
  0
LINE
  8
0
  6
CONTINUOUS
 62
     7
  5
170
 10
1.707087
 20
0.615
 30
0.0
 11
1.707087
 21
0.8
 31
0.0
  0
LINE
  8
0
  6
CONTINUOUS
 62
     7
  5
171
 10
0.441087
 20
0.26
 30
0.0
 11
0.441087
 21
0.722349
 31
0.0
  0
LINE
  8
0
  6
CONTINUOUS
 62
     7
  5
172
 10
0.441087
 20
-0.198
 30
0.0
 11
0.441087
 21
0.198
 31
0.0
  0
LINE
  8
0
  6
CONTINUOUS
 62
     7
  5
173
 10
0.441087
 20
-0.722349
 30
0.0
 11
0.441087
 21
-0.26
 31
0.0
  0
LINE
  8
0
  6
CONTINUOUS
 62
     7
  5
174
 10
0.39124
 20
-0.767717
 30
0.0
 11
0.39124
 21
0.767717
 31
0.0
  0
LINE
  8
0
  6
CONTINUOUS
 62
     7
  5
175
 10
-0.11
 20
0.669941
 30
0.0
 11
-0.11
 21
0.302331
 31
0.0
  0
LINE
  8
0
  6
CONTINUOUS
 62
     7
  5
176
 10
-0.11
 20
0.725
 30
0.0
 11
-0.11
 21
0.6875
 31
0.0
  0
LINE
  8
0
  6
CONTINUOUS
 62
     7
  5
177
 10
-0.11
 20
-0.12083
 30
0.0
 11
-0.11
 21
-0.25994
 31
0.0
  0
LINE
  8
0
  6
CONTINUOUS
 62
     7
  5
178
 10
-0.11
 20
-0.12083
 30
0.0
 11
-0.11
 21
0.12083
 31
0.0
  0
LINE
  8
0
  6
CONTINUOUS
 62
     7
  5
179
 10
-0.11
 20
0.25994
 30
0.0
 11
-0.11
 21
0.12083
 31
0.0
  0
LINE
  8
0
  6
CONTINUOUS
 62
     7
  5
17A
 10
-0.11
 20
-0.302331
 30
0.0
 11
-0.11
 21
-0.669941
 31
0.0
  0
LINE
  8
0
  6
CONTINUOUS
 62
     7
  5
17B
 10
-0.11
 20
-0.6875
 30
0.0
 11
-0.11
 21
-0.735
 31
0.0
  0
LINE
  8
0
  6
CONTINUOUS
 62
     7
  5
17C
 10
-0.06
 20
0.725
 30
0.0
 11
-0.11
 21
0.725
 31
0.0
  0
LINE
  8
0
  6
CONTINUOUS
 62
     7
  5
17D
 10
-0.11
 20
0.12083
 30
0.0
 11
-0.06
 21
0.12083
 31
0.0
  0
LINE
  8
0
  6
CONTINUOUS
 62
     7
  5
17E
 10
-0.06
 20
-0.12083
 30
0.0
 11
-0.11
 21
-0.12083
 31
0.0
  0
LINE
  8
0
  6
CONTINUOUS
 62
     7
  5
17F
 10
-0.11
 20
0.284772
 30
0.0
 11
-0.11
 21
0.302331
 31
0.0
  0
LINE
  8
0
  6
CONTINUOUS
 62
     7
  5
180
 10
-0.11
 20
0.25994
 30
0.0
 11
-0.11
 21
0.284772
 31
0.0
  0
LINE
  8
0
  6
CONTINUOUS
 62
     7
  5
181
 10
-0.11
 20
-0.284772
 30
0.0
 11
-0.11
 21
-0.25994
 31
0.0
  0
LINE
  8
0
  6
CONTINUOUS
 62
     7
  5
182
 10
-0.11
 20
-0.302331
 30
0.0
 11
-0.11
 21
-0.284772
 31
0.0
  0
LINE
  8
0
  6
CONTINUOUS
 62
     7
  5
183
 10
-0.11
 20
0.669941
 30
0.0
 11
-0.11
 21
0.6875
 31
0.0
  0
LINE
  8
0
  6
CONTINUOUS
 62
     7
  5
184
 10
-0.11
 20
-0.6875
 30
0.0
 11
-0.11
 21
-0.669941
 31
0.0
  0
LINE
  8
0
  6
CONTINUOUS
 62
     7
  5
185
 10
-1.02
 20
0.551181
 30
0.0
 11
-1.02
 21
-0.551181
 31
0.0
  0
LINE
  8
0
  6
CONTINUOUS
 62
     7
  5
186
 10
-0.934
 20
0.629921
 30
0.0
 11
-0.934
 21
0.0
 31
0.0
  0
LINE
  8
0
  6
CONTINUOUS
 62
     7
  5
187
 10
-0.934
 20
0.0
 30
0.0
 11
-0.934
 21
-0.629921
 31
0.0
  0
LINE
  8
0
  6
CONTINUOUS
 62
     7
  5
188
 10
-0.325053
 20
-0.6875
 30
0.0
 11
-0.357757
 21
-0.6875
 31
0.0
  0
LINE
  8
0
  6
CONTINUOUS
 62
     7
  5
189
 10
-0.325053
 20
-0.284772
 30
0.0
 11
-0.328816
 21
-0.297143
 31
0.0
  0
LINE
  8
0
  6
CONTINUOUS
 62
     7
  5
18A
 10
-0.328816
 20
-0.297143
 30
0.0
 11
-0.332327
 21
-0.309354
 31
0.0
  0
LINE
  8
0
  6
CONTINUOUS
 62
     7
  5
18B
 10
-0.332327
 20
-0.309354
 30
0.0
 11
-0.335591
 21
-0.321418
 31
0.0
  0
LINE
  8
0
  6
CONTINUOUS
 62
     7
  5
18C
 10
-0.335591
 20
-0.321418
 30
0.0
 11
-0.338614
 21
-0.333346
 31
0.0
  0
LINE
  8
0
  6
CONTINUOUS
 62
     7
  5
18D
 10
-0.338614
 20
-0.333346
 30
0.0
 11
-0.341401
 21
-0.345149
 31
0.0
  0
LINE
  8
0
  6
CONTINUOUS
 62
     7
  5
18E
 10
-0.341401
 20
-0.345149
 30
0.0
 11
-0.343957
 21
-0.356837
 31
0.0
  0
LINE
  8
0
  6
CONTINUOUS
 62
     7
  5
18F
 10
-0.343957
 20
-0.356837
 30
0.0
 11
-0.346286
 21
-0.368421
 31
0.0
  0
LINE
  8
0
  6
CONTINUOUS
 62
     7
  5
190
 10
-0.346286
 20
-0.368421
 30
0.0
 11
-0.348391
 21
-0.37991
 31
0.0
  0
LINE
  8
0
  6
CONTINUOUS
 62
     7
  5
191
 10
-0.348391
 20
-0.37991
 30
0.0
 11
-0.350277
 21
-0.391315
 31
0.0
  0
LINE
  8
0
  6
CONTINUOUS
 62
     7
  5
192
 10
-0.350277
 20
-0.391315
 30
0.0
 11
-0.351946
 21
-0.402645
 31
0.0
  0
LINE
  8
0
  6
CONTINUOUS
 62
     7
  5
193
 10
-0.351946
 20
-0.402645
 30
0.0
 11
-0.3534
 21
-0.413909
 31
0.0
  0
LINE
  8
0
  6
CONTINUOUS
 62
     7
  5
194
 10
-0.3534
 20
-0.413909
 30
0.0
 11
-0.354642
 21
-0.425116
 31
0.0
  0
LINE
  8
0
  6
CONTINUOUS
 62
     7
  5
195
 10
-0.354642
 20
-0.425116
 30
0.0
 11
-0.355675
 21
-0.436275
 31
0.0
  0
LINE
  8
0
  6
CONTINUOUS
 62
     7
  5
196
 10
-0.355675
 20
-0.436275
 30
0.0
 11
-0.356499
 21
-0.447395
 31
0.0
  0
LINE
  8
0
  6
CONTINUOUS
 62
     7
  5
197
 10
-0.356499
 20
-0.447395
 30
0.0
 11
-0.357115
 21
-0.458485
 31
0.0
  0
LINE
  8
0
  6
CONTINUOUS
 62
     7
  5
198
 10
-0.357115
 20
-0.458485
 30
0.0
 11
-0.357526
 21
-0.469554
 31
0.0
  0
LINE
  8
0
  6
CONTINUOUS
 62
     7
  5
199
 10
-0.357526
 20
-0.469554
 30
0.0
 11
-0.357731
 21
-0.48061
 31
0.0
  0
LINE
  8
0
  6
CONTINUOUS
 62
     7
  5
19A
 10
-0.357731
 20
-0.48061
 30
0.0
 11
-0.357731
 21
-0.491662
 31
0.0
  0
LINE
  8
0
  6
CONTINUOUS
 62
     7
  5
19B
 10
-0.357731
 20
-0.491662
 30
0.0
 11
-0.357526
 21
-0.502718
 31
0.0
  0
LINE
  8
0
  6
CONTINUOUS
 62
     7
  5
19C
 10
-0.357526
 20
-0.502718
 30
0.0
 11
-0.357115
 21
-0.513786
 31
0.0
  0
LINE
  8
0
  6
CONTINUOUS
 62
     7
  5
19D
 10
-0.357115
 20
-0.513786
 30
0.0
 11
-0.356499
 21
-0.524877
 31
0.0
  0
LINE
  8
0
  6
CONTINUOUS
 62
     7
  5
19E
 10
-0.356499
 20
-0.524877
 30
0.0
 11
-0.355675
 21
-0.535997
 31
0.0
  0
LINE
  8
0
  6
CONTINUOUS
 62
     7
  5
19F
 10
-0.355675
 20
-0.535997
 30
0.0
 11
-0.354642
 21
-0.547156
 31
0.0
  0
LINE
  8
0
  6
CONTINUOUS
 62
     7
  5
1A0
 10
-0.354642
 20
-0.547156
 30
0.0
 11
-0.3534
 21
-0.558363
 31
0.0
  0
LINE
  8
0
  6
CONTINUOUS
 62
     7
  5
1A1
 10
-0.3534
 20
-0.558363
 30
0.0
 11
-0.351946
 21
-0.569627
 31
0.0
  0
LINE
  8
0
  6
CONTINUOUS
 62
     7
  5
1A2
 10
-0.351946
 20
-0.569627
 30
0.0
 11
-0.350277
 21
-0.580957
 31
0.0
  0
LINE
  8
0
  6
CONTINUOUS
 62
     7
  5
1A3
 10
-0.350277
 20
-0.580957
 30
0.0
 11
-0.348391
 21
-0.592361
 31
0.0
  0
LINE
  8
0
  6
CONTINUOUS
 62
     7
  5
1A4
 10
-0.348391
 20
-0.592361
 30
0.0
 11
-0.346286
 21
-0.603851
 31
0.0
  0
LINE
  8
0
  6
CONTINUOUS
 62
     7
  5
1A5
 10
-0.346286
 20
-0.603851
 30
0.0
 11
-0.343957
 21
-0.615435
 31
0.0
  0
LINE
  8
0
  6
CONTINUOUS
 62
     7
  5
1A6
 10
-0.343957
 20
-0.615435
 30
0.0
 11
-0.341401
 21
-0.627123
 31
0.0
  0
LINE
  8
0
  6
CONTINUOUS
 62
     7
  5
1A7
 10
-0.341401
 20
-0.627123
 30
0.0
 11
-0.338614
 21
-0.638925
 31
0.0
  0
LINE
  8
0
  6
CONTINUOUS
 62
     7
  5
1A8
 10
-0.338614
 20
-0.638925
 30
0.0
 11
-0.335591
 21
-0.650853
 31
0.0
  0
LINE
  8
0
  6
CONTINUOUS
 62
     7
  5
1A9
 10
-0.335591
 20
-0.650853
 30
0.0
 11
-0.332327
 21
-0.662917
 31
0.0
  0
LINE
  8
0
  6
CONTINUOUS
 62
     7
  5
1AA
 10
-0.332327
 20
-0.662917
 30
0.0
 11
-0.328816
 21
-0.675129
 31
0.0
  0
LINE
  8
0
  6
CONTINUOUS
 62
     7
  5
1AB
 10
-0.328816
 20
-0.675129
 30
0.0
 11
-0.325053
 21
-0.6875
 31
0.0
  0
LINE
  8
0
  6
CONTINUOUS
 62
     7
  5
1AC
 10
-0.325053
 20
0.284772
 30
0.0
 11
-0.328816
 21
0.267277
 31
0.0
  0
LINE
  8
0
  6
CONTINUOUS
 62
     7
  5
1AD
 10
-0.328816
 20
0.267277
 30
0.0
 11
-0.332327
 21
0.250007
 31
0.0
  0
LINE
  8
0
  6
CONTINUOUS
 62
     7
  5
1AE
 10
-0.332327
 20
0.250007
 30
0.0
 11
-0.335591
 21
0.232946
 31
0.0
  0
LINE
  8
0
  6
CONTINUOUS
 62
     7
  5
1AF
 10
-0.335591
 20
0.232946
 30
0.0
 11
-0.338614
 21
0.216077
 31
0.0
  0
LINE
  8
0
  6
CONTINUOUS
 62
     7
  5
1B0
 10
-0.338614
 20
0.216077
 30
0.0
 11
-0.341401
 21
0.199385
 31
0.0
  0
LINE
  8
0
  6
CONTINUOUS
 62
     7
  5
1B1
 10
-0.341401
 20
0.199385
 30
0.0
 11
-0.343957
 21
0.182856
 31
0.0
  0
LINE
  8
0
  6
CONTINUOUS
 62
     7
  5
1B2
 10
-0.343957
 20
0.182856
 30
0.0
 11
-0.346286
 21
0.166474
 31
0.0
  0
LINE
  8
0
  6
CONTINUOUS
 62
     7
  5
1B3
 10
-0.346286
 20
0.166474
 30
0.0
 11
-0.348391
 21
0.150225
 31
0.0
  0
LINE
  8
0
  6
CONTINUOUS
 62
     7
  5
1B4
 10
-0.348391
 20
0.150225
 30
0.0
 11
-0.350277
 21
0.134097
 31
0.0
  0
LINE
  8
0
  6
CONTINUOUS
 62
     7
  5
1B5
 10
-0.350277
 20
0.134097
 30
0.0
 11
-0.351946
 21
0.118074
 31
0.0
  0
LINE
  8
0
  6
CONTINUOUS
 62
     7
  5
1B6
 10
-0.351946
 20
0.118074
 30
0.0
 11
-0.3534
 21
0.102145
 31
0.0
  0
LINE
  8
0
  6
CONTINUOUS
 62
     7
  5
1B7
 10
-0.3534
 20
0.102145
 30
0.0
 11
-0.354642
 21
0.086296
 31
0.0
  0
LINE
  8
0
  6
CONTINUOUS
 62
     7
  5
1B8
 10
-0.354642
 20
0.086296
 30
0.0
 11
-0.355675
 21
0.070514
 31
0.0
  0
LINE
  8
0
  6
CONTINUOUS
 62
     7
  5
1B9
 10
-0.355675
 20
0.070514
 30
0.0
 11
-0.356499
 21
0.054788
 31
0.0
  0
LINE
  8
0
  6
CONTINUOUS
 62
     7
  5
1BA
 10
-0.356499
 20
0.054788
 30
0.0
 11
-0.357115
 21
0.039104
 31
0.0
  0
LINE
  8
0
  6
CONTINUOUS
 62
     7
  5
1BB
 10
-0.357115
 20
0.039104
 30
0.0
 11
-0.357526
 21
0.02345
 31
0.0
  0
LINE
  8
0
  6
CONTINUOUS
 62
     7
  5
1BC
 10
-0.357526
 20
0.02345
 30
0.0
 11
-0.357731
 21
0.007815
 31
0.0
  0
LINE
  8
0
  6
CONTINUOUS
 62
     7
  5
1BD
 10
-0.357731
 20
0.007815
 30
0.0
 11
-0.357731
 21
-0.007815
 31
0.0
  0
LINE
  8
0
  6
CONTINUOUS
 62
     7
  5
1BE
 10
-0.357731
 20
-0.007815
 30
0.0
 11
-0.357526
 21
-0.02345
 31
0.0
  0
LINE
  8
0
  6
CONTINUOUS
 62
     7
  5
1BF
 10
-0.357526
 20
-0.02345
 30
0.0
 11
-0.357115
 21
-0.039104
 31
0.0
  0
LINE
  8
0
  6
CONTINUOUS
 62
     7
  5
1C0
 10
-0.357115
 20
-0.039104
 30
0.0
 11
-0.356499
 21
-0.054788
 31
0.0
  0
LINE
  8
0
  6
CONTINUOUS
 62
     7
  5
1C1
 10
-0.356499
 20
-0.054788
 30
0.0
 11
-0.355675
 21
-0.070514
 31
0.0
  0
LINE
  8
0
  6
CONTINUOUS
 62
     7
  5
1C2
 10
-0.355675
 20
-0.070514
 30
0.0
 11
-0.354642
 21
-0.086296
 31
0.0
  0
LINE
  8
0
  6
CONTINUOUS
 62
     7
  5
1C3
 10
-0.354642
 20
-0.086296
 30
0.0
 11
-0.3534
 21
-0.102145
 31
0.0
  0
LINE
  8
0
  6
CONTINUOUS
 62
     7
  5
1C4
 10
-0.3534
 20
-0.102145
 30
0.0
 11
-0.351946
 21
-0.118074
 31
0.0
  0
LINE
  8
0
  6
CONTINUOUS
 62
     7
  5
1C5
 10
-0.351946
 20
-0.118074
 30
0.0
 11
-0.350277
 21
-0.134097
 31
0.0
  0
LINE
  8
0
  6
CONTINUOUS
 62
     7
  5
1C6
 10
-0.350277
 20
-0.134097
 30
0.0
 11
-0.348391
 21
-0.150225
 31
0.0
  0
LINE
  8
0
  6
CONTINUOUS
 62
     7
  5
1C7
 10
-0.348391
 20
-0.150225
 30
0.0
 11
-0.346286
 21
-0.166474
 31
0.0
  0
LINE
  8
0
  6
CONTINUOUS
 62
     7
  5
1C8
 10
-0.346286
 20
-0.166474
 30
0.0
 11
-0.343957
 21
-0.182856
 31
0.0
  0
LINE
  8
0
  6
CONTINUOUS
 62
     7
  5
1C9
 10
-0.343957
 20
-0.182856
 30
0.0
 11
-0.341401
 21
-0.199385
 31
0.0
  0
LINE
  8
0
  6
CONTINUOUS
 62
     7
  5
1CA
 10
-0.341401
 20
-0.199385
 30
0.0
 11
-0.338614
 21
-0.216077
 31
0.0
  0
LINE
  8
0
  6
CONTINUOUS
 62
     7
  5
1CB
 10
-0.338614
 20
-0.216077
 30
0.0
 11
-0.335591
 21
-0.232946
 31
0.0
  0
LINE
  8
0
  6
CONTINUOUS
 62
     7
  5
1CC
 10
-0.335591
 20
-0.232946
 30
0.0
 11
-0.332327
 21
-0.250007
 31
0.0
  0
LINE
  8
0
  6
CONTINUOUS
 62
     7
  5
1CD
 10
-0.332327
 20
-0.250007
 30
0.0
 11
-0.328816
 21
-0.267277
 31
0.0
  0
LINE
  8
0
  6
CONTINUOUS
 62
     7
  5
1CE
 10
-0.328816
 20
-0.267277
 30
0.0
 11
-0.325053
 21
-0.284772
 31
0.0
  0
LINE
  8
0
  6
CONTINUOUS
 62
     7
  5
1CF
 10
-0.325053
 20
0.6875
 30
0.0
 11
-0.328816
 21
0.675129
 31
0.0
  0
LINE
  8
0
  6
CONTINUOUS
 62
     7
  5
1D0
 10
-0.328816
 20
0.675129
 30
0.0
 11
-0.332327
 21
0.662917
 31
0.0
  0
LINE
  8
0
  6
CONTINUOUS
 62
     7
  5
1D1
 10
-0.332327
 20
0.662917
 30
0.0
 11
-0.335591
 21
0.650853
 31
0.0
  0
LINE
  8
0
  6
CONTINUOUS
 62
     7
  5
1D2
 10
-0.335591
 20
0.650853
 30
0.0
 11
-0.338614
 21
0.638925
 31
0.0
  0
LINE
  8
0
  6
CONTINUOUS
 62
     7
  5
1D3
 10
-0.338614
 20
0.638925
 30
0.0
 11
-0.341401
 21
0.627123
 31
0.0
  0
LINE
  8
0
  6
CONTINUOUS
 62
     7
  5
1D4
 10
-0.341401
 20
0.627123
 30
0.0
 11
-0.343957
 21
0.615435
 31
0.0
  0
LINE
  8
0
  6
CONTINUOUS
 62
     7
  5
1D5
 10
-0.343957
 20
0.615435
 30
0.0
 11
-0.346286
 21
0.603851
 31
0.0
  0
LINE
  8
0
  6
CONTINUOUS
 62
     7
  5
1D6
 10
-0.346286
 20
0.603851
 30
0.0
 11
-0.348391
 21
0.592361
 31
0.0
  0
LINE
  8
0
  6
CONTINUOUS
 62
     7
  5
1D7
 10
-0.348391
 20
0.592361
 30
0.0
 11
-0.350277
 21
0.580957
 31
0.0
  0
LINE
  8
0
  6
CONTINUOUS
 62
     7
  5
1D8
 10
-0.350277
 20
0.580957
 30
0.0
 11
-0.351946
 21
0.569627
 31
0.0
  0
LINE
  8
0
  6
CONTINUOUS
 62
     7
  5
1D9
 10
-0.351946
 20
0.569627
 30
0.0
 11
-0.3534
 21
0.558363
 31
0.0
  0
LINE
  8
0
  6
CONTINUOUS
 62
     7
  5
1DA
 10
-0.3534
 20
0.558363
 30
0.0
 11
-0.354642
 21
0.547156
 31
0.0
  0
LINE
  8
0
  6
CONTINUOUS
 62
     7
  5
1DB
 10
-0.354642
 20
0.547156
 30
0.0
 11
-0.355675
 21
0.535997
 31
0.0
  0
LINE
  8
0
  6
CONTINUOUS
 62
     7
  5
1DC
 10
-0.355675
 20
0.535997
 30
0.0
 11
-0.356499
 21
0.524877
 31
0.0
  0
LINE
  8
0
  6
CONTINUOUS
 62
     7
  5
1DD
 10
-0.356499
 20
0.524877
 30
0.0
 11
-0.357115
 21
0.513786
 31
0.0
  0
LINE
  8
0
  6
CONTINUOUS
 62
     7
  5
1DE
 10
-0.357115
 20
0.513786
 30
0.0
 11
-0.357526
 21
0.502718
 31
0.0
  0
LINE
  8
0
  6
CONTINUOUS
 62
     7
  5
1DF
 10
-0.357526
 20
0.502718
 30
0.0
 11
-0.357731
 21
0.491662
 31
0.0
  0
LINE
  8
0
  6
CONTINUOUS
 62
     7
  5
1E0
 10
-0.357731
 20
0.491662
 30
0.0
 11
-0.357731
 21
0.48061
 31
0.0
  0
LINE
  8
0
  6
CONTINUOUS
 62
     7
  5
1E1
 10
-0.357731
 20
0.48061
 30
0.0
 11
-0.357526
 21
0.469554
 31
0.0
  0
LINE
  8
0
  6
CONTINUOUS
 62
     7
  5
1E2
 10
-0.357526
 20
0.469554
 30
0.0
 11
-0.357115
 21
0.458485
 31
0.0
  0
LINE
  8
0
  6
CONTINUOUS
 62
     7
  5
1E3
 10
-0.357115
 20
0.458485
 30
0.0
 11
-0.356499
 21
0.447395
 31
0.0
  0
LINE
  8
0
  6
CONTINUOUS
 62
     7
  5
1E4
 10
-0.356499
 20
0.447395
 30
0.0
 11
-0.355675
 21
0.436275
 31
0.0
  0
LINE
  8
0
  6
CONTINUOUS
 62
     7
  5
1E5
 10
-0.355675
 20
0.436275
 30
0.0
 11
-0.354642
 21
0.425116
 31
0.0
  0
LINE
  8
0
  6
CONTINUOUS
 62
     7
  5
1E6
 10
-0.354642
 20
0.425116
 30
0.0
 11
-0.3534
 21
0.413909
 31
0.0
  0
LINE
  8
0
  6
CONTINUOUS
 62
     7
  5
1E7
 10
-0.3534
 20
0.413909
 30
0.0
 11
-0.351946
 21
0.402645
 31
0.0
  0
LINE
  8
0
  6
CONTINUOUS
 62
     7
  5
1E8
 10
-0.351946
 20
0.402645
 30
0.0
 11
-0.350277
 21
0.391315
 31
0.0
  0
LINE
  8
0
  6
CONTINUOUS
 62
     7
  5
1E9
 10
-0.350277
 20
0.391315
 30
0.0
 11
-0.348391
 21
0.37991
 31
0.0
  0
LINE
  8
0
  6
CONTINUOUS
 62
     7
  5
1EA
 10
-0.348391
 20
0.37991
 30
0.0
 11
-0.346286
 21
0.368421
 31
0.0
  0
LINE
  8
0
  6
CONTINUOUS
 62
     7
  5
1EB
 10
-0.346286
 20
0.368421
 30
0.0
 11
-0.343957
 21
0.356837
 31
0.0
  0
LINE
  8
0
  6
CONTINUOUS
 62
     7
  5
1EC
 10
-0.343957
 20
0.356837
 30
0.0
 11
-0.341401
 21
0.345149
 31
0.0
  0
LINE
  8
0
  6
CONTINUOUS
 62
     7
  5
1ED
 10
-0.341401
 20
0.345149
 30
0.0
 11
-0.338614
 21
0.333346
 31
0.0
  0
LINE
  8
0
  6
CONTINUOUS
 62
     7
  5
1EE
 10
-0.338614
 20
0.333346
 30
0.0
 11
-0.335591
 21
0.321418
 31
0.0
  0
LINE
  8
0
  6
CONTINUOUS
 62
     7
  5
1EF
 10
-0.335591
 20
0.321418
 30
0.0
 11
-0.332327
 21
0.309354
 31
0.0
  0
LINE
  8
0
  6
CONTINUOUS
 62
     7
  5
1F0
 10
-0.332327
 20
0.309354
 30
0.0
 11
-0.328816
 21
0.297143
 31
0.0
  0
LINE
  8
0
  6
CONTINUOUS
 62
     7
  5
1F1
 10
-0.328816
 20
0.297143
 30
0.0
 11
-0.325053
 21
0.284772
 31
0.0
  0
LINE
  8
0
  6
CONTINUOUS
 62
     7
  5
1F2
 10
-0.357757
 20
0.6875
 30
0.0
 11
-0.325053
 21
0.6875
 31
0.0
  0
LINE
  8
0
  6
CONTINUOUS
 62
     7
  5
1F3
 10
-0.944
 20
0.619921
 30
0.0
 11
-0.944
 21
0.0
 31
0.0
  0
LINE
  8
0
  6
CONTINUOUS
 62
     7
  5
1F4
 10
-0.944
 20
0.0
 30
0.0
 11
-0.944
 21
-0.619921
 31
0.0
  0
LINE
  8
0
  6
CONTINUOUS
 62
     7
  5
1F5
 10
-0.11
 20
-0.284772
 30
0.0
 11
-0.325053
 21
-0.284772
 31
0.0
  0
LINE
  8
0
  6
CONTINUOUS
 62
     7
  5
1F6
 10
-0.11
 20
0.284772
 30
0.0
 11
-0.325053
 21
0.284772
 31
0.0
  0
LINE
  8
0
  6
CONTINUOUS
 62
     7
  5
1F7
 10
-0.11
 20
-0.6875
 30
0.0
 11
-0.325053
 21
-0.6875
 31
0.0
  0
LINE
  8
0
  6
CONTINUOUS
 62
     7
  5
1F8
 10
-0.11
 20
0.6875
 30
0.0
 11
-0.325053
 21
0.6875
 31
0.0
  0
LINE
  8
0
  6
CONTINUOUS
 62
     7
  5
1F9
 10
0.0
 20
0.78125
 30
0.0
 11
0.0
 21
0.21875
 31
0.0
  0
LINE
  8
0
  6
CONTINUOUS
 62
     7
  5
1FA
 10
0.0
 20
0.21875
 30
0.0
 11
0.0
 21
-0.21875
 31
0.0
  0
LINE
  8
0
  6
CONTINUOUS
 62
     7
  5
1FB
 10
0.0
 20
-0.21875
 30
0.0
 11
0.0
 21
-0.78125
 31
0.0
  0
LINE
  8
0
  6
CONTINUOUS
 62
     7
  5
1FC
 10
-0.06
 20
0.78125
 30
0.0
 11
-0.06
 21
0.21875
 31
0.0
  0
LINE
  8
0
  6
CONTINUOUS
 62
     7
  5
1FD
 10
-0.06
 20
0.21875
 30
0.0
 11
0.0
 21
0.21875
 31
0.0
  0
LINE
  8
0
  6
CONTINUOUS
 62
     7
  5
1FE
 10
-0.06
 20
-0.21875
 30
0.0
 11
-0.06
 21
0.21875
 31
0.0
  0
LINE
  8
0
  6
CONTINUOUS
 62
     7
  5
1FF
 10
0.0
 20
-0.21875
 30
0.0
 11
-0.06
 21
-0.21875
 31
0.0
  0
LINE
  8
0
  6
CONTINUOUS
 62
     7
  5
200
 10
-0.06
 20
-0.21875
 30
0.0
 11
-0.06
 21
-0.78125
 31
0.0
  0
LINE
  8
0
  6
CONTINUOUS
 62
     7
  5
201
 10
0.3125
 20
0.78125
 30
0.0
 11
0.25
 21
0.78125
 31
0.0
  0
LINE
  8
0
  6
CONTINUOUS
 62
     7
  5
202
 10
0.25
 20
-0.78125
 30
0.0
 11
0.3125
 21
-0.78125
 31
0.0
  0
LINE
  8
0
  6
CONTINUOUS
 62
     7
  5
203
 10
0.500087
 20
-0.188
 30
0.0
 11
0.511087
 21
-0.188
 31
0.0
  0
LINE
  8
0
  6
CONTINUOUS
 62
     7
  5
204
 10
0.511087
 20
0.188
 30
0.0
 11
0.500087
 21
0.188
 31
0.0
  0
LINE
  8
0
  6
CONTINUOUS
 62
     7
  5
205
 10
0.531087
 20
0.419
 30
0.0
 11
0.571087
 21
0.419
 31
0.0
  0
LINE
  8
0
  6
CONTINUOUS
 62
     7
  5
206
 10
0.571087
 20
0.799
 30
0.0
 11
0.491087
 21
0.799
 31
0.0
  0
LINE
  8
0
  6
CONTINUOUS
 62
     7
  5
207
 10
0.491087
 20
-0.799
 30
0.0
 11
0.571087
 21
-0.799
 31
0.0
  0
LINE
  8
0
  6
CONTINUOUS
 62
     7
  5
208
 10
0.571087
 20
-0.419
 30
0.0
 11
0.531087
 21
-0.419
 31
0.0
  0
LINE
  8
0
  6
CONTINUOUS
 62
     7
  5
209
 10
0.571087
 20
0.796998
 30
0.0
 11
0.441087
 21
0.796998
 31
0.0
  0
LINE
  8
0
  6
CONTINUOUS
 62
     7
  5
20A
 10
0.441087
 20
0.669002
 30
0.0
 11
0.571087
 21
0.669002
 31
0.0
  0
LINE
  8
0
  6
CONTINUOUS
 62
     7
  5
20B
 10
0.441087
 20
-0.796998
 30
0.0
 11
0.571087
 21
-0.796998
 31
0.0
  0
LINE
  8
0
  6
CONTINUOUS
 62
     7
  5
20C
 10
0.571087
 20
-0.669002
 30
0.0
 11
0.441087
 21
-0.669002
 31
0.0
  0
LINE
  8
0
  6
CONTINUOUS
 62
     7
  5
20D
 10
1.807087
 20
0.719
 30
0.0
 11
1.707087
 21
0.719
 31
0.0
  0
LINE
  8
0
  6
CONTINUOUS
 62
     7
  5
20E
 10
1.707087
 20
0.499
 30
0.0
 11
1.807087
 21
0.499
 31
0.0
  0
LINE
  8
0
  6
CONTINUOUS
 62
     7
  5
20F
 10
1.807087
 20
-0.499
 30
0.0
 11
1.707087
 21
-0.499
 31
0.0
  0
LINE
  8
0
  6
CONTINUOUS
 62
     7
  5
210
 10
1.707087
 20
-0.719
 30
0.0
 11
1.807087
 21
-0.719
 31
0.0
  0
LINE
  8
0
  6
CONTINUOUS
 62
     7
  5
211
 10
0.25
 20
0.59
 30
0.0
 11
0.0
 21
0.59
 31
0.0
  0
LINE
  8
0
  6
CONTINUOUS
 62
     7
  5
212
 10
0.0
 20
-0.59
 30
0.0
 11
0.25
 21
-0.59
 31
0.0
  0
LINE
  8
0
  6
CONTINUOUS
 62
     7
  5
213
 10
0.441087
 20
-0.13
 30
0.0
 11
0.500087
 21
-0.13
 31
0.0
  0
LINE
  8
0
  6
CONTINUOUS
 62
     7
  5
214
 10
0.500087
 20
0.13
 30
0.0
 11
0.441087
 21
0.13
 31
0.0
  0
LINE
  8
0
  6
CONTINUOUS
 62
     7
  5
215
 10
0.441087
 20
0.482543
 30
0.0
 11
0.531087
 21
0.482543
 31
0.0
  0
LINE
  8
0
  6
CONTINUOUS
 62
     7
  5
216
 10
0.39124
 20
-0.767717
 30
0.0
 11
0.441087
 21
-0.767717
 31
0.0
  0
LINE
  8
0
  6
CONTINUOUS
 62
     7
  5
217
 10
0.441087
 20
0.767717
 30
0.0
 11
0.39124
 21
0.767717
 31
0.0
  0
LINE
  8
0
  6
CONTINUOUS
 62
     7
  5
218
 10
0.3125
 20
-0.708661
 30
0.0
 11
0.39124
 21
-0.708661
 31
0.0
  0
LINE
  8
0
  6
CONTINUOUS
 62
     7
  5
219
 10
0.39124
 20
0.708661
 30
0.0
 11
0.3125
 21
0.708661
 31
0.0
  0
LINE
  8
0
  6
CONTINUOUS
 62
     7
  5
21A
 10
-0.11
 20
-0.735
 30
0.0
 11
-0.06
 21
-0.735
 31
0.0
  0
LINE
  8
0
  6
CONTINUOUS
 62
     7
  5
21B
 10
-0.944
 20
0.551181
 30
0.0
 11
-1.02
 21
0.551181
 31
0.0
  0
LINE
  8
0
  6
CONTINUOUS
 62
     7
  5
21C
 10
-1.02
 20
-0.551181
 30
0.0
 11
-0.944
 21
-0.551181
 31
0.0
  0
ARC
  8
0
  6
CONTINUOUS
 62
     7
  5
21D
 10
-0.408898
 20
-0.660921
 30
0.0
 40
0.031
 50
30.0
 51
90.0
  0
ARC
  8
0
  6
CONTINUOUS
 62
     7
  5
21E
 10
-0.408898
 20
0.660921
 30
0.0
 40
0.031
 50
270.0
 51
330.0
  0
LINE
  8
0
  6
CONTINUOUS
 62
     7
  5
21F
 10
-0.408898
 20
0.629921
 30
0.0
 11
-0.934
 21
0.629921
 31
0.0
  0
LINE
  8
0
  6
CONTINUOUS
 62
     7
  5
220
 10
-0.934
 20
-0.629921
 30
0.0
 11
-0.408898
 21
-0.629921
 31
0.0
  0
LINE
  8
0
  6
CONTINUOUS
 62
     7
  5
221
 10
-0.382051
 20
-0.645421
 30
0.0
 11
-0.357757
 21
-0.6875
 31
0.0
  0
LINE
  8
0
  6
CONTINUOUS
 62
     7
  5
222
 10
-0.357757
 20
0.6875
 30
0.0
 11
-0.382051
 21
0.645421
 31
0.0
  0
LINE
  8
0
  6
CONTINUOUS
 62
     7
  5
223
 10
-0.934
 20
0.629921
 30
0.0
 11
-0.944
 21
0.619921
 31
0.0
  0
LINE
  8
0
  6
CONTINUOUS
 62
     7
  5
224
 10
-0.944
 20
-0.619921
 30
0.0
 11
-0.934
 21
-0.629921
 31
0.0
  0
LINE
  8
0
  6
CONTINUOUS
 62
     7
  5
225
 10
0.0
 20
0.78125
 30
0.0
 11
-0.06
 21
0.78125
 31
0.0
  0
LINE
  8
0
  6
CONTINUOUS
 62
     7
  5
226
 10
-0.06
 20
-0.78125
 30
0.0
 11
0.0
 21
-0.78125
 31
0.0
  0
LINE
  8
0
  6
CONTINUOUS
 62
     3
  5
227
 10
-1.02
 20
0.0
 30
0.0
 11
1.707087
 21
0.0
 31
0.0
  0
ENDSEC
  0
EOF
